ISO-10303-21;
HEADER;
FILE_DESCRIPTION (( 'STEP AP203' ),
    '1' );
FILE_NAME ('8907.STEP',
    '2022-07-08T14:33:41',
    ( '' ),
    ( '' ),
    'SwSTEP 2.0',
    'SolidWorks 2019',
    '' );
FILE_SCHEMA (( 'CONFIG_CONTROL_DESIGN' ));
ENDSEC;

DATA;
#1 = SECURITY_CLASSIFICATION_LEVEL ( 'unclassified' ) ;
#2 = ORIENTED_EDGE ( 'NONE', *, *, #176, .F. ) ;
#3 = EDGE_CURVE ( 'NONE', #163, #340, #51, .T. ) ;
#4 = PERSON_AND_ORGANIZATION_ROLE ( 'classification_officer' ) ;
#5 = PRODUCT ( '8907', '8907', '', ( #266 ) ) ;
#6 = AXIS2_PLACEMENT_3D ( 'NONE', #164, #101, #129 ) ;
#7 = ORIENTED_EDGE ( 'NONE', *, *, #3, .T. ) ;
#8 = ADVANCED_FACE ( 'NONE', ( #249, #285 ), #45, .T. ) ;
#9 = EDGE_LOOP ( 'NONE', ( #40, #100, #278, #82 ) ) ;
#10 = DIRECTION ( 'NONE',  ( 0.000000000000000000, 0.000000000000000000, -1.000000000000000000 ) ) ;
#11 = ORIENTED_EDGE ( 'NONE', *, *, #80, .F. ) ;
#12 = CYLINDRICAL_SURFACE ( 'NONE', #371, 10.00000000000000000 ) ;
#13 = ORIENTED_EDGE ( 'NONE', *, *, #80, .T. ) ;
#14 = CARTESIAN_POINT ( 'NONE',  ( 0.000000000000000000, 0.000000000000000000, 507.0000000000000000 ) ) ;
#15 = LINE ( 'NONE', #254, #62 ) ;
#16 = CARTESIAN_POINT ( 'NONE',  ( 6.700000000000001066, 0.000000000000000000, 6.999999999999992006 ) ) ;
#17 = EDGE_CURVE ( 'NONE', #324, #328, #15, .T. ) ;
#18 = DIRECTION ( 'NONE',  ( 0.000000000000000000, 0.000000000000000000, 1.000000000000000000 ) ) ;
#19 = DIRECTION ( 'NONE',  ( 0.000000000000000000, 0.000000000000000000, -1.000000000000000000 ) ) ;
#20 = AXIS2_PLACEMENT_3D ( 'NONE', #137, #376, #111 ) ;
#21 = DIRECTION ( 'NONE',  ( 1.000000000000000000, 0.000000000000000000, 0.000000000000000000 ) ) ;
#22 = FACE_BOUND ( 'NONE', #172, .T. ) ;
#23 = CARTESIAN_POINT ( 'NONE',  ( 0.000000000000000000, 0.000000000000000000, 7.000000000000000000 ) ) ;
#24 = FACE_OUTER_BOUND ( 'NONE', #9, .T. ) ;
#25 = APPROVAL_PERSON_ORGANIZATION ( #28, #192, #59 ) ;
#26 = CIRCLE ( 'NONE', #72, 6.700000000000001066 ) ;
#27 = CALENDAR_DATE ( 2022, 8, 7 ) ;
#28 = PERSON_AND_ORGANIZATION ( #144, #148 ) ;
#29 = ADVANCED_FACE ( 'NONE', ( #22, #136 ), #250, .T. ) ;
#30 = CIRCLE ( 'NONE', #293, 10.00000000000000000 ) ;
#31 = AXIS2_PLACEMENT_3D ( 'NONE', #76, #307, #81 ) ;
#32 = CARTESIAN_POINT ( 'NONE',  ( 0.000000000000000000, 0.000000000000000000, 0.000000000000000000 ) ) ;
#33 = EDGE_LOOP ( 'NONE', ( #169, #308, #227, #356 ) ) ;
#34 = VERTEX_POINT ( 'NONE', #16 ) ;
#35 = DATE_TIME_ROLE ( 'classification_date' ) ;
#36 = ORIENTED_EDGE ( 'NONE', *, *, #230, .F. ) ;
#37 = SHAPE_DEFINITION_REPRESENTATION ( #256, #282 ) ;
#38 = CARTESIAN_POINT ( 'NONE',  ( 0.000000000000000000, 0.000000000000000000, 7.699999999999985079 ) ) ;
#39 = APPLICATION_CONTEXT ( 'configuration controlled 3d designs of mechanical parts and assemblies' ) ;
#40 = ORIENTED_EDGE ( 'NONE', *, *, #102, .F. ) ;
#41 = FACE_OUTER_BOUND ( 'NONE', #108, .T. ) ;
#42 = FACE_OUTER_BOUND ( 'NONE', #189, .T. ) ;
#43 = CIRCLE ( 'NONE', #194, 6.000000000000000888 ) ;
#44 = DIRECTION ( 'NONE',  ( 0.000000000000000000, 0.000000000000000000, 1.000000000000000000 ) ) ;
#45 = PLANE ( 'NONE',  #358 ) ;
#46 = ADVANCED_FACE ( 'NONE', ( #305 ), #193, .F. ) ;
#47 = DIRECTION ( 'NONE',  ( 1.000000000000000000, 0.000000000000000000, 0.000000000000000000 ) ) ;
#48 = CARTESIAN_POINT ( 'NONE',  ( 0.000000000000000000, 0.000000000000000000, 7.000000000000000000 ) ) ;
#49 = DIRECTION ( 'NONE',  ( 1.000000000000000000, 0.000000000000000000, 0.000000000000000000 ) ) ;
#50 = ORIENTED_EDGE ( 'NONE', *, *, #114, .F. ) ;
#51 = CIRCLE ( 'NONE', #105, 4.099999999999999645 ) ;
#52 = AXIS2_PLACEMENT_3D ( 'NONE', #167, #44, #255 ) ;
#53 = EDGE_CURVE ( 'NONE', #181, #64, #200, .T. ) ;
#54 = EDGE_CURVE ( 'NONE', #277, #324, #30, .T. ) ;
#55 = CARTESIAN_POINT ( 'NONE',  ( -10.00000000000000000, 0.000000000000000000, 0.000000000000000000 ) ) ;
#56 = TOROIDAL_SURFACE ( 'NONE', #232, 6.700000000000001066, 0.6999999999999999556 ) ;
#57 = CARTESIAN_POINT ( 'NONE',  ( -10.00000000000000000, 0.000000000000000000, 7.000000000000000000 ) ) ;
#58 = ADVANCED_FACE ( 'NONE', ( #42 ), #116, .F. ) ;
#59 = APPROVAL_ROLE ( '' ) ;
#60 = DIRECTION ( 'NONE',  ( -0.000000000000000000, -0.000000000000000000, -1.000000000000000000 ) ) ;
#61 =( LENGTH_UNIT ( ) NAMED_UNIT ( * ) SI_UNIT ( .MILLI., .METRE. ) );
#62 = VECTOR ( 'NONE', #283, 1000.000000000000000 ) ;
#63 = AXIS2_PLACEMENT_3D ( 'NONE', #274, #131, #361 ) ;
#64 = VERTEX_POINT ( 'NONE', #198 ) ;
#65 = DIRECTION ( 'NONE',  ( -1.000000000000000000, 0.000000000000000000, 0.000000000000000000 ) ) ;
#66 = EDGE_CURVE ( 'NONE', #340, #163, #322, .T. ) ;
#67 = EDGE_LOOP ( 'NONE', ( #2, #333, #269, #141 ) ) ;
#68 = VERTEX_POINT ( 'NONE', #334 ) ;
#69 = APPROVAL_PERSON_ORGANIZATION ( #103, #380, #245 ) ;
#70 = APPROVAL_STATUS ( 'not_yet_approved' ) ;
#71 = CARTESIAN_POINT ( 'NONE',  ( 10.00000000000000000, 1.224646799147353256E-15, 7.000000000000000000 ) ) ;
#72 = AXIS2_PLACEMENT_3D ( 'NONE', #23, #142, #49 ) ;
#73 = DIRECTION ( 'NONE',  ( 1.000000000000000000, 0.000000000000000000, 0.000000000000000000 ) ) ;
#74 = CARTESIAN_POINT ( 'NONE',  ( 0.000000000000000000, 0.000000000000000000, 507.0000000000000000 ) ) ;
#75 = DIRECTION ( 'NONE',  ( 1.000000000000000000, 0.000000000000000000, 0.000000000000000000 ) ) ;
#76 = CARTESIAN_POINT ( 'NONE',  ( 0.000000000000000000, 0.000000000000000000, 7.699999999999985079 ) ) ;
#77 = AXIS2_PLACEMENT_3D ( 'NONE', #338, #85, #373 ) ;
#78 = CARTESIAN_POINT ( 'NONE',  ( 0.000000000000000000, 0.000000000000000000, 507.0000000000000000 ) ) ;
#79 = VECTOR ( 'NONE', #363, 1000.000000000000000 ) ;
#80 = EDGE_CURVE ( 'NONE', #68, #328, #134, .T. ) ;
#81 = DIRECTION ( 'NONE',  ( 1.000000000000000000, 0.000000000000000000, 0.000000000000000000 ) ) ;
#82 = ORIENTED_EDGE ( 'NONE', *, *, #288, .T. ) ;
#83 = DESIGN_CONTEXT ( 'detailed design', #342, 'design' ) ;
#84 = CARTESIAN_POINT ( 'NONE',  ( 10.00000000000000000, 1.224646799147353256E-15, 7.000000000000000000 ) ) ;
#85 = DIRECTION ( 'NONE',  ( -0.000000000000000000, -0.000000000000000000, -1.000000000000000000 ) ) ;
#86 = CC_DESIGN_APPROVAL ( #380, ( #228 ) ) ;
#87 = DIRECTION ( 'NONE',  ( -1.000000000000000000, 0.000000000000000000, 0.000000000000000000 ) ) ;
#88 = AXIS2_PLACEMENT_3D ( 'NONE', #138, #19, #252 ) ;
#89 = FACE_OUTER_BOUND ( 'NONE', #330, .T. ) ;
#90 = CC_DESIGN_DATE_AND_TIME_ASSIGNMENT ( #217, #35, ( #228 ) ) ;
#91 = APPROVAL_DATE_TIME ( #353, #192 ) ;
#92 = DATE_TIME_ROLE ( 'creation_date' ) ;
#93 = CALENDAR_DATE ( 2022, 8, 7 ) ;
#94 = ORIENTED_EDGE ( 'NONE', *, *, #230, .T. ) ;
#95 = ADVANCED_FACE ( 'NONE', ( #41 ), #12, .T. ) ;
#96 = AXIS2_PLACEMENT_3D ( 'NONE', #14, #313, #251 ) ;
#97 = DIRECTION ( 'NONE',  ( 0.000000000000000000, 0.000000000000000000, 1.000000000000000000 ) ) ;
#98 = ORIENTED_EDGE ( 'NONE', *, *, #183, .T. ) ;
#99 = DIRECTION ( 'NONE',  ( -0.000000000000000000, -0.000000000000000000, -1.000000000000000000 ) ) ;
#100 = ORIENTED_EDGE ( 'NONE', *, *, #323, .F. ) ;
#101 = DIRECTION ( 'NONE',  ( 0.000000000000000000, 0.000000000000000000, 1.000000000000000000 ) ) ;
#102 = EDGE_CURVE ( 'NONE', #277, #68, #218, .T. ) ;
#103 = PERSON_AND_ORGANIZATION ( #144, #148 ) ;
#104 = CC_DESIGN_DATE_AND_TIME_ASSIGNMENT ( #178, #92, ( #319 ) ) ;
#105 = AXIS2_PLACEMENT_3D ( 'NONE', #78, #195, #226 ) ;
#106 = PLANE ( 'NONE',  #119 ) ;
#107 = VECTOR ( 'NONE', #60, 1000.000000000000000 ) ;
#108 = EDGE_LOOP ( 'NONE', ( #160, #112, #13, #184 ) ) ;
#109 = CARTESIAN_POINT ( 'NONE',  ( 0.000000000000000000, 0.000000000000000000, 507.0000000000000000 ) ) ;
#110 = DIRECTION ( 'NONE',  ( 0.000000000000000000, 0.000000000000000000, 1.000000000000000000 ) ) ;
#111 = DIRECTION ( 'NONE',  ( -1.000000000000000000, 0.000000000000000000, 0.000000000000000000 ) ) ;
#112 = ORIENTED_EDGE ( 'NONE', *, *, #102, .T. ) ;
#113 = AXIS2_PLACEMENT_3D ( 'NONE', #366, #327, #135 ) ;
#114 = EDGE_CURVE ( 'NONE', #154, #237, #43, .T. ) ;
#115 = DIRECTION ( 'NONE',  ( 1.000000000000000000, 0.000000000000000000, 0.000000000000000000 ) ) ;
#116 = CYLINDRICAL_SURFACE ( 'NONE', #88, 4.099999999999999645 ) ;
#117 = CARTESIAN_POINT ( 'NONE',  ( 6.000000000000000888, 7.347880794884120722E-16, 7.699999999999985079 ) ) ;
#118 = LINE ( 'NONE', #369, #140 ) ;
#119 = AXIS2_PLACEMENT_3D ( 'NONE', #185, #270, #162 ) ;
#120 = DIRECTION ( 'NONE',  ( 0.000000000000000000, 0.000000000000000000, -1.000000000000000000 ) ) ;
#121 = EDGE_CURVE ( 'NONE', #154, #359, #306, .T. ) ;
#122 = COORDINATED_UNIVERSAL_TIME_OFFSET ( 1, 0, .AHEAD. ) ;
#123 = APPROVAL_ROLE ( '' ) ;
#124 = PERSON_AND_ORGANIZATION ( #144, #148 ) ;
#125 = CC_DESIGN_PERSON_AND_ORGANIZATION_ASSIGNMENT ( #204, #318, ( #349 ) ) ;
#126 = ORIENTED_EDGE ( 'NONE', *, *, #121, .T. ) ;
#127 = COORDINATED_UNIVERSAL_TIME_OFFSET ( 1, 0, .AHEAD. ) ;
#128 = VECTOR ( 'NONE', #339, 1000.000000000000000 ) ;
#129 = DIRECTION ( 'NONE',  ( 1.000000000000000000, 0.000000000000000000, 0.000000000000000000 ) ) ;
#130 = ORIENTED_EDGE ( 'NONE', *, *, #374, .F. ) ;
#131 = DIRECTION ( 'NONE',  ( 1.224646799147353207E-16, 1.000000000000000000, -0.000000000000000000 ) ) ;
#132 = ORIENTED_EDGE ( 'NONE', *, *, #347, .T. ) ;
#133 = ORIENTED_EDGE ( 'NONE', *, *, #53, .F. ) ;
#134 = CIRCLE ( 'NONE', #180, 10.00000000000000000 ) ;
#135 = DIRECTION ( 'NONE',  ( 1.000000000000000000, 0.000000000000000000, 0.000000000000000000 ) ) ;
#136 = FACE_OUTER_BOUND ( 'NONE', #216, .T. ) ;
#137 = CARTESIAN_POINT ( 'NONE',  ( 0.000000000000000000, 0.000000000000000000, 507.0000000000000000 ) ) ;
#138 = CARTESIAN_POINT ( 'NONE',  ( 0.000000000000000000, 0.000000000000000000, 507.0000000000000000 ) ) ;
#139 = DIRECTION ( 'NONE',  ( -0.000000000000000000, -0.000000000000000000, -1.000000000000000000 ) ) ;
#140 = VECTOR ( 'NONE', #139, 1000.000000000000000 ) ;
#141 = ORIENTED_EDGE ( 'NONE', *, *, #53, .T. ) ;
#142 = DIRECTION ( 'NONE',  ( -0.000000000000000000, -0.000000000000000000, -1.000000000000000000 ) ) ;
#143 = CARTESIAN_POINT ( 'NONE',  ( 0.000000000000000000, 0.000000000000000000, 507.0000000000000000 ) ) ;
#144 = PERSON ( 'NEURÈENÝ', 'NEURÈENÝ', 'NEURÈENÝ', ('NEURÈENÝ'), ('NEURÈENÝ'), ('NEURÈENÝ') ) ;
#145 = FACE_OUTER_BOUND ( 'NONE', #67, .T. ) ;
#146 = CARTESIAN_POINT ( 'NONE',  ( 6.000000000000000888, 7.347880794884120722E-16, 507.0000000000000000 ) ) ;
#147 = CARTESIAN_POINT ( 'NONE',  ( 4.099999999999999645, 5.021051876504147385E-16, 507.0000000000000000 ) ) ;
#148 = ORGANIZATION ( 'NEURÈENÝ', 'NEURÈENÝ', '' ) ;
#149 = AXIS2_PLACEMENT_3D ( 'NONE', #257, #368, #344 ) ;
#150 = PERSON_AND_ORGANIZATION ( #144, #148 ) ;
#151 = ORIENTED_EDGE ( 'NONE', *, *, #3, .F. ) ;
#152 = DIRECTION ( 'NONE',  ( 0.000000000000000000, 0.000000000000000000, 1.000000000000000000 ) ) ;
#153 = CC_DESIGN_APPROVAL ( #192, ( #349 ) ) ;
#154 = VERTEX_POINT ( 'NONE', #329 ) ;
#155 = CALENDAR_DATE ( 2022, 8, 7 ) ;
#156 = AXIS2_PLACEMENT_3D ( 'NONE', #375, #345, #87 ) ;
#157 = DIRECTION ( 'NONE',  ( 1.000000000000000000, 0.000000000000000000, 0.000000000000000000 ) ) ;
#158 = APPROVAL ( #378, 'NEURÈENÝ' ) ;
#159 = ORIENTED_EDGE ( 'NONE', *, *, #170, .F. ) ;
#160 = ORIENTED_EDGE ( 'NONE', *, *, #54, .F. ) ;
#161 = UNCERTAINTY_MEASURE_WITH_UNIT (LENGTH_MEASURE( 1.000000000000000082E-05 ), #61, 'distance_accuracy_value', 'NONE');
#162 = DIRECTION ( 'NONE',  ( 1.000000000000000000, 0.000000000000000000, -0.000000000000000000 ) ) ;
#163 = VERTEX_POINT ( 'NONE', #215 ) ;
#164 = CARTESIAN_POINT ( 'NONE',  ( 0.000000000000000000, 0.000000000000000000, 507.0000000000000000 ) ) ;
#165 = CIRCLE ( 'NONE', #273, 6.700000000000001066 ) ;
#166 = EDGE_LOOP ( 'NONE', ( #50, #126, #36, #130 ) ) ;
#167 = CARTESIAN_POINT ( 'NONE',  ( 0.000000000000000000, 0.000000000000000000, 507.0000000000000000 ) ) ;
#168 = FACE_OUTER_BOUND ( 'NONE', #166, .T. ) ;
#169 = ORIENTED_EDGE ( 'NONE', *, *, #121, .F. ) ;
#170 = EDGE_CURVE ( 'NONE', #370, #210, #341, .T. ) ;
#171 = CYLINDRICAL_SURFACE ( 'NONE', #379, 6.000000000000000888 ) ;
#172 = EDGE_LOOP ( 'NONE', ( #94, #241 ) ) ;
#173 = CC_DESIGN_PERSON_AND_ORGANIZATION_ASSIGNMENT ( #175, #320, ( #319 ) ) ;
#174 = LINE ( 'NONE', #258, #128 ) ;
#175 = PERSON_AND_ORGANIZATION ( #144, #148 ) ;
#176 = EDGE_CURVE ( 'NONE', #340, #64, #332, .T. ) ;
#177 = CIRCLE ( 'NONE', #265, 10.00000000000000000 ) ;
#178 = DATE_AND_TIME ( #27, #199 ) ;
#179 = DIRECTION ( 'NONE',  ( 1.000000000000000000, 0.000000000000000000, 0.000000000000000000 ) ) ;
#180 = AXIS2_PLACEMENT_3D ( 'NONE', #246, #152, #73 ) ;
#181 = VERTEX_POINT ( 'NONE', #188 ) ;
#182 = FACE_OUTER_BOUND ( 'NONE', #186, .T. ) ;
#183 = EDGE_CURVE ( 'NONE', #64, #181, #279, .T. ) ;
#184 = ORIENTED_EDGE ( 'NONE', *, *, #17, .F. ) ;
#185 = CARTESIAN_POINT ( 'NONE',  ( 0.000000000000000000, 0.000000000000000000, 0.000000000000000000 ) ) ;
#186 = EDGE_LOOP ( 'NONE', ( #299, #11 ) ) ;
#187 = EDGE_LOOP ( 'NONE', ( #248, #300 ) ) ;
#188 = CARTESIAN_POINT ( 'NONE',  ( -4.099999999999999645, 0.000000000000000000, 0.000000000000000000 ) ) ;
#189 = EDGE_LOOP ( 'NONE', ( #7, #365, #98, #275 ) ) ;
#190 = DIRECTION ( 'NONE',  ( 1.000000000000000000, 0.000000000000000000, 0.000000000000000000 ) ) ;
#191 = ORIENTED_EDGE ( 'NONE', *, *, #54, .T. ) ;
#192 = APPROVAL ( #377, 'NEURÈENÝ' ) ;
#193 = TOROIDAL_SURFACE ( 'NONE', #364, 6.700000000000001066, 0.6999999999999999556 ) ;
#194 = AXIS2_PLACEMENT_3D ( 'NONE', #38, #276, #190 ) ;
#195 = DIRECTION ( 'NONE',  ( 0.000000000000000000, 0.000000000000000000, 1.000000000000000000 ) ) ;
#196 = CARTESIAN_POINT ( 'NONE',  ( 0.000000000000000000, 0.000000000000000000, 7.000000000000000000 ) ) ;
#197 = DIRECTION ( 'NONE',  ( 1.000000000000000000, 0.000000000000000000, 0.000000000000000000 ) ) ;
#198 = CARTESIAN_POINT ( 'NONE',  ( 4.099999999999999645, 5.021051876504147385E-16, 0.000000000000000000 ) ) ;
#199 = LOCAL_TIME ( 16, 33, 41.00000000000000000, #292 ) ;
#200 = CIRCLE ( 'NONE', #77, 4.099999999999999645 ) ;
#201 = CYLINDRICAL_SURFACE ( 'NONE', #156, 10.00000000000000000 ) ;
#202 =( GEOMETRIC_REPRESENTATION_CONTEXT ( 3 ) GLOBAL_UNCERTAINTY_ASSIGNED_CONTEXT ( ( #161 ) ) GLOBAL_UNIT_ASSIGNED_CONTEXT ( ( #61, #235, #295 ) ) REPRESENTATION_CONTEXT ( 'NONE', 'WORKASPACE' ) );
#203 = APPLICATION_PROTOCOL_DEFINITION ( 'international standard', 'config_control_design', 1994, #39 ) ;
#204 = PERSON_AND_ORGANIZATION ( #144, #148 ) ;
#205 = ADVANCED_FACE ( 'NONE', ( #209, #182 ), #106, .F. ) ;
#206 = DATE_AND_TIME ( #93, #222 ) ;
#207 = APPROVAL_PERSON_ORGANIZATION ( #124, #158, #123 ) ;
#208 = PERSON_AND_ORGANIZATION_ROLE ( 'design_supplier' ) ;
#209 = FACE_BOUND ( 'NONE', #311, .T. ) ;
#210 = VERTEX_POINT ( 'NONE', #337 ) ;
#211 = PERSON_AND_ORGANIZATION ( #144, #148 ) ;
#212 = CARTESIAN_POINT ( 'NONE',  ( 4.099999999999999645, 5.021051876504147385E-16, 507.0000000000000000 ) ) ;
#213 = EDGE_LOOP ( 'NONE', ( #151, #335 ) ) ;
#214 = CLOSED_SHELL ( 'NONE', ( #58, #286, #219, #95, #316, #29, #205, #272, #8, #46, #264 ) ) ;
#215 = CARTESIAN_POINT ( 'NONE',  ( -4.099999999999999645, 0.000000000000000000, 507.0000000000000000 ) ) ;
#216 = EDGE_LOOP ( 'NONE', ( #304, #191 ) ) ;
#217 = DATE_AND_TIME ( #242, #247 ) ;
#218 = LINE ( 'NONE', #71, #79 ) ;
#219 = ADVANCED_FACE ( 'NONE', ( #240 ), #280, .T. ) ;
#220 = CARTESIAN_POINT ( 'NONE',  ( 0.000000000000000000, 0.000000000000000000, 7.699999999999985079 ) ) ;
#221 = DIRECTION ( 'NONE',  ( 0.000000000000000000, 0.000000000000000000, 1.000000000000000000 ) ) ;
#222 = LOCAL_TIME ( 16, 33, 41.00000000000000000, #262 ) ;
#223 = ORIENTED_EDGE ( 'NONE', *, *, #347, .F. ) ;
#224 = DIRECTION ( 'NONE',  ( -0.000000000000000000, -0.000000000000000000, -1.000000000000000000 ) ) ;
#225 = VECTOR ( 'NONE', #10, 1000.000000000000000 ) ;
#226 = DIRECTION ( 'NONE',  ( 1.000000000000000000, 0.000000000000000000, 0.000000000000000000 ) ) ;
#227 = ORIENTED_EDGE ( 'NONE', *, *, #374, .T. ) ;
#228 = SECURITY_CLASSIFICATION ( '', '', #1 ) ;
#229 = DIRECTION ( 'NONE',  ( -0.000000000000000000, -0.000000000000000000, -1.000000000000000000 ) ) ;
#230 = EDGE_CURVE ( 'NONE', #34, #359, #165, .T. ) ;
#231 = CALENDAR_DATE ( 2022, 8, 7 ) ;
#232 = AXIS2_PLACEMENT_3D ( 'NONE', #343, #18, #253 ) ;
#233 = CC_DESIGN_PERSON_AND_ORGANIZATION_ASSIGNMENT ( #150, #208, ( #349 ) ) ;
#234 = DIRECTION ( 'NONE',  ( 0.000000000000000000, -1.000000000000000000, 0.000000000000000000 ) ) ;
#235 =( NAMED_UNIT ( * ) PLANE_ANGLE_UNIT ( ) SI_UNIT ( $, .RADIAN. ) );
#236 = EDGE_CURVE ( 'NONE', #359, #34, #26, .T. ) ;
#237 = VERTEX_POINT ( 'NONE', #117 ) ;
#238 = CIRCLE ( 'NONE', #317, 10.00000000000000000 ) ;
#239 = EDGE_CURVE ( 'NONE', #210, #370, #260, .T. ) ;
#240 = FACE_OUTER_BOUND ( 'NONE', #271, .T. ) ;
#241 = ORIENTED_EDGE ( 'NONE', *, *, #236, .T. ) ;
#242 = CALENDAR_DATE ( 2022, 8, 7 ) ;
#243 = CARTESIAN_POINT ( 'NONE',  ( 0.000000000000000000, 0.000000000000000000, 7.000000000000000000 ) ) ;
#244 = ORIENTED_EDGE ( 'NONE', *, *, #259, .T. ) ;
#245 = APPROVAL_ROLE ( '' ) ;
#246 = CARTESIAN_POINT ( 'NONE',  ( 0.000000000000000000, 0.000000000000000000, 0.000000000000000000 ) ) ;
#247 = LOCAL_TIME ( 16, 33, 41.00000000000000000, #127 ) ;
#248 = ORIENTED_EDGE ( 'NONE', *, *, #170, .T. ) ;
#249 = FACE_BOUND ( 'NONE', #213, .T. ) ;
#250 = PLANE ( 'NONE',  #149 ) ;
#251 = DIRECTION ( 'NONE',  ( -1.000000000000000000, 0.000000000000000000, 0.000000000000000000 ) ) ;
#252 = DIRECTION ( 'NONE',  ( -1.000000000000000000, 0.000000000000000000, 0.000000000000000000 ) ) ;
#253 = DIRECTION ( 'NONE',  ( 1.000000000000000000, 0.000000000000000000, 0.000000000000000000 ) ) ;
#254 = CARTESIAN_POINT ( 'NONE',  ( -10.00000000000000000, 0.000000000000000000, 7.000000000000000000 ) ) ;
#255 = DIRECTION ( 'NONE',  ( 1.000000000000000000, 0.000000000000000000, 0.000000000000000000 ) ) ;
#256 = PRODUCT_DEFINITION_SHAPE ( 'NONE', 'NONE',  #319 ) ;
#257 = CARTESIAN_POINT ( 'NONE',  ( 0.000000000000000000, 0.000000000000000000, 7.000000000000000000 ) ) ;
#258 = CARTESIAN_POINT ( 'NONE',  ( -4.099999999999999645, 0.000000000000000000, 507.0000000000000000 ) ) ;
#259 = EDGE_CURVE ( 'NONE', #370, #154, #118, .T. ) ;
#260 = CIRCLE ( 'NONE', #52, 6.000000000000000888 ) ;
#261 = CARTESIAN_POINT ( 'NONE',  ( 6.700000000000001066, 0.000000000000000000, 7.699999999999985079 ) ) ;
#262 = COORDINATED_UNIVERSAL_TIME_OFFSET ( 1, 0, .AHEAD. ) ;
#263 = PERSON_AND_ORGANIZATION_ROLE ( 'design_owner' ) ;
#264 = ADVANCED_FACE ( 'NONE', ( #145 ), #350, .F. ) ;
#265 = AXIS2_PLACEMENT_3D ( 'NONE', #196, #309, #47 ) ;
#266 = MECHANICAL_CONTEXT ( 'NONE', #39, 'mechanical' ) ;
#267 = AXIS2_PLACEMENT_3D ( 'NONE', #261, #234, #120 ) ;
#268 = DATE_AND_TIME ( #155, #351 ) ;
#269 = ORIENTED_EDGE ( 'NONE', *, *, #301, .T. ) ;
#270 = DIRECTION ( 'NONE',  ( 0.000000000000000000, 0.000000000000000000, 1.000000000000000000 ) ) ;
#271 = EDGE_LOOP ( 'NONE', ( #303, #132, #360, #310 ) ) ;
#272 = ADVANCED_FACE ( 'NONE', ( #89 ), #171, .T. ) ;
#273 = AXIS2_PLACEMENT_3D ( 'NONE', #289, #229, #21 ) ;
#274 = CARTESIAN_POINT ( 'NONE',  ( -6.700000000000001066, 8.205133554287267548E-16, 7.699999999999985079 ) ) ;
#275 = ORIENTED_EDGE ( 'NONE', *, *, #301, .F. ) ;
#276 = DIRECTION ( 'NONE',  ( 0.000000000000000000, 0.000000000000000000, 1.000000000000000000 ) ) ;
#277 = VERTEX_POINT ( 'NONE', #84 ) ;
#278 = ORIENTED_EDGE ( 'NONE', *, *, #17, .T. ) ;
#279 = CIRCLE ( 'NONE', #113, 4.099999999999999645 ) ;
#280 = CYLINDRICAL_SURFACE ( 'NONE', #96, 6.000000000000000888 ) ;
#281 = DIRECTION ( 'NONE',  ( 1.000000000000000000, 0.000000000000000000, -0.000000000000000000 ) ) ;
#282 = ADVANCED_BREP_SHAPE_REPRESENTATION ( '8907', ( #326, #362 ), #202 ) ;
#283 = DIRECTION ( 'NONE',  ( -0.000000000000000000, -0.000000000000000000, -1.000000000000000000 ) ) ;
#284 = CC_DESIGN_PERSON_AND_ORGANIZATION_ASSIGNMENT ( #211, #4, ( #228 ) ) ;
#285 = FACE_OUTER_BOUND ( 'NONE', #187, .T. ) ;
#286 = ADVANCED_FACE ( 'NONE', ( #168 ), #56, .F. ) ;
#287 = DIRECTION ( 'NONE',  ( 0.000000000000000000, 0.000000000000000000, 1.000000000000000000 ) ) ;
#288 = EDGE_CURVE ( 'NONE', #328, #68, #238, .T. ) ;
#289 = CARTESIAN_POINT ( 'NONE',  ( 0.000000000000000000, 0.000000000000000000, 7.000000000000000000 ) ) ;
#290 = LOCAL_TIME ( 16, 33, 41.00000000000000000, #122 ) ;
#291 = CC_DESIGN_SECURITY_CLASSIFICATION ( #228, ( #349 ) ) ;
#292 = COORDINATED_UNIVERSAL_TIME_OFFSET ( 1, 0, .AHEAD. ) ;
#293 = AXIS2_PLACEMENT_3D ( 'NONE', #48, #367, #197 ) ;
#294 = CIRCLE ( 'NONE', #31, 6.000000000000000888 ) ;
#295 =( NAMED_UNIT ( * ) SI_UNIT ( $, .STERADIAN. ) SOLID_ANGLE_UNIT ( ) );
#296 = LINE ( 'NONE', #146, #107 ) ;
#297 = AXIS2_PLACEMENT_3D ( 'NONE', #74, #97, #157 ) ;
#298 = CARTESIAN_POINT ( 'NONE',  ( -6.700000000000001066, 8.205133554287267548E-16, 6.999999999999992006 ) ) ;
#299 = ORIENTED_EDGE ( 'NONE', *, *, #288, .F. ) ;
#300 = ORIENTED_EDGE ( 'NONE', *, *, #239, .T. ) ;
#301 = EDGE_CURVE ( 'NONE', #163, #181, #174, .T. ) ;
#302 = ORIENTED_EDGE ( 'NONE', *, *, #114, .T. ) ;
#303 = ORIENTED_EDGE ( 'NONE', *, *, #239, .F. ) ;
#304 = ORIENTED_EDGE ( 'NONE', *, *, #323, .T. ) ;
#305 = FACE_OUTER_BOUND ( 'NONE', #33, .T. ) ;
#306 = CIRCLE ( 'NONE', #63, 0.7000000000000000666 ) ;
#307 = DIRECTION ( 'NONE',  ( 0.000000000000000000, 0.000000000000000000, 1.000000000000000000 ) ) ;
#308 = ORIENTED_EDGE ( 'NONE', *, *, #321, .F. ) ;
#309 = DIRECTION ( 'NONE',  ( 0.000000000000000000, 0.000000000000000000, 1.000000000000000000 ) ) ;
#310 = ORIENTED_EDGE ( 'NONE', *, *, #259, .F. ) ;
#311 = EDGE_LOOP ( 'NONE', ( #133, #346 ) ) ;
#312 = CIRCLE ( 'NONE', #267, 0.7000000000000000666 ) ;
#313 = DIRECTION ( 'NONE',  ( -0.000000000000000000, -0.000000000000000000, -1.000000000000000000 ) ) ;
#314 = APPROVAL_DATE_TIME ( #206, #158 ) ;
#315 = PERSON_AND_ORGANIZATION ( #144, #148 ) ;
#316 = ADVANCED_FACE ( 'NONE', ( #24 ), #201, .T. ) ;
#317 = AXIS2_PLACEMENT_3D ( 'NONE', #372, #221, #115 ) ;
#318 = PERSON_AND_ORGANIZATION_ROLE ( 'creator' ) ;
#319 = PRODUCT_DEFINITION ( 'NEZNÁMÝ', '', #349, #83 ) ;
#320 = PERSON_AND_ORGANIZATION_ROLE ( 'creator' ) ;
#321 = EDGE_CURVE ( 'NONE', #237, #154, #294, .T. ) ;
#322 = CIRCLE ( 'NONE', #297, 4.099999999999999645 ) ;
#323 = EDGE_CURVE ( 'NONE', #324, #277, #177, .T. ) ;
#324 = VERTEX_POINT ( 'NONE', #57 ) ;
#325 = COORDINATED_UNIVERSAL_TIME_OFFSET ( 1, 0, .AHEAD. ) ;
#326 = MANIFOLD_SOLID_BREP ( 'Odebrat vysunutím3', #214 ) ;
#327 = DIRECTION ( 'NONE',  ( -0.000000000000000000, -0.000000000000000000, -1.000000000000000000 ) ) ;
#328 = VERTEX_POINT ( 'NONE', #55 ) ;
#329 = CARTESIAN_POINT ( 'NONE',  ( -6.000000000000000888, 0.000000000000000000, 7.699999999999985079 ) ) ;
#330 = EDGE_LOOP ( 'NONE', ( #223, #159, #244, #302 ) ) ;
#331 = CC_DESIGN_PERSON_AND_ORGANIZATION_ASSIGNMENT ( #315, #263, ( #5 ) ) ;
#332 = LINE ( 'NONE', #212, #225 ) ;
#333 = ORIENTED_EDGE ( 'NONE', *, *, #66, .T. ) ;
#334 = CARTESIAN_POINT ( 'NONE',  ( 10.00000000000000000, 1.224646799147353256E-15, 0.000000000000000000 ) ) ;
#335 = ORIENTED_EDGE ( 'NONE', *, *, #66, .F. ) ;
#336 = APPROVAL_DATE_TIME ( #268, #380 ) ;
#337 = CARTESIAN_POINT ( 'NONE',  ( 6.000000000000000888, 7.347880794884120722E-16, 507.0000000000000000 ) ) ;
#338 = CARTESIAN_POINT ( 'NONE',  ( 0.000000000000000000, 0.000000000000000000, 0.000000000000000000 ) ) ;
#339 = DIRECTION ( 'NONE',  ( 0.000000000000000000, 0.000000000000000000, -1.000000000000000000 ) ) ;
#340 = VERTEX_POINT ( 'NONE', #147 ) ;
#341 = CIRCLE ( 'NONE', #6, 6.000000000000000888 ) ;
#342 = APPLICATION_CONTEXT ( 'configuration controlled 3d designs of mechanical parts and assemblies' ) ;
#343 = CARTESIAN_POINT ( 'NONE',  ( 0.000000000000000000, 0.000000000000000000, 7.699999999999985079 ) ) ;
#344 = DIRECTION ( 'NONE',  ( 1.000000000000000000, 0.000000000000000000, -0.000000000000000000 ) ) ;
#345 = DIRECTION ( 'NONE',  ( -0.000000000000000000, -0.000000000000000000, -1.000000000000000000 ) ) ;
#346 = ORIENTED_EDGE ( 'NONE', *, *, #183, .F. ) ;
#347 = EDGE_CURVE ( 'NONE', #210, #237, #296, .T. ) ;
#348 = DIRECTION ( 'NONE',  ( -1.000000000000000000, 0.000000000000000000, 0.000000000000000000 ) ) ;
#349 = PRODUCT_DEFINITION_FORMATION_WITH_SPECIFIED_SOURCE ( 'LIBOVOLNÝ', '', #5, .NOT_KNOWN. ) ;
#350 = CYLINDRICAL_SURFACE ( 'NONE', #20, 4.099999999999999645 ) ;
#351 = LOCAL_TIME ( 16, 33, 41.00000000000000000, #325 ) ;
#352 = PRODUCT_RELATED_PRODUCT_CATEGORY ( 'detail', '', ( #5 ) ) ;
#353 = DATE_AND_TIME ( #231, #290 ) ;
#354 = DIRECTION ( 'NONE',  ( 0.000000000000000000, 0.000000000000000000, 1.000000000000000000 ) ) ;
#355 = CARTESIAN_POINT ( 'NONE',  ( -6.000000000000000888, 0.000000000000000000, 507.0000000000000000 ) ) ;
#356 = ORIENTED_EDGE ( 'NONE', *, *, #236, .F. ) ;
#357 = CC_DESIGN_APPROVAL ( #158, ( #319 ) ) ;
#358 = AXIS2_PLACEMENT_3D ( 'NONE', #143, #287, #281 ) ;
#359 = VERTEX_POINT ( 'NONE', #298 ) ;
#360 = ORIENTED_EDGE ( 'NONE', *, *, #321, .T. ) ;
#361 = DIRECTION ( 'NONE',  ( -1.000000000000000000, 1.224646799147353454E-16, 0.000000000000000000 ) ) ;
#362 = AXIS2_PLACEMENT_3D ( 'NONE', #32, #354, #179 ) ;
#363 = DIRECTION ( 'NONE',  ( -0.000000000000000000, -0.000000000000000000, -1.000000000000000000 ) ) ;
#364 = AXIS2_PLACEMENT_3D ( 'NONE', #220, #110, #75 ) ;
#365 = ORIENTED_EDGE ( 'NONE', *, *, #176, .T. ) ;
#366 = CARTESIAN_POINT ( 'NONE',  ( 0.000000000000000000, 0.000000000000000000, 0.000000000000000000 ) ) ;
#367 = DIRECTION ( 'NONE',  ( 0.000000000000000000, 0.000000000000000000, 1.000000000000000000 ) ) ;
#368 = DIRECTION ( 'NONE',  ( 0.000000000000000000, 0.000000000000000000, 1.000000000000000000 ) ) ;
#369 = CARTESIAN_POINT ( 'NONE',  ( -6.000000000000000888, 0.000000000000000000, 507.0000000000000000 ) ) ;
#370 = VERTEX_POINT ( 'NONE', #355 ) ;
#371 = AXIS2_PLACEMENT_3D ( 'NONE', #243, #99, #65 ) ;
#372 = CARTESIAN_POINT ( 'NONE',  ( 0.000000000000000000, 0.000000000000000000, 0.000000000000000000 ) ) ;
#373 = DIRECTION ( 'NONE',  ( 1.000000000000000000, 0.000000000000000000, 0.000000000000000000 ) ) ;
#374 = EDGE_CURVE ( 'NONE', #237, #34, #312, .T. ) ;
#375 = CARTESIAN_POINT ( 'NONE',  ( 0.000000000000000000, 0.000000000000000000, 7.000000000000000000 ) ) ;
#376 = DIRECTION ( 'NONE',  ( 0.000000000000000000, 0.000000000000000000, -1.000000000000000000 ) ) ;
#377 = APPROVAL_STATUS ( 'not_yet_approved' ) ;
#378 = APPROVAL_STATUS ( 'not_yet_approved' ) ;
#379 = AXIS2_PLACEMENT_3D ( 'NONE', #109, #224, #348 ) ;
#380 = APPROVAL ( #70, 'NEURÈENÝ' ) ;
#381 = APPLICATION_PROTOCOL_DEFINITION ( 'international standard', 'config_control_design', 1994, #342 ) ;
ENDSEC;
END-ISO-10303-21;
