ISO-10303-21;
HEADER;
FILE_DESCRIPTION (( 'STEP AP203' ),
    '1' );
FILE_NAME ('163b.STEP',
    '2022-07-08T14:53:34',
    ( '' ),
    ( '' ),
    'SwSTEP 2.0',
    'SolidWorks 2019',
    '' );
FILE_SCHEMA (( 'CONFIG_CONTROL_DESIGN' ));
ENDSEC;

DATA;
#1 = SHAPE_DEFINITION_REPRESENTATION ( #309, #285 ) ;
#2 = ORIENTED_EDGE ( 'NONE', *, *, #122, .T. ) ;
#3 = ORIENTED_EDGE ( 'NONE', *, *, #202, .F. ) ;
#4 = AXIS2_PLACEMENT_3D ( 'NONE', #316, #45, #198 ) ;
#5 = EDGE_CURVE ( 'NONE', #148, #59, #272, .T. ) ;
#6 = DIRECTION ( 'NONE',  ( 1.000000000000000000, 0.000000000000000000, 0.000000000000000000 ) ) ;
#7 = EDGE_CURVE ( 'NONE', #323, #36, #219, .T. ) ;
#8 = DESIGN_CONTEXT ( 'detailed design', #90, 'design' ) ;
#9 = ORIENTED_EDGE ( 'NONE', *, *, #267, .F. ) ;
#10 = VERTEX_POINT ( 'NONE', #127 ) ;
#11 = CYLINDRICAL_SURFACE ( 'NONE', #270, 6.000000000000000888 ) ;
#12 = DIRECTION ( 'NONE',  ( -0.000000000000000000, -0.000000000000000000, -1.000000000000000000 ) ) ;
#13 = LINE ( 'NONE', #133, #359 ) ;
#14 = AXIS2_PLACEMENT_3D ( 'NONE', #281, #368, #191 ) ;
#15 = PERSON_AND_ORGANIZATION_ROLE ( 'design_owner' ) ;
#16 = DIRECTION ( 'NONE',  ( 1.000000000000000000, 0.000000000000000000, 0.000000000000000000 ) ) ;
#17 = FACE_OUTER_BOUND ( 'NONE', #87, .T. ) ;
#18 = CARTESIAN_POINT ( 'NONE',  ( 0.000000000000000000, 0.000000000000000000, 307.0000000000000000 ) ) ;
#19 = DIRECTION ( 'NONE',  ( 1.224646799147353207E-16, 1.000000000000000000, -0.000000000000000000 ) ) ;
#20 = CLOSED_SHELL ( 'NONE', ( #310, #72, #374, #158, #141, #260, #132, #325, #120, #179, #279 ) ) ;
#21 = CARTESIAN_POINT ( 'NONE',  ( 0.000000000000000000, 0.000000000000000000, 7.000000000000000000 ) ) ;
#22 = APPROVAL ( #352, 'NEURÈENÝ' ) ;
#23 = DATE_TIME_ROLE ( 'creation_date' ) ;
#24 = CARTESIAN_POINT ( 'NONE',  ( 0.000000000000000000, 0.000000000000000000, 0.000000000000000000 ) ) ;
#25 = COORDINATED_UNIVERSAL_TIME_OFFSET ( 1, 0, .AHEAD. ) ;
#26 = AXIS2_PLACEMENT_3D ( 'NONE', #250, #138, #222 ) ;
#27 = CC_DESIGN_PERSON_AND_ORGANIZATION_ASSIGNMENT ( #228, #287, ( #296 ) ) ;
#28 = APPROVAL_PERSON_ORGANIZATION ( #367, #238, #289 ) ;
#29 = VERTEX_POINT ( 'NONE', #93 ) ;
#30 = COORDINATED_UNIVERSAL_TIME_OFFSET ( 1, 0, .AHEAD. ) ;
#31 = PLANE ( 'NONE',  #35 ) ;
#32 = VERTEX_POINT ( 'NONE', #357 ) ;
#33 = DIRECTION ( 'NONE',  ( 0.000000000000000000, 0.000000000000000000, -1.000000000000000000 ) ) ;
#34 = ORIENTED_EDGE ( 'NONE', *, *, #79, .T. ) ;
#35 = AXIS2_PLACEMENT_3D ( 'NONE', #21, #319, #140 ) ;
#36 = VERTEX_POINT ( 'NONE', #358 ) ;
#37 = CARTESIAN_POINT ( 'NONE',  ( 0.000000000000000000, 0.000000000000000000, 7.000000000000000000 ) ) ;
#38 = VECTOR ( 'NONE', #183, 1000.000000000000000 ) ;
#39 = AXIS2_PLACEMENT_3D ( 'NONE', #46, #106, #317 ) ;
#40 = CARTESIAN_POINT ( 'NONE',  ( 0.000000000000000000, 0.000000000000000000, 7.000000000000000000 ) ) ;
#41 = DIRECTION ( 'NONE',  ( 1.000000000000000000, 0.000000000000000000, -0.000000000000000000 ) ) ;
#42 = CARTESIAN_POINT ( 'NONE',  ( 0.000000000000000000, 0.000000000000000000, 0.000000000000000000 ) ) ;
#43 = AXIS2_PLACEMENT_3D ( 'NONE', #343, #225, #347 ) ;
#44 = PRODUCT_DEFINITION_FORMATION_WITH_SPECIFIED_SOURCE ( 'LIBOVOLNÝ', '', #196, .NOT_KNOWN. ) ;
#45 = DIRECTION ( 'NONE',  ( -0.000000000000000000, -0.000000000000000000, -1.000000000000000000 ) ) ;
#46 = CARTESIAN_POINT ( 'NONE',  ( 0.000000000000000000, 0.000000000000000000, 307.0000000000000000 ) ) ;
#47 = DIRECTION ( 'NONE',  ( -0.000000000000000000, -0.000000000000000000, -1.000000000000000000 ) ) ;
#48 = CC_DESIGN_PERSON_AND_ORGANIZATION_ASSIGNMENT ( #173, #200, ( #44 ) ) ;
#49 = VECTOR ( 'NONE', #365, 1000.000000000000000 ) ;
#50 = VERTEX_POINT ( 'NONE', #60 ) ;
#51 = CALENDAR_DATE ( 2022, 8, 7 ) ;
#52 = CARTESIAN_POINT ( 'NONE',  ( 0.000000000000000000, 0.000000000000000000, 7.500000000000007105 ) ) ;
#53 = PERSON_AND_ORGANIZATION ( #299, #126 ) ;
#54 = DIRECTION ( 'NONE',  ( -0.000000000000000000, -0.000000000000000000, -1.000000000000000000 ) ) ;
#55 = ORIENTED_EDGE ( 'NONE', *, *, #5, .F. ) ;
#56 = CALENDAR_DATE ( 2022, 8, 7 ) ;
#57 = VECTOR ( 'NONE', #33, 1000.000000000000000 ) ;
#58 = EDGE_LOOP ( 'NONE', ( #110, #201 ) ) ;
#59 = VERTEX_POINT ( 'NONE', #153 ) ;
#60 = CARTESIAN_POINT ( 'NONE',  ( 10.00000000000000000, 1.224646799147353256E-15, 7.000000000000000000 ) ) ;
#61 = CC_DESIGN_PERSON_AND_ORGANIZATION_ASSIGNMENT ( #159, #15, ( #196 ) ) ;
#62 = ORIENTED_EDGE ( 'NONE', *, *, #335, .T. ) ;
#63 = DIRECTION ( 'NONE',  ( 1.000000000000000000, 0.000000000000000000, 0.000000000000000000 ) ) ;
#64 = EDGE_CURVE ( 'NONE', #32, #50, #329, .T. ) ;
#65 = CARTESIAN_POINT ( 'NONE',  ( 0.000000000000000000, 0.000000000000000000, 7.500000000000007105 ) ) ;
#66 = APPLICATION_PROTOCOL_DEFINITION ( 'international standard', 'config_control_design', 1994, #333 ) ;
#67 = LOCAL_TIME ( 16, 53, 34.00000000000000000, #75 ) ;
#68 = FACE_BOUND ( 'NONE', #176, .T. ) ;
#69 = FACE_OUTER_BOUND ( 'NONE', #149, .T. ) ;
#70 = CARTESIAN_POINT ( 'NONE',  ( 0.000000000000000000, 0.000000000000000000, 307.0000000000000000 ) ) ;
#71 = AXIS2_PLACEMENT_3D ( 'NONE', #247, #102, #163 ) ;
#72 = ADVANCED_FACE ( 'NONE', ( #244 ), #113, .F. ) ;
#73 = MECHANICAL_CONTEXT ( 'NONE', #333, 'mechanical' ) ;
#74 = CARTESIAN_POINT ( 'NONE',  ( 0.000000000000000000, 0.000000000000000000, 7.500000000000007105 ) ) ;
#75 = COORDINATED_UNIVERSAL_TIME_OFFSET ( 1, 0, .AHEAD. ) ;
#76 = DIRECTION ( 'NONE',  ( -1.000000000000000000, 0.000000000000000000, 0.000000000000000000 ) ) ;
#77 = EDGE_CURVE ( 'NONE', #294, #59, #297, .T. ) ;
#78 = EDGE_CURVE ( 'NONE', #237, #323, #164, .T. ) ;
#79 = EDGE_CURVE ( 'NONE', #50, #29, #240, .T. ) ;
#80 = EDGE_LOOP ( 'NONE', ( #360, #286 ) ) ;
#81 = CC_DESIGN_APPROVAL ( #22, ( #44 ) ) ;
#82 = ORIENTED_EDGE ( 'NONE', *, *, #117, .T. ) ;
#83 = PERSON_AND_ORGANIZATION ( #299, #126 ) ;
#84 = CARTESIAN_POINT ( 'NONE',  ( 3.000000000000000444, 3.673940397442060361E-16, 307.0000000000000000 ) ) ;
#85 = ORIENTED_EDGE ( 'NONE', *, *, #361, .T. ) ;
#86 = APPROVAL_STATUS ( 'not_yet_approved' ) ;
#87 = EDGE_LOOP ( 'NONE', ( #174, #324, #154, #180 ) ) ;
#88 = TOROIDAL_SURFACE ( 'NONE', #314, 6.500000000000000888, 0.5000000000000000000 ) ;
#89 = ORIENTED_EDGE ( 'NONE', *, *, #77, .F. ) ;
#90 = APPLICATION_CONTEXT ( 'configuration controlled 3d designs of mechanical parts and assemblies' ) ;
#91 = ORIENTED_EDGE ( 'NONE', *, *, #64, .T. ) ;
#92 = EDGE_LOOP ( 'NONE', ( #353, #266, #363, #327 ) ) ;
#93 = CARTESIAN_POINT ( 'NONE',  ( 10.00000000000000000, 1.224646799147353256E-15, 0.000000000000000000 ) ) ;
#94 = DIRECTION ( 'NONE',  ( 0.000000000000000000, 0.000000000000000000, -1.000000000000000000 ) ) ;
#95 = EDGE_LOOP ( 'NONE', ( #55, #181, #377, #262 ) ) ;
#96 = CARTESIAN_POINT ( 'NONE',  ( 0.000000000000000000, 0.000000000000000000, 307.0000000000000000 ) ) ;
#97 = PLANE ( 'NONE',  #43 ) ;
#98 = CIRCLE ( 'NONE', #71, 0.5000000000000004441 ) ;
#99 = VERTEX_POINT ( 'NONE', #300 ) ;
#100 = CC_DESIGN_APPROVAL ( #238, ( #296 ) ) ;
#101 = PRODUCT_RELATED_PRODUCT_CATEGORY ( 'detail', '', ( #196 ) ) ;
#102 = DIRECTION ( 'NONE',  ( 0.000000000000000000, -1.000000000000000000, 0.000000000000000000 ) ) ;
#103 = EDGE_CURVE ( 'NONE', #99, #268, #379, .T. ) ;
#104 = CARTESIAN_POINT ( 'NONE',  ( -10.00000000000000000, 0.000000000000000000, 7.000000000000000000 ) ) ;
#105 = CARTESIAN_POINT ( 'NONE',  ( 0.000000000000000000, 0.000000000000000000, 7.000000000000000000 ) ) ;
#106 = DIRECTION ( 'NONE',  ( 0.000000000000000000, 0.000000000000000000, 1.000000000000000000 ) ) ;
#107 = COORDINATED_UNIVERSAL_TIME_OFFSET ( 1, 0, .AHEAD. ) ;
#108 = FACE_BOUND ( 'NONE', #58, .T. ) ;
#109 = FACE_OUTER_BOUND ( 'NONE', #92, .T. ) ;
#110 = ORIENTED_EDGE ( 'NONE', *, *, #242, .F. ) ;
#111 = DATE_TIME_ROLE ( 'classification_date' ) ;
#112 = DIRECTION ( 'NONE',  ( 0.000000000000000000, 0.000000000000000000, -1.000000000000000000 ) ) ;
#113 = TOROIDAL_SURFACE ( 'NONE', #336, 6.500000000000000888, 0.5000000000000000000 ) ;
#114 = DATE_AND_TIME ( #257, #227 ) ;
#115 = VECTOR ( 'NONE', #168, 1000.000000000000000 ) ;
#116 = LINE ( 'NONE', #84, #49 ) ;
#117 = EDGE_CURVE ( 'NONE', #294, #99, #253, .T. ) ;
#118 = ORIENTED_EDGE ( 'NONE', *, *, #335, .F. ) ;
#119 = AXIS2_PLACEMENT_3D ( 'NONE', #40, #47, #277 ) ;
#120 = ADVANCED_FACE ( 'NONE', ( #108, #312 ), #369, .T. ) ;
#121 = CARTESIAN_POINT ( 'NONE',  ( 0.000000000000000000, 0.000000000000000000, 7.500000000000007105 ) ) ;
#122 = EDGE_CURVE ( 'NONE', #356, #148, #302, .T. ) ;
#123 = DIRECTION ( 'NONE',  ( 0.000000000000000000, 0.000000000000000000, 1.000000000000000000 ) ) ;
#124 = CC_DESIGN_DATE_AND_TIME_ASSIGNMENT ( #378, #23, ( #296 ) ) ;
#125 = CARTESIAN_POINT ( 'NONE',  ( 6.000000000000000888, 7.347880794884120722E-16, 307.0000000000000000 ) ) ;
#126 = ORGANIZATION ( 'NEURÈENÝ', 'NEURÈENÝ', '' ) ;
#127 = CARTESIAN_POINT ( 'NONE',  ( -10.00000000000000000, 0.000000000000000000, 0.000000000000000000 ) ) ;
#128 = MANIFOLD_SOLID_BREP ( 'Odebrat vysunutím3', #20 ) ;
#129 = ORIENTED_EDGE ( 'NONE', *, *, #331, .T. ) ;
#130 = FACE_OUTER_BOUND ( 'NONE', #95, .T. ) ;
#131 = DIRECTION ( 'NONE',  ( 0.000000000000000000, 0.000000000000000000, 1.000000000000000000 ) ) ;
#132 = ADVANCED_FACE ( 'NONE', ( #68, #340 ), #97, .F. ) ;
#133 = CARTESIAN_POINT ( 'NONE',  ( -6.000000000000000888, 0.000000000000000000, 307.0000000000000000 ) ) ;
#134 = AXIS2_PLACEMENT_3D ( 'NONE', #65, #123, #63 ) ;
#135 = APPLICATION_PROTOCOL_DEFINITION ( 'international standard', 'config_control_design', 1994, #90 ) ;
#136 = DIRECTION ( 'NONE',  ( 0.000000000000000000, 0.000000000000000000, 1.000000000000000000 ) ) ;
#137 = DIRECTION ( 'NONE',  ( 0.000000000000000000, 0.000000000000000000, 1.000000000000000000 ) ) ;
#138 = DIRECTION ( 'NONE',  ( 0.000000000000000000, 0.000000000000000000, 1.000000000000000000 ) ) ;
#139 = LOCAL_TIME ( 16, 53, 34.00000000000000000, #207 ) ;
#140 = DIRECTION ( 'NONE',  ( 1.000000000000000000, 0.000000000000000000, -0.000000000000000000 ) ) ;
#141 = ADVANCED_FACE ( 'NONE', ( #345 ), #169, .T. ) ;
#142 = PERSON_AND_ORGANIZATION ( #299, #126 ) ;
#143 = ORIENTED_EDGE ( 'NONE', *, *, #307, .T. ) ;
#144 = DIRECTION ( 'NONE',  ( 1.000000000000000000, 0.000000000000000000, 0.000000000000000000 ) ) ;
#145 = ORIENTED_EDGE ( 'NONE', *, *, #242, .T. ) ;
#146 = APPROVAL_STATUS ( 'not_yet_approved' ) ;
#147 = CIRCLE ( 'NONE', #14, 10.00000000000000000 ) ;
#148 = VERTEX_POINT ( 'NONE', #304 ) ;
#149 = EDGE_LOOP ( 'NONE', ( #349, #34, #339, #118 ) ) ;
#150 = CARTESIAN_POINT ( 'NONE',  ( 0.000000000000000000, 0.000000000000000000, 307.0000000000000000 ) ) ;
#151 = AXIS2_PLACEMENT_3D ( 'NONE', #373, #19, #306 ) ;
#152 = APPROVAL_PERSON_ORGANIZATION ( #83, #165, #178 ) ;
#153 = CARTESIAN_POINT ( 'NONE',  ( 6.000000000000000888, 7.347880794884120722E-16, 7.500000000000007105 ) ) ;
#154 = ORIENTED_EDGE ( 'NONE', *, *, #213, .T. ) ;
#155 = UNCERTAINTY_MEASURE_WITH_UNIT (LENGTH_MEASURE( 1.000000000000000082E-05 ), #224, 'distance_accuracy_value', 'NONE');
#156 = VERTEX_POINT ( 'NONE', #192 ) ;
#157 = AXIS2_PLACEMENT_3D ( 'NONE', #348, #112, #326 ) ;
#158 = ADVANCED_FACE ( 'NONE', ( #69 ), #161, .T. ) ;
#159 = PERSON_AND_ORGANIZATION ( #299, #126 ) ;
#160 = DIRECTION ( 'NONE',  ( 0.000000000000000000, 0.000000000000000000, 1.000000000000000000 ) ) ;
#161 = CYLINDRICAL_SURFACE ( 'NONE', #119, 10.00000000000000000 ) ;
#162 = CARTESIAN_POINT ( 'NONE',  ( 0.000000000000000000, 0.000000000000000000, 0.000000000000000000 ) ) ;
#163 = DIRECTION ( 'NONE',  ( 0.000000000000000000, 0.000000000000000000, -1.000000000000000000 ) ) ;
#164 = CIRCLE ( 'NONE', #210, 3.000000000000000444 ) ;
#165 = APPROVAL ( #146, 'NEURÈENÝ' ) ;
#166 = FACE_OUTER_BOUND ( 'NONE', #231, .T. ) ;
#167 = DIRECTION ( 'NONE',  ( 1.000000000000000000, 0.000000000000000000, 0.000000000000000000 ) ) ;
#168 = DIRECTION ( 'NONE',  ( -0.000000000000000000, -0.000000000000000000, -1.000000000000000000 ) ) ;
#169 = CYLINDRICAL_SURFACE ( 'NONE', #263, 10.00000000000000000 ) ;
#170 = AXIS2_PLACEMENT_3D ( 'NONE', #70, #137, #194 ) ;
#171 = ORIENTED_EDGE ( 'NONE', *, *, #254, .F. ) ;
#172 = CC_DESIGN_PERSON_AND_ORGANIZATION_ASSIGNMENT ( #53, #255, ( #44 ) ) ;
#173 = PERSON_AND_ORGANIZATION ( #299, #126 ) ;
#174 = ORIENTED_EDGE ( 'NONE', *, *, #117, .F. ) ;
#175 = APPROVAL_DATE_TIME ( #114, #238 ) ;
#176 = EDGE_LOOP ( 'NONE', ( #9, #212 ) ) ;
#177 = CIRCLE ( 'NONE', #170, 3.000000000000000444 ) ;
#178 = APPROVAL_ROLE ( '' ) ;
#179 = ADVANCED_FACE ( 'NONE', ( #17 ), #88, .F. ) ;
#180 = ORIENTED_EDGE ( 'NONE', *, *, #103, .F. ) ;
#181 = ORIENTED_EDGE ( 'NONE', *, *, #122, .F. ) ;
#182 = CIRCLE ( 'NONE', #280, 3.000000000000000444 ) ;
#183 = DIRECTION ( 'NONE',  ( -0.000000000000000000, -0.000000000000000000, -1.000000000000000000 ) ) ;
#184 = DIRECTION ( 'NONE',  ( 0.000000000000000000, 0.000000000000000000, 1.000000000000000000 ) ) ;
#185 = LINE ( 'NONE', #104, #115 ) ;
#186 = CIRCLE ( 'NONE', #4, 6.500000000000000888 ) ;
#187 = EDGE_LOOP ( 'NONE', ( #206, #295, #381, #3 ) ) ;
#188 = EDGE_CURVE ( 'NONE', #10, #29, #269, .T. ) ;
#189 = CYLINDRICAL_SURFACE ( 'NONE', #264, 3.000000000000000444 ) ;
#190 = EDGE_LOOP ( 'NONE', ( #2, #85 ) ) ;
#191 = DIRECTION ( 'NONE',  ( 1.000000000000000000, 0.000000000000000000, 0.000000000000000000 ) ) ;
#192 = CARTESIAN_POINT ( 'NONE',  ( 3.000000000000000444, 3.673940397442060361E-16, 0.000000000000000000 ) ) ;
#193 = DIRECTION ( 'NONE',  ( -1.000000000000000000, 0.000000000000000000, 0.000000000000000000 ) ) ;
#194 = DIRECTION ( 'NONE',  ( 1.000000000000000000, 0.000000000000000000, 0.000000000000000000 ) ) ;
#195 = LOCAL_TIME ( 16, 53, 34.00000000000000000, #30 ) ;
#196 = PRODUCT ( '163b', '163b', '', ( #73 ) ) ;
#197 = DIRECTION ( 'NONE',  ( 1.000000000000000000, 0.000000000000000000, 0.000000000000000000 ) ) ;
#198 = DIRECTION ( 'NONE',  ( 1.000000000000000000, 0.000000000000000000, 0.000000000000000000 ) ) ;
#199 = APPROVAL_DATE_TIME ( #320, #165 ) ;
#200 = PERSON_AND_ORGANIZATION_ROLE ( 'creator' ) ;
#201 = ORIENTED_EDGE ( 'NONE', *, *, #78, .F. ) ;
#202 = EDGE_CURVE ( 'NONE', #356, #294, #13, .T. ) ;
#203 = DATE_AND_TIME ( #56, #67 ) ;
#204 = SECURITY_CLASSIFICATION_LEVEL ( 'unclassified' ) ;
#205 = DIRECTION ( 'NONE',  ( -0.000000000000000000, -0.000000000000000000, -1.000000000000000000 ) ) ;
#206 = ORIENTED_EDGE ( 'NONE', *, *, #361, .F. ) ;
#207 = COORDINATED_UNIVERSAL_TIME_OFFSET ( 1, 0, .AHEAD. ) ;
#208 = DIRECTION ( 'NONE',  ( 1.000000000000000000, 0.000000000000000000, 0.000000000000000000 ) ) ;
#209 = EDGE_LOOP ( 'NONE', ( #89, #82, #171, #330 ) ) ;
#210 = AXIS2_PLACEMENT_3D ( 'NONE', #150, #184, #214 ) ;
#211 = CIRCLE ( 'NONE', #243, 3.000000000000000444 ) ;
#212 = ORIENTED_EDGE ( 'NONE', *, *, #284, .F. ) ;
#213 = EDGE_CURVE ( 'NONE', #59, #268, #98, .T. ) ;
#214 = DIRECTION ( 'NONE',  ( 1.000000000000000000, 0.000000000000000000, 0.000000000000000000 ) ) ;
#215 = EDGE_LOOP ( 'NONE', ( #351, #308 ) ) ;
#216 = AXIS2_PLACEMENT_3D ( 'NONE', #37, #221, #167 ) ;
#217 = CARTESIAN_POINT ( 'NONE',  ( 0.000000000000000000, 0.000000000000000000, 7.000000000000000000 ) ) ;
#218 =( NAMED_UNIT ( * ) PLANE_ANGLE_UNIT ( ) SI_UNIT ( $, .RADIAN. ) );
#219 = LINE ( 'NONE', #273, #57 ) ;
#220 = AXIS2_PLACEMENT_3D ( 'NONE', #52, #258, #208 ) ;
#221 = DIRECTION ( 'NONE',  ( -0.000000000000000000, -0.000000000000000000, -1.000000000000000000 ) ) ;
#222 = DIRECTION ( 'NONE',  ( 1.000000000000000000, 0.000000000000000000, 0.000000000000000000 ) ) ;
#223 = CARTESIAN_POINT ( 'NONE',  ( 3.000000000000000444, 3.673940397442060361E-16, 307.0000000000000000 ) ) ;
#224 =( LENGTH_UNIT ( ) NAMED_UNIT ( * ) SI_UNIT ( .MILLI., .METRE. ) );
#225 = DIRECTION ( 'NONE',  ( 0.000000000000000000, 0.000000000000000000, 1.000000000000000000 ) ) ;
#226 = VECTOR ( 'NONE', #241, 1000.000000000000000 ) ;
#227 = LOCAL_TIME ( 16, 53, 34.00000000000000000, #107 ) ;
#228 = PERSON_AND_ORGANIZATION ( #299, #126 ) ;
#229 = CARTESIAN_POINT ( 'NONE',  ( 0.000000000000000000, 0.000000000000000000, 307.0000000000000000 ) ) ;
#230 = CYLINDRICAL_SURFACE ( 'NONE', #157, 3.000000000000000444 ) ;
#231 = EDGE_LOOP ( 'NONE', ( #145, #143, #288, #291 ) ) ;
#232 =( GEOMETRIC_REPRESENTATION_CONTEXT ( 3 ) GLOBAL_UNCERTAINTY_ASSIGNED_CONTEXT ( ( #155 ) ) GLOBAL_UNIT_ASSIGNED_CONTEXT ( ( #224, #218, #305 ) ) REPRESENTATION_CONTEXT ( 'NONE', 'WORKASPACE' ) );
#233 = PERSON_AND_ORGANIZATION ( #299, #126 ) ;
#234 = ORIENTED_EDGE ( 'NONE', *, *, #64, .F. ) ;
#235 = AXIS2_PLACEMENT_3D ( 'NONE', #229, #160, #41 ) ;
#236 = CC_DESIGN_SECURITY_CLASSIFICATION ( #322, ( #44 ) ) ;
#237 = VERTEX_POINT ( 'NONE', #223 ) ;
#238 = APPROVAL ( #86, 'NEURÈENÝ' ) ;
#239 = EDGE_CURVE ( 'NONE', #29, #10, #344, .T. ) ;
#240 = LINE ( 'NONE', #301, #38 ) ;
#241 = DIRECTION ( 'NONE',  ( -0.000000000000000000, -0.000000000000000000, -1.000000000000000000 ) ) ;
#242 = EDGE_CURVE ( 'NONE', #323, #237, #177, .T. ) ;
#243 = AXIS2_PLACEMENT_3D ( 'NONE', #24, #54, #144 ) ;
#244 = FACE_OUTER_BOUND ( 'NONE', #209, .T. ) ;
#245 = CYLINDRICAL_SURFACE ( 'NONE', #380, 6.000000000000000888 ) ;
#246 = AXIS2_PLACEMENT_3D ( 'NONE', #162, #303, #197 ) ;
#247 = CARTESIAN_POINT ( 'NONE',  ( 6.500000000000000888, 0.000000000000000000, 7.500000000000007105 ) ) ;
#248 = DIRECTION ( 'NONE',  ( -0.000000000000000000, -0.000000000000000000, -1.000000000000000000 ) ) ;
#249 = CARTESIAN_POINT ( 'NONE',  ( 0.000000000000000000, 0.000000000000000000, 307.0000000000000000 ) ) ;
#250 = CARTESIAN_POINT ( 'NONE',  ( 0.000000000000000000, 0.000000000000000000, 307.0000000000000000 ) ) ;
#251 = APPROVAL_ROLE ( '' ) ;
#252 = DIRECTION ( 'NONE',  ( -0.000000000000000000, -0.000000000000000000, -1.000000000000000000 ) ) ;
#253 = CIRCLE ( 'NONE', #151, 0.5000000000000004441 ) ;
#254 = EDGE_CURVE ( 'NONE', #268, #99, #186, .T. ) ;
#255 = PERSON_AND_ORGANIZATION_ROLE ( 'design_supplier' ) ;
#256 = CARTESIAN_POINT ( 'NONE',  ( 0.000000000000000000, 0.000000000000000000, 0.000000000000000000 ) ) ;
#257 = CALENDAR_DATE ( 2022, 8, 7 ) ;
#258 = DIRECTION ( 'NONE',  ( 0.000000000000000000, 0.000000000000000000, 1.000000000000000000 ) ) ;
#259 = EDGE_LOOP ( 'NONE', ( #91, #129 ) ) ;
#260 = ADVANCED_FACE ( 'NONE', ( #265, #290 ), #31, .T. ) ;
#261 = CARTESIAN_POINT ( 'NONE',  ( -6.000000000000000888, 0.000000000000000000, 7.500000000000007105 ) ) ;
#262 = ORIENTED_EDGE ( 'NONE', *, *, #77, .T. ) ;
#263 = AXIS2_PLACEMENT_3D ( 'NONE', #105, #252, #76 ) ;
#264 = AXIS2_PLACEMENT_3D ( 'NONE', #249, #94, #274 ) ;
#265 = FACE_BOUND ( 'NONE', #80, .T. ) ;
#266 = ORIENTED_EDGE ( 'NONE', *, *, #78, .T. ) ;
#267 = EDGE_CURVE ( 'NONE', #36, #156, #182, .T. ) ;
#268 = VERTEX_POINT ( 'NONE', #321 ) ;
#269 = CIRCLE ( 'NONE', #350, 10.00000000000000000 ) ;
#270 = AXIS2_PLACEMENT_3D ( 'NONE', #96, #366, #193 ) ;
#271 = DIRECTION ( 'NONE',  ( 0.000000000000000000, 0.000000000000000000, 1.000000000000000000 ) ) ;
#272 = LINE ( 'NONE', #125, #226 ) ;
#273 = CARTESIAN_POINT ( 'NONE',  ( -3.000000000000000444, 0.000000000000000000, 307.0000000000000000 ) ) ;
#274 = DIRECTION ( 'NONE',  ( -1.000000000000000000, 0.000000000000000000, 0.000000000000000000 ) ) ;
#275 = DIRECTION ( 'NONE',  ( 1.000000000000000000, 0.000000000000000000, 0.000000000000000000 ) ) ;
#276 = EDGE_CURVE ( 'NONE', #59, #294, #315, .T. ) ;
#277 = DIRECTION ( 'NONE',  ( -1.000000000000000000, 0.000000000000000000, 0.000000000000000000 ) ) ;
#278 = ORIENTED_EDGE ( 'NONE', *, *, #188, .T. ) ;
#279 = ADVANCED_FACE ( 'NONE', ( #109 ), #230, .F. ) ;
#280 = AXIS2_PLACEMENT_3D ( 'NONE', #256, #205, #375 ) ;
#281 = CARTESIAN_POINT ( 'NONE',  ( 0.000000000000000000, 0.000000000000000000, 7.000000000000000000 ) ) ;
#282 = DIRECTION ( 'NONE',  ( 1.000000000000000000, 0.000000000000000000, 0.000000000000000000 ) ) ;
#283 = LOCAL_TIME ( 16, 53, 34.00000000000000000, #25 ) ;
#284 = EDGE_CURVE ( 'NONE', #156, #36, #211, .T. ) ;
#285 = ADVANCED_BREP_SHAPE_REPRESENTATION ( '163b', ( #128, #246 ), #232 ) ;
#286 = ORIENTED_EDGE ( 'NONE', *, *, #103, .T. ) ;
#287 = PERSON_AND_ORGANIZATION_ROLE ( 'creator' ) ;
#288 = ORIENTED_EDGE ( 'NONE', *, *, #284, .T. ) ;
#289 = APPROVAL_ROLE ( '' ) ;
#290 = FACE_OUTER_BOUND ( 'NONE', #259, .T. ) ;
#291 = ORIENTED_EDGE ( 'NONE', *, *, #7, .F. ) ;
#292 = CC_DESIGN_APPROVAL ( #165, ( #322 ) ) ;
#293 = CALENDAR_DATE ( 2022, 8, 7 ) ;
#294 = VERTEX_POINT ( 'NONE', #261 ) ;
#295 = ORIENTED_EDGE ( 'NONE', *, *, #5, .T. ) ;
#296 = PRODUCT_DEFINITION ( 'NEZNÁMÝ', '', #44, #8 ) ;
#297 = CIRCLE ( 'NONE', #134, 6.000000000000000888 ) ;
#298 = ORIENTED_EDGE ( 'NONE', *, *, #79, .F. ) ;
#299 = PERSON ( 'NEURÈENÝ', 'NEURÈENÝ', 'NEURÈENÝ', ('NEURÈENÝ'), ('NEURÈENÝ'), ('NEURÈENÝ') ) ;
#300 = CARTESIAN_POINT ( 'NONE',  ( -6.500000000000000888, 7.960204194457796463E-16, 7.000000000000002665 ) ) ;
#301 = CARTESIAN_POINT ( 'NONE',  ( 10.00000000000000000, 1.224646799147353256E-15, 7.000000000000000000 ) ) ;
#302 = CIRCLE ( 'NONE', #26, 6.000000000000000888 ) ;
#303 = DIRECTION ( 'NONE',  ( 0.000000000000000000, 0.000000000000000000, 1.000000000000000000 ) ) ;
#304 = CARTESIAN_POINT ( 'NONE',  ( 6.000000000000000888, 7.347880794884120722E-16, 307.0000000000000000 ) ) ;
#305 =( NAMED_UNIT ( * ) SI_UNIT ( $, .STERADIAN. ) SOLID_ANGLE_UNIT ( ) );
#306 = DIRECTION ( 'NONE',  ( -1.000000000000000000, 1.224646799147351482E-16, 0.000000000000000000 ) ) ;
#307 = EDGE_CURVE ( 'NONE', #237, #156, #116, .T. ) ;
#308 = ORIENTED_EDGE ( 'NONE', *, *, #239, .F. ) ;
#309 = PRODUCT_DEFINITION_SHAPE ( 'NONE', 'NONE',  #296 ) ;
#310 = ADVANCED_FACE ( 'NONE', ( #166 ), #189, .F. ) ;
#311 = CARTESIAN_POINT ( 'NONE',  ( -6.000000000000000888, 0.000000000000000000, 307.0000000000000000 ) ) ;
#312 = FACE_OUTER_BOUND ( 'NONE', #190, .T. ) ;
#313 = DIRECTION ( 'NONE',  ( -1.000000000000000000, 0.000000000000000000, 0.000000000000000000 ) ) ;
#314 = AXIS2_PLACEMENT_3D ( 'NONE', #74, #341, #282 ) ;
#315 = CIRCLE ( 'NONE', #220, 6.000000000000000888 ) ;
#316 = CARTESIAN_POINT ( 'NONE',  ( 0.000000000000000000, 0.000000000000000000, 7.000000000000000000 ) ) ;
#317 = DIRECTION ( 'NONE',  ( 1.000000000000000000, 0.000000000000000000, 0.000000000000000000 ) ) ;
#318 = CARTESIAN_POINT ( 'NONE',  ( 0.000000000000000000, 0.000000000000000000, 0.000000000000000000 ) ) ;
#319 = DIRECTION ( 'NONE',  ( 0.000000000000000000, 0.000000000000000000, 1.000000000000000000 ) ) ;
#320 = DATE_AND_TIME ( #293, #283 ) ;
#321 = CARTESIAN_POINT ( 'NONE',  ( 6.500000000000000888, 0.000000000000000000, 7.000000000000002665 ) ) ;
#322 = SECURITY_CLASSIFICATION ( '', '', #204 ) ;
#323 = VERTEX_POINT ( 'NONE', #362 ) ;
#324 = ORIENTED_EDGE ( 'NONE', *, *, #276, .F. ) ;
#325 = ADVANCED_FACE ( 'NONE', ( #130 ), #11, .T. ) ;
#326 = DIRECTION ( 'NONE',  ( -1.000000000000000000, 0.000000000000000000, 0.000000000000000000 ) ) ;
#327 = ORIENTED_EDGE ( 'NONE', *, *, #267, .T. ) ;
#328 = CALENDAR_DATE ( 2022, 8, 7 ) ;
#329 = CIRCLE ( 'NONE', #370, 10.00000000000000000 ) ;
#330 = ORIENTED_EDGE ( 'NONE', *, *, #213, .F. ) ;
#331 = EDGE_CURVE ( 'NONE', #50, #32, #147, .T. ) ;
#332 = DIRECTION ( 'NONE',  ( 0.000000000000000000, 0.000000000000000000, 1.000000000000000000 ) ) ;
#333 = APPLICATION_CONTEXT ( 'configuration controlled 3d designs of mechanical parts and assemblies' ) ;
#334 = EDGE_LOOP ( 'NONE', ( #298, #234, #62, #278 ) ) ;
#335 = EDGE_CURVE ( 'NONE', #32, #10, #185, .T. ) ;
#336 = AXIS2_PLACEMENT_3D ( 'NONE', #121, #332, #338 ) ;
#337 = CIRCLE ( 'NONE', #39, 6.000000000000000888 ) ;
#338 = DIRECTION ( 'NONE',  ( 1.000000000000000000, 0.000000000000000000, 0.000000000000000000 ) ) ;
#339 = ORIENTED_EDGE ( 'NONE', *, *, #239, .T. ) ;
#340 = FACE_OUTER_BOUND ( 'NONE', #215, .T. ) ;
#341 = DIRECTION ( 'NONE',  ( 0.000000000000000000, 0.000000000000000000, 1.000000000000000000 ) ) ;
#342 = FACE_OUTER_BOUND ( 'NONE', #187, .T. ) ;
#343 = CARTESIAN_POINT ( 'NONE',  ( 0.000000000000000000, 0.000000000000000000, 0.000000000000000000 ) ) ;
#344 = CIRCLE ( 'NONE', #355, 10.00000000000000000 ) ;
#345 = FACE_OUTER_BOUND ( 'NONE', #334, .T. ) ;
#346 = DATE_AND_TIME ( #328, #139 ) ;
#347 = DIRECTION ( 'NONE',  ( 1.000000000000000000, 0.000000000000000000, -0.000000000000000000 ) ) ;
#348 = CARTESIAN_POINT ( 'NONE',  ( 0.000000000000000000, 0.000000000000000000, 307.0000000000000000 ) ) ;
#349 = ORIENTED_EDGE ( 'NONE', *, *, #331, .F. ) ;
#350 = AXIS2_PLACEMENT_3D ( 'NONE', #42, #131, #275 ) ;
#351 = ORIENTED_EDGE ( 'NONE', *, *, #188, .F. ) ;
#352 = APPROVAL_STATUS ( 'not_yet_approved' ) ;
#353 = ORIENTED_EDGE ( 'NONE', *, *, #307, .F. ) ;
#354 = CC_DESIGN_DATE_AND_TIME_ASSIGNMENT ( #203, #111, ( #322 ) ) ;
#355 = AXIS2_PLACEMENT_3D ( 'NONE', #318, #136, #16 ) ;
#356 = VERTEX_POINT ( 'NONE', #311 ) ;
#357 = CARTESIAN_POINT ( 'NONE',  ( -10.00000000000000000, 0.000000000000000000, 7.000000000000000000 ) ) ;
#358 = CARTESIAN_POINT ( 'NONE',  ( -3.000000000000000444, 0.000000000000000000, 0.000000000000000000 ) ) ;
#359 = VECTOR ( 'NONE', #248, 1000.000000000000000 ) ;
#360 = ORIENTED_EDGE ( 'NONE', *, *, #254, .T. ) ;
#361 = EDGE_CURVE ( 'NONE', #148, #356, #337, .T. ) ;
#362 = CARTESIAN_POINT ( 'NONE',  ( -3.000000000000000444, 0.000000000000000000, 307.0000000000000000 ) ) ;
#363 = ORIENTED_EDGE ( 'NONE', *, *, #7, .T. ) ;
#364 = CC_DESIGN_PERSON_AND_ORGANIZATION_ASSIGNMENT ( #142, #376, ( #322 ) ) ;
#365 = DIRECTION ( 'NONE',  ( 0.000000000000000000, 0.000000000000000000, -1.000000000000000000 ) ) ;
#366 = DIRECTION ( 'NONE',  ( -0.000000000000000000, -0.000000000000000000, -1.000000000000000000 ) ) ;
#367 = PERSON_AND_ORGANIZATION ( #299, #126 ) ;
#368 = DIRECTION ( 'NONE',  ( 0.000000000000000000, 0.000000000000000000, 1.000000000000000000 ) ) ;
#369 = PLANE ( 'NONE',  #235 ) ;
#370 = AXIS2_PLACEMENT_3D ( 'NONE', #217, #271, #6 ) ;
#371 = APPROVAL_DATE_TIME ( #346, #22 ) ;
#372 = APPROVAL_PERSON_ORGANIZATION ( #233, #22, #251 ) ;
#373 = CARTESIAN_POINT ( 'NONE',  ( -6.500000000000000888, 7.960204194457796463E-16, 7.500000000000007105 ) ) ;
#374 = ADVANCED_FACE ( 'NONE', ( #342 ), #245, .T. ) ;
#375 = DIRECTION ( 'NONE',  ( 1.000000000000000000, 0.000000000000000000, 0.000000000000000000 ) ) ;
#376 = PERSON_AND_ORGANIZATION_ROLE ( 'classification_officer' ) ;
#377 = ORIENTED_EDGE ( 'NONE', *, *, #202, .T. ) ;
#378 = DATE_AND_TIME ( #51, #195 ) ;
#379 = CIRCLE ( 'NONE', #216, 6.500000000000000888 ) ;
#380 = AXIS2_PLACEMENT_3D ( 'NONE', #18, #12, #313 ) ;
#381 = ORIENTED_EDGE ( 'NONE', *, *, #276, .T. ) ;
ENDSEC;
END-ISO-10303-21;
