ISO-10303-21;
HEADER;
FILE_DESCRIPTION (( 'STEP AP203' ),
    '1' );
FILE_NAME ('acc9.STEP',
    '2022-07-08T14:31:18',
    ( '' ),
    ( '' ),
    'SwSTEP 2.0',
    'SolidWorks 2019',
    '' );
FILE_SCHEMA (( 'CONFIG_CONTROL_DESIGN' ));
ENDSEC;

DATA;
#1 = EDGE_LOOP ( 'NONE', ( #322, #28, #173, #153 ) ) ;
#2 = AXIS2_PLACEMENT_3D ( 'NONE', #9, #243, #332 ) ;
#3 = ORIENTED_EDGE ( 'NONE', *, *, #103, .F. ) ;
#4 = ORIENTED_EDGE ( 'NONE', *, *, #253, .F. ) ;
#5 = DIRECTION ( 'NONE',  ( 1.000000000000000000, 0.000000000000000000, 0.000000000000000000 ) ) ;
#6 = ORIENTED_EDGE ( 'NONE', *, *, #370, .T. ) ;
#7 = DIRECTION ( 'NONE',  ( 0.000000000000000000, 0.000000000000000000, 1.000000000000000000 ) ) ;
#8 = ORIENTED_EDGE ( 'NONE', *, *, #42, .T. ) ;
#9 = CARTESIAN_POINT ( 'NONE',  ( 0.000000000000000000, 0.000000000000000000, 0.000000000000000000 ) ) ;
#10 = PLANE ( 'NONE',  #339 ) ;
#11 = VECTOR ( 'NONE', #125, 1000.000000000000000 ) ;
#12 = PRODUCT_DEFINITION_SHAPE ( 'NONE', 'NONE',  #294 ) ;
#13 = AXIS2_PLACEMENT_3D ( 'NONE', #254, #18, #35 ) ;
#14 = CARTESIAN_POINT ( 'NONE',  ( -6.000000000000000888, 0.000000000000000000, 182.0000000000000000 ) ) ;
#15 = ORIENTED_EDGE ( 'NONE', *, *, #284, .F. ) ;
#16 = CARTESIAN_POINT ( 'NONE',  ( 0.000000000000000000, 0.000000000000000000, 7.000000000000000000 ) ) ;
#17 = LINE ( 'NONE', #14, #11 ) ;
#18 = DIRECTION ( 'NONE',  ( 0.000000000000000000, -1.000000000000000000, 0.000000000000000000 ) ) ;
#19 = DIRECTION ( 'NONE',  ( 1.000000000000000000, 0.000000000000000000, 0.000000000000000000 ) ) ;
#20 = TOROIDAL_SURFACE ( 'NONE', #167, 6.700000000000001066, 0.6999999999999999556 ) ;
#21 =( LENGTH_UNIT ( ) NAMED_UNIT ( * ) SI_UNIT ( .MILLI., .METRE. ) );
#22 = APPROVAL_STATUS ( 'not_yet_approved' ) ;
#23 = DIRECTION ( 'NONE',  ( 1.000000000000000000, 0.000000000000000000, 0.000000000000000000 ) ) ;
#24 = AXIS2_PLACEMENT_3D ( 'NONE', #70, #342, #250 ) ;
#25 = ORIENTED_EDGE ( 'NONE', *, *, #377, .T. ) ;
#26 = ADVANCED_FACE ( 'NONE', ( #123 ), #69, .F. ) ;
#27 = ORIENTED_EDGE ( 'NONE', *, *, #284, .T. ) ;
#28 = ORIENTED_EDGE ( 'NONE', *, *, #347, .F. ) ;
#29 = ADVANCED_FACE ( 'NONE', ( #246, #216 ), #360, .T. ) ;
#30 = DIRECTION ( 'NONE',  ( 1.000000000000000000, 0.000000000000000000, 0.000000000000000000 ) ) ;
#31 = VERTEX_POINT ( 'NONE', #193 ) ;
#32 = FACE_OUTER_BOUND ( 'NONE', #324, .T. ) ;
#33 = FACE_OUTER_BOUND ( 'NONE', #139, .T. ) ;
#34 = AXIS2_PLACEMENT_3D ( 'NONE', #86, #7, #30 ) ;
#35 = DIRECTION ( 'NONE',  ( 0.000000000000000000, 0.000000000000000000, -1.000000000000000000 ) ) ;
#36 = DIRECTION ( 'NONE',  ( 1.000000000000000000, 0.000000000000000000, 0.000000000000000000 ) ) ;
#37 = DIRECTION ( 'NONE',  ( -0.000000000000000000, -0.000000000000000000, -1.000000000000000000 ) ) ;
#38 = DIRECTION ( 'NONE',  ( 0.000000000000000000, 0.000000000000000000, -1.000000000000000000 ) ) ;
#39 = DIRECTION ( 'NONE',  ( 0.000000000000000000, 0.000000000000000000, 1.000000000000000000 ) ) ;
#40 = DIRECTION ( 'NONE',  ( 1.000000000000000000, 0.000000000000000000, 0.000000000000000000 ) ) ;
#41 = CIRCLE ( 'NONE', #309, 10.00000000000000000 ) ;
#42 = EDGE_CURVE ( 'NONE', #356, #51, #379, .T. ) ;
#43 = APPROVAL ( #199, 'NEURÈENÝ' ) ;
#44 = ORIENTED_EDGE ( 'NONE', *, *, #201, .F. ) ;
#45 = PERSON_AND_ORGANIZATION ( #374, #286 ) ;
#46 = PERSON_AND_ORGANIZATION ( #374, #286 ) ;
#47 = COORDINATED_UNIVERSAL_TIME_OFFSET ( 1, 0, .AHEAD. ) ;
#48 = LOCAL_TIME ( 16, 31, 18.00000000000000000, #345 ) ;
#49 = APPLICATION_PROTOCOL_DEFINITION ( 'international standard', 'config_control_design', 1994, #174 ) ;
#50 = COORDINATED_UNIVERSAL_TIME_OFFSET ( 1, 0, .AHEAD. ) ;
#51 = VERTEX_POINT ( 'NONE', #186 ) ;
#52 = DIRECTION ( 'NONE',  ( -0.000000000000000000, -0.000000000000000000, -1.000000000000000000 ) ) ;
#53 = CC_DESIGN_PERSON_AND_ORGANIZATION_ASSIGNMENT ( #316, #166, ( #94 ) ) ;
#54 = CIRCLE ( 'NONE', #202, 10.00000000000000000 ) ;
#55 = ORIENTED_EDGE ( 'NONE', *, *, #253, .T. ) ;
#56 = ORIENTED_EDGE ( 'NONE', *, *, #114, .F. ) ;
#57 = FACE_OUTER_BOUND ( 'NONE', #150, .T. ) ;
#58 = ADVANCED_FACE ( 'NONE', ( #33 ), #191, .F. ) ;
#59 = ADVANCED_BREP_SHAPE_REPRESENTATION ( 'acc9', ( #188, #192 ), #381 ) ;
#60 = DIRECTION ( 'NONE',  ( 0.000000000000000000, 0.000000000000000000, -1.000000000000000000 ) ) ;
#61 = EDGE_LOOP ( 'NONE', ( #335, #15, #81, #3 ) ) ;
#62 = LINE ( 'NONE', #268, #99 ) ;
#63 = CARTESIAN_POINT ( 'NONE',  ( 0.000000000000000000, 0.000000000000000000, 0.000000000000000000 ) ) ;
#64 = FACE_OUTER_BOUND ( 'NONE', #233, .T. ) ;
#65 = DIRECTION ( 'NONE',  ( 1.000000000000000000, 0.000000000000000000, -0.000000000000000000 ) ) ;
#66 = VECTOR ( 'NONE', #38, 1000.000000000000000 ) ;
#67 = PRODUCT_RELATED_PRODUCT_CATEGORY ( 'detail', '', ( #93 ) ) ;
#68 = CARTESIAN_POINT ( 'NONE',  ( 6.000000000000000888, 7.347880794884120722E-16, 182.0000000000000000 ) ) ;
#69 = CYLINDRICAL_SURFACE ( 'NONE', #344, 4.250000000000000000 ) ;
#70 = CARTESIAN_POINT ( 'NONE',  ( 0.000000000000000000, 0.000000000000000000, 7.700000000000012612 ) ) ;
#71 = DIRECTION ( 'NONE',  ( 0.000000000000000000, 0.000000000000000000, 1.000000000000000000 ) ) ;
#72 = DIRECTION ( 'NONE',  ( 1.000000000000000000, 0.000000000000000000, 0.000000000000000000 ) ) ;
#73 = CARTESIAN_POINT ( 'NONE',  ( 0.000000000000000000, 0.000000000000000000, 182.0000000000000000 ) ) ;
#74 = CIRCLE ( 'NONE', #80, 0.7000000000000000666 ) ;
#75 =( NAMED_UNIT ( * ) SI_UNIT ( $, .STERADIAN. ) SOLID_ANGLE_UNIT ( ) );
#76 = CALENDAR_DATE ( 2022, 8, 7 ) ;
#77 = DATE_AND_TIME ( #79, #106 ) ;
#78 = ADVANCED_FACE ( 'NONE', ( #189, #159 ), #10, .T. ) ;
#79 = CALENDAR_DATE ( 2022, 8, 7 ) ;
#80 = AXIS2_PLACEMENT_3D ( 'NONE', #136, #337, #334 ) ;
#81 = ORIENTED_EDGE ( 'NONE', *, *, #288, .T. ) ;
#82 = EDGE_CURVE ( 'NONE', #331, #327, #17, .T. ) ;
#83 = AXIS2_PLACEMENT_3D ( 'NONE', #326, #275, #89 ) ;
#84 = DIRECTION ( 'NONE',  ( -0.000000000000000000, -0.000000000000000000, -1.000000000000000000 ) ) ;
#85 = ORIENTED_EDGE ( 'NONE', *, *, #203, .T. ) ;
#86 = CARTESIAN_POINT ( 'NONE',  ( 0.000000000000000000, 0.000000000000000000, 182.0000000000000000 ) ) ;
#87 = AXIS2_PLACEMENT_3D ( 'NONE', #372, #364, #100 ) ;
#88 = ORIENTED_EDGE ( 'NONE', *, *, #370, .F. ) ;
#89 = DIRECTION ( 'NONE',  ( -1.000000000000000000, 0.000000000000000000, 0.000000000000000000 ) ) ;
#90 = EDGE_LOOP ( 'NONE', ( #121, #272 ) ) ;
#91 = CARTESIAN_POINT ( 'NONE',  ( 0.000000000000000000, 0.000000000000000000, 182.0000000000000000 ) ) ;
#92 = VERTEX_POINT ( 'NONE', #303 ) ;
#93 = PRODUCT ( 'acc9', 'acc9', '', ( #109 ) ) ;
#94 = PRODUCT_DEFINITION_FORMATION_WITH_SPECIFIED_SOURCE ( 'LIBOVOLNÝ', '', #93, .NOT_KNOWN. ) ;
#95 = DIRECTION ( 'NONE',  ( 0.000000000000000000, 0.000000000000000000, 1.000000000000000000 ) ) ;
#96 = CARTESIAN_POINT ( 'NONE',  ( 0.000000000000000000, 0.000000000000000000, 7.000000000000000000 ) ) ;
#97 = CARTESIAN_POINT ( 'NONE',  ( 10.00000000000000000, 1.224646799147353256E-15, 7.000000000000000000 ) ) ;
#98 = DIRECTION ( 'NONE',  ( 1.000000000000000000, 0.000000000000000000, 0.000000000000000000 ) ) ;
#99 = VECTOR ( 'NONE', #60, 1000.000000000000000 ) ;
#100 = DIRECTION ( 'NONE',  ( 1.000000000000000000, 0.000000000000000000, 0.000000000000000000 ) ) ;
#101 = CARTESIAN_POINT ( 'NONE',  ( 4.250000000000000000, 5.204748896376250699E-16, 182.0000000000000000 ) ) ;
#102 = FACE_OUTER_BOUND ( 'NONE', #61, .T. ) ;
#103 = EDGE_CURVE ( 'NONE', #122, #292, #311, .T. ) ;
#104 = LINE ( 'NONE', #302, #375 ) ;
#105 = DIRECTION ( 'NONE',  ( 0.000000000000000000, 0.000000000000000000, 1.000000000000000000 ) ) ;
#106 = LOCAL_TIME ( 16, 31, 18.00000000000000000, #229 ) ;
#107 = EDGE_LOOP ( 'NONE', ( #44, #148 ) ) ;
#108 = EDGE_CURVE ( 'NONE', #276, #299, #149, .T. ) ;
#109 = MECHANICAL_CONTEXT ( 'NONE', #155, 'mechanical' ) ;
#110 = CALENDAR_DATE ( 2022, 8, 7 ) ;
#111 = CLOSED_SHELL ( 'NONE', ( #58, #221, #236, #198, #354, #29, #230, #260, #78, #297, #26 ) ) ;
#112 = PERSON_AND_ORGANIZATION ( #374, #286 ) ;
#113 = APPROVAL_PERSON_ORGANIZATION ( #264, #321, #204 ) ;
#114 = EDGE_CURVE ( 'NONE', #299, #276, #41, .T. ) ;
#115 = APPROVAL ( #22, 'NEURÈENÝ' ) ;
#116 = ORIENTED_EDGE ( 'NONE', *, *, #377, .F. ) ;
#117 = CIRCLE ( 'NONE', #336, 10.00000000000000000 ) ;
#118 = PLANE ( 'NONE',  #2 ) ;
#119 = ORIENTED_EDGE ( 'NONE', *, *, #201, .T. ) ;
#120 = CARTESIAN_POINT ( 'NONE',  ( 0.000000000000000000, 0.000000000000000000, 182.0000000000000000 ) ) ;
#121 = ORIENTED_EDGE ( 'NONE', *, *, #317, .F. ) ;
#122 = VERTEX_POINT ( 'NONE', #220 ) ;
#123 = FACE_OUTER_BOUND ( 'NONE', #207, .T. ) ;
#124 = UNCERTAINTY_MEASURE_WITH_UNIT (LENGTH_MEASURE( 1.000000000000000082E-05 ), #21, 'distance_accuracy_value', 'NONE');
#125 = DIRECTION ( 'NONE',  ( -0.000000000000000000, -0.000000000000000000, -1.000000000000000000 ) ) ;
#126 = CC_DESIGN_APPROVAL ( #115, ( #294 ) ) ;
#127 = CARTESIAN_POINT ( 'NONE',  ( 6.700000000000001066, 0.000000000000000000, 7.000000000000006217 ) ) ;
#128 = DIRECTION ( 'NONE',  ( -1.000000000000000000, 0.000000000000000000, 0.000000000000000000 ) ) ;
#129 = EDGE_CURVE ( 'NONE', #31, #356, #338, .T. ) ;
#130 = DIRECTION ( 'NONE',  ( -0.000000000000000000, -0.000000000000000000, -1.000000000000000000 ) ) ;
#131 = CARTESIAN_POINT ( 'NONE',  ( 0.000000000000000000, 0.000000000000000000, 7.000000000000000000 ) ) ;
#132 = DIRECTION ( 'NONE',  ( 0.000000000000000000, 0.000000000000000000, 1.000000000000000000 ) ) ;
#133 = CARTESIAN_POINT ( 'NONE',  ( 0.000000000000000000, 0.000000000000000000, 182.0000000000000000 ) ) ;
#134 = AXIS2_PLACEMENT_3D ( 'NONE', #323, #52, #176 ) ;
#135 = CARTESIAN_POINT ( 'NONE',  ( 0.000000000000000000, 0.000000000000000000, 7.700000000000012612 ) ) ;
#136 = CARTESIAN_POINT ( 'NONE',  ( -6.700000000000001066, 8.205133554287267548E-16, 7.700000000000012612 ) ) ;
#137 =( NAMED_UNIT ( * ) PLANE_ANGLE_UNIT ( ) SI_UNIT ( $, .RADIAN. ) );
#138 = SECURITY_CLASSIFICATION_LEVEL ( 'unclassified' ) ;
#139 = EDGE_LOOP ( 'NONE', ( #119, #353, #8, #141 ) ) ;
#140 = AXIS2_PLACEMENT_3D ( 'NONE', #73, #39, #217 ) ;
#141 = ORIENTED_EDGE ( 'NONE', *, *, #251, .F. ) ;
#142 = CARTESIAN_POINT ( 'NONE',  ( -10.00000000000000000, 0.000000000000000000, 0.000000000000000000 ) ) ;
#143 = ORIENTED_EDGE ( 'NONE', *, *, #273, .T. ) ;
#144 = CC_DESIGN_PERSON_AND_ORGANIZATION_ASSIGNMENT ( #380, #265, ( #294 ) ) ;
#145 = AXIS2_PLACEMENT_3D ( 'NONE', #182, #206, #152 ) ;
#146 = CIRCLE ( 'NONE', #145, 6.700000000000001066 ) ;
#147 = DIRECTION ( 'NONE',  ( 1.000000000000000000, 0.000000000000000000, 0.000000000000000000 ) ) ;
#148 = ORIENTED_EDGE ( 'NONE', *, *, #203, .F. ) ;
#149 = CIRCLE ( 'NONE', #369, 10.00000000000000000 ) ;
#150 = EDGE_LOOP ( 'NONE', ( #351, #143, #27, #196 ) ) ;
#151 = DATE_AND_TIME ( #212, #164 ) ;
#152 = DIRECTION ( 'NONE',  ( 1.000000000000000000, 0.000000000000000000, 0.000000000000000000 ) ) ;
#153 = ORIENTED_EDGE ( 'NONE', *, *, #307, .T. ) ;
#154 = CYLINDRICAL_SURFACE ( 'NONE', #134, 6.000000000000000888 ) ;
#155 = APPLICATION_CONTEXT ( 'configuration controlled 3d designs of mechanical parts and assemblies' ) ;
#156 = ORIENTED_EDGE ( 'NONE', *, *, #347, .T. ) ;
#157 = DIRECTION ( 'NONE',  ( -0.000000000000000000, -0.000000000000000000, -1.000000000000000000 ) ) ;
#158 = CC_DESIGN_APPROVAL ( #321, ( #274 ) ) ;
#159 = FACE_OUTER_BOUND ( 'NONE', #184, .T. ) ;
#160 = CYLINDRICAL_SURFACE ( 'NONE', #183, 10.00000000000000000 ) ;
#161 = LINE ( 'NONE', #283, #270 ) ;
#162 = AXIS2_PLACEMENT_3D ( 'NONE', #131, #300, #333 ) ;
#163 = AXIS2_PLACEMENT_3D ( 'NONE', #218, #279, #305 ) ;
#164 = LOCAL_TIME ( 16, 31, 18.00000000000000000, #50 ) ;
#165 = CARTESIAN_POINT ( 'NONE',  ( 0.000000000000000000, 0.000000000000000000, 0.000000000000000000 ) ) ;
#166 = PERSON_AND_ORGANIZATION_ROLE ( 'creator' ) ;
#167 = AXIS2_PLACEMENT_3D ( 'NONE', #271, #357, #5 ) ;
#168 = DATE_AND_TIME ( #232, #240 ) ;
#169 = PERSON_AND_ORGANIZATION_ROLE ( 'design_supplier' ) ;
#170 = EDGE_CURVE ( 'NONE', #376, #331, #308, .T. ) ;
#171 = CC_DESIGN_PERSON_AND_ORGANIZATION_ASSIGNMENT ( #112, #319, ( #274 ) ) ;
#172 = APPROVAL_ROLE ( '' ) ;
#173 = ORIENTED_EDGE ( 'NONE', *, *, #82, .T. ) ;
#174 = APPLICATION_CONTEXT ( 'configuration controlled 3d designs of mechanical parts and assemblies' ) ;
#175 = CIRCLE ( 'NONE', #223, 6.000000000000000888 ) ;
#176 = DIRECTION ( 'NONE',  ( -1.000000000000000000, 0.000000000000000000, 0.000000000000000000 ) ) ;
#177 = ORIENTED_EDGE ( 'NONE', *, *, #108, .T. ) ;
#178 = DIRECTION ( 'NONE',  ( 1.000000000000000000, 0.000000000000000000, 0.000000000000000000 ) ) ;
#179 = ORIENTED_EDGE ( 'NONE', *, *, #224, .F. ) ;
#180 = ORIENTED_EDGE ( 'NONE', *, *, #129, .F. ) ;
#181 = APPROVAL_DATE_TIME ( #151, #321 ) ;
#182 = CARTESIAN_POINT ( 'NONE',  ( 0.000000000000000000, 0.000000000000000000, 7.000000000000000000 ) ) ;
#183 = AXIS2_PLACEMENT_3D ( 'NONE', #16, #157, #195 ) ;
#184 = EDGE_LOOP ( 'NONE', ( #156, #343 ) ) ;
#185 = FACE_OUTER_BOUND ( 'NONE', #1, .T. ) ;
#186 = CARTESIAN_POINT ( 'NONE',  ( -4.250000000000000000, 0.000000000000000000, 0.000000000000000000 ) ) ;
#187 = AXIS2_PLACEMENT_3D ( 'NONE', #120, #241, #178 ) ;
#188 = MANIFOLD_SOLID_BREP ( 'Odebrat vysunutím3', #111 ) ;
#189 = FACE_BOUND ( 'NONE', #107, .T. ) ;
#190 = LINE ( 'NONE', #304, #280 ) ;
#191 = CYLINDRICAL_SURFACE ( 'NONE', #163, 4.250000000000000000 ) ;
#192 = AXIS2_PLACEMENT_3D ( 'NONE', #320, #105, #23 ) ;
#193 = CARTESIAN_POINT ( 'NONE',  ( 4.250000000000000000, 5.204748896376250699E-16, 182.0000000000000000 ) ) ;
#194 = EDGE_CURVE ( 'NONE', #276, #235, #161, .T. ) ;
#195 = DIRECTION ( 'NONE',  ( -1.000000000000000000, 0.000000000000000000, 0.000000000000000000 ) ) ;
#196 = ORIENTED_EDGE ( 'NONE', *, *, #82, .F. ) ;
#197 = CIRCLE ( 'NONE', #227, 6.000000000000000888 ) ;
#198 = ADVANCED_FACE ( 'NONE', ( #32 ), #359, .T. ) ;
#199 = APPROVAL_STATUS ( 'not_yet_approved' ) ;
#200 = DESIGN_CONTEXT ( 'detailed design', #174, 'design' ) ;
#201 = EDGE_CURVE ( 'NONE', #296, #31, #287, .T. ) ;
#202 = AXIS2_PLACEMENT_3D ( 'NONE', #165, #95, #19 ) ;
#203 = EDGE_CURVE ( 'NONE', #31, #296, #301, .T. ) ;
#204 = APPROVAL_ROLE ( '' ) ;
#205 = ORIENTED_EDGE ( 'NONE', *, *, #103, .T. ) ;
#206 = DIRECTION ( 'NONE',  ( -0.000000000000000000, -0.000000000000000000, -1.000000000000000000 ) ) ;
#207 = EDGE_LOOP ( 'NONE', ( #180, #85, #211, #209 ) ) ;
#208 = APPROVAL_PERSON_ORGANIZATION ( #263, #43, #315 ) ;
#209 = ORIENTED_EDGE ( 'NONE', *, *, #317, .T. ) ;
#210 = CARTESIAN_POINT ( 'NONE',  ( 0.000000000000000000, 0.000000000000000000, 0.000000000000000000 ) ) ;
#211 = ORIENTED_EDGE ( 'NONE', *, *, #251, .T. ) ;
#212 = CALENDAR_DATE ( 2022, 8, 7 ) ;
#213 = DIRECTION ( 'NONE',  ( -1.000000000000000000, 0.000000000000000000, 0.000000000000000000 ) ) ;
#214 = ORIENTED_EDGE ( 'NONE', *, *, #108, .F. ) ;
#215 = FACE_BOUND ( 'NONE', #90, .T. ) ;
#216 = FACE_OUTER_BOUND ( 'NONE', #267, .T. ) ;
#217 = DIRECTION ( 'NONE',  ( 1.000000000000000000, 0.000000000000000000, 0.000000000000000000 ) ) ;
#218 = CARTESIAN_POINT ( 'NONE',  ( 0.000000000000000000, 0.000000000000000000, 182.0000000000000000 ) ) ;
#219 = CARTESIAN_POINT ( 'NONE',  ( 6.000000000000000888, 7.347880794884120722E-16, 7.700000000000012612 ) ) ;
#220 = CARTESIAN_POINT ( 'NONE',  ( -6.700000000000001066, 8.205133554287267548E-16, 7.000000000000006217 ) ) ;
#221 = ADVANCED_FACE ( 'NONE', ( #355 ), #20, .F. ) ;
#222 = CARTESIAN_POINT ( 'NONE',  ( 0.000000000000000000, 0.000000000000000000, 182.0000000000000000 ) ) ;
#223 = AXIS2_PLACEMENT_3D ( 'NONE', #285, #132, #371 ) ;
#224 = EDGE_CURVE ( 'NONE', #235, #92, #117, .T. ) ;
#225 = CARTESIAN_POINT ( 'NONE',  ( -6.000000000000000888, 0.000000000000000000, 7.700000000000012612 ) ) ;
#226 = PERSON_AND_ORGANIZATION_ROLE ( 'design_owner' ) ;
#227 = AXIS2_PLACEMENT_3D ( 'NONE', #135, #259, #72 ) ;
#228 = PERSON_AND_ORGANIZATION ( #374, #286 ) ;
#229 = COORDINATED_UNIVERSAL_TIME_OFFSET ( 1, 0, .AHEAD. ) ;
#230 = ADVANCED_FACE ( 'NONE', ( #215, #278 ), #118, .F. ) ;
#231 = CIRCLE ( 'NONE', #13, 0.7000000000000000666 ) ;
#232 = CALENDAR_DATE ( 2022, 8, 7 ) ;
#233 = EDGE_LOOP ( 'NONE', ( #116, #214, #242, #295 ) ) ;
#234 = CC_DESIGN_PERSON_AND_ORGANIZATION_ASSIGNMENT ( #228, #226, ( #93 ) ) ;
#235 = VERTEX_POINT ( 'NONE', #142 ) ;
#236 = ADVANCED_FACE ( 'NONE', ( #57 ), #238, .T. ) ;
#237 = CC_DESIGN_DATE_AND_TIME_ASSIGNMENT ( #168, #350, ( #274 ) ) ;
#238 = CYLINDRICAL_SURFACE ( 'NONE', #318, 6.000000000000000888 ) ;
#239 = ORIENTED_EDGE ( 'NONE', *, *, #194, .F. ) ;
#240 = LOCAL_TIME ( 16, 31, 18.00000000000000000, #47 ) ;
#241 = DIRECTION ( 'NONE',  ( 0.000000000000000000, 0.000000000000000000, 1.000000000000000000 ) ) ;
#242 = ORIENTED_EDGE ( 'NONE', *, *, #194, .T. ) ;
#243 = DIRECTION ( 'NONE',  ( 0.000000000000000000, 0.000000000000000000, 1.000000000000000000 ) ) ;
#244 = CC_DESIGN_PERSON_AND_ORGANIZATION_ASSIGNMENT ( #46, #169, ( #94 ) ) ;
#245 = ORIENTED_EDGE ( 'NONE', *, *, #114, .T. ) ;
#246 = FACE_BOUND ( 'NONE', #352, .T. ) ;
#247 = CIRCLE ( 'NONE', #87, 4.250000000000000000 ) ;
#248 = TOROIDAL_SURFACE ( 'NONE', #24, 6.700000000000001066, 0.6999999999999999556 ) ;
#249 = DIRECTION ( 'NONE',  ( -0.000000000000000000, -0.000000000000000000, -1.000000000000000000 ) ) ;
#250 = DIRECTION ( 'NONE',  ( 1.000000000000000000, 0.000000000000000000, 0.000000000000000000 ) ) ;
#251 = EDGE_CURVE ( 'NONE', #296, #51, #62, .T. ) ;
#252 = CARTESIAN_POINT ( 'NONE',  ( 0.000000000000000000, 0.000000000000000000, 7.000000000000000000 ) ) ;
#253 = EDGE_CURVE ( 'NONE', #292, #122, #146, .T. ) ;
#254 = CARTESIAN_POINT ( 'NONE',  ( 6.700000000000001066, 0.000000000000000000, 7.700000000000012612 ) ) ;
#255 = DIRECTION ( 'NONE',  ( 0.000000000000000000, 0.000000000000000000, 1.000000000000000000 ) ) ;
#256 = CARTESIAN_POINT ( 'NONE',  ( -10.00000000000000000, 0.000000000000000000, 7.000000000000000000 ) ) ;
#257 = DIRECTION ( 'NONE',  ( 0.000000000000000000, 0.000000000000000000, 1.000000000000000000 ) ) ;
#258 = CIRCLE ( 'NONE', #140, 6.000000000000000888 ) ;
#259 = DIRECTION ( 'NONE',  ( 0.000000000000000000, 0.000000000000000000, 1.000000000000000000 ) ) ;
#260 = ADVANCED_FACE ( 'NONE', ( #185 ), #154, .T. ) ;
#261 = APPLICATION_PROTOCOL_DEFINITION ( 'international standard', 'config_control_design', 1994, #155 ) ;
#262 = DATE_AND_TIME ( #76, #48 ) ;
#263 = PERSON_AND_ORGANIZATION ( #374, #286 ) ;
#264 = PERSON_AND_ORGANIZATION ( #374, #286 ) ;
#265 = PERSON_AND_ORGANIZATION_ROLE ( 'creator' ) ;
#266 = CC_DESIGN_DATE_AND_TIME_ASSIGNMENT ( #262, #290, ( #294 ) ) ;
#267 = EDGE_LOOP ( 'NONE', ( #177, #245 ) ) ;
#268 = CARTESIAN_POINT ( 'NONE',  ( -4.250000000000000000, 0.000000000000000000, 182.0000000000000000 ) ) ;
#269 = EDGE_LOOP ( 'NONE', ( #293, #314, #4, #358 ) ) ;
#270 = VECTOR ( 'NONE', #330, 1000.000000000000000 ) ;
#271 = CARTESIAN_POINT ( 'NONE',  ( 0.000000000000000000, 0.000000000000000000, 7.700000000000012612 ) ) ;
#272 = ORIENTED_EDGE ( 'NONE', *, *, #42, .F. ) ;
#273 = EDGE_CURVE ( 'NONE', #376, #329, #104, .T. ) ;
#274 = SECURITY_CLASSIFICATION ( '', '', #138 ) ;
#275 = DIRECTION ( 'NONE',  ( -0.000000000000000000, -0.000000000000000000, -1.000000000000000000 ) ) ;
#276 = VERTEX_POINT ( 'NONE', #256 ) ;
#277 = EDGE_LOOP ( 'NONE', ( #179, #88 ) ) ;
#278 = FACE_OUTER_BOUND ( 'NONE', #277, .T. ) ;
#279 = DIRECTION ( 'NONE',  ( 0.000000000000000000, 0.000000000000000000, -1.000000000000000000 ) ) ;
#280 = VECTOR ( 'NONE', #37, 1000.000000000000000 ) ;
#281 = DIRECTION ( 'NONE',  ( 0.000000000000000000, 0.000000000000000000, -1.000000000000000000 ) ) ;
#282 = CARTESIAN_POINT ( 'NONE',  ( 0.000000000000000000, 0.000000000000000000, 7.000000000000000000 ) ) ;
#283 = CARTESIAN_POINT ( 'NONE',  ( -10.00000000000000000, 0.000000000000000000, 7.000000000000000000 ) ) ;
#284 = EDGE_CURVE ( 'NONE', #329, #327, #175, .T. ) ;
#285 = CARTESIAN_POINT ( 'NONE',  ( 0.000000000000000000, 0.000000000000000000, 7.700000000000012612 ) ) ;
#286 = ORGANIZATION ( 'NEURÈENÝ', 'NEURÈENÝ', '' ) ;
#287 = CIRCLE ( 'NONE', #34, 4.250000000000000000 ) ;
#288 = EDGE_CURVE ( 'NONE', #329, #292, #231, .T. ) ;
#289 = APPROVAL_STATUS ( 'not_yet_approved' ) ;
#290 = DATE_TIME_ROLE ( 'creation_date' ) ;
#291 = APPROVAL_DATE_TIME ( #77, #43 ) ;
#292 = VERTEX_POINT ( 'NONE', #127 ) ;
#293 = ORIENTED_EDGE ( 'NONE', *, *, #307, .F. ) ;
#294 = PRODUCT_DEFINITION ( 'NEZNÁMÝ', '', #94, #200 ) ;
#295 = ORIENTED_EDGE ( 'NONE', *, *, #224, .T. ) ;
#296 = VERTEX_POINT ( 'NONE', #367 ) ;
#297 = ADVANCED_FACE ( 'NONE', ( #102 ), #248, .F. ) ;
#298 = SHAPE_DEFINITION_REPRESENTATION ( #12, #59 ) ;
#299 = VERTEX_POINT ( 'NONE', #97 ) ;
#300 = DIRECTION ( 'NONE',  ( 0.000000000000000000, 0.000000000000000000, 1.000000000000000000 ) ) ;
#301 = CIRCLE ( 'NONE', #187, 4.250000000000000000 ) ;
#302 = CARTESIAN_POINT ( 'NONE',  ( 6.000000000000000888, 7.347880794884120722E-16, 182.0000000000000000 ) ) ;
#303 = CARTESIAN_POINT ( 'NONE',  ( 10.00000000000000000, 1.224646799147353256E-15, 0.000000000000000000 ) ) ;
#304 = CARTESIAN_POINT ( 'NONE',  ( 10.00000000000000000, 1.224646799147353256E-15, 7.000000000000000000 ) ) ;
#305 = DIRECTION ( 'NONE',  ( -1.000000000000000000, 0.000000000000000000, 0.000000000000000000 ) ) ;
#306 = DIRECTION ( 'NONE',  ( 1.000000000000000000, 0.000000000000000000, 0.000000000000000000 ) ) ;
#307 = EDGE_CURVE ( 'NONE', #327, #329, #197, .T. ) ;
#308 = CIRCLE ( 'NONE', #366, 6.000000000000000888 ) ;
#309 = AXIS2_PLACEMENT_3D ( 'NONE', #282, #365, #98 ) ;
#310 = AXIS2_PLACEMENT_3D ( 'NONE', #63, #249, #341 ) ;
#311 = CIRCLE ( 'NONE', #361, 6.700000000000001066 ) ;
#312 = CARTESIAN_POINT ( 'NONE',  ( 4.250000000000000000, 5.204748896376250699E-16, 0.000000000000000000 ) ) ;
#313 = CC_DESIGN_SECURITY_CLASSIFICATION ( #274, ( #94 ) ) ;
#314 = ORIENTED_EDGE ( 'NONE', *, *, #373, .T. ) ;
#315 = APPROVAL_ROLE ( '' ) ;
#316 = PERSON_AND_ORGANIZATION ( #374, #286 ) ;
#317 = EDGE_CURVE ( 'NONE', #51, #356, #247, .T. ) ;
#318 = AXIS2_PLACEMENT_3D ( 'NONE', #91, #84, #213 ) ;
#319 = PERSON_AND_ORGANIZATION_ROLE ( 'classification_officer' ) ;
#320 = CARTESIAN_POINT ( 'NONE',  ( 0.000000000000000000, 0.000000000000000000, 0.000000000000000000 ) ) ;
#321 = APPROVAL ( #289, 'NEURÈENÝ' ) ;
#322 = ORIENTED_EDGE ( 'NONE', *, *, #273, .F. ) ;
#323 = CARTESIAN_POINT ( 'NONE',  ( 0.000000000000000000, 0.000000000000000000, 182.0000000000000000 ) ) ;
#324 = EDGE_LOOP ( 'NONE', ( #56, #25, #6, #239 ) ) ;
#325 = CC_DESIGN_APPROVAL ( #43, ( #94 ) ) ;
#326 = CARTESIAN_POINT ( 'NONE',  ( 0.000000000000000000, 0.000000000000000000, 7.000000000000000000 ) ) ;
#327 = VERTEX_POINT ( 'NONE', #225 ) ;
#328 = DIRECTION ( 'NONE',  ( 0.000000000000000000, 0.000000000000000000, 1.000000000000000000 ) ) ;
#329 = VERTEX_POINT ( 'NONE', #219 ) ;
#330 = DIRECTION ( 'NONE',  ( -0.000000000000000000, -0.000000000000000000, -1.000000000000000000 ) ) ;
#331 = VERTEX_POINT ( 'NONE', #340 ) ;
#332 = DIRECTION ( 'NONE',  ( 1.000000000000000000, 0.000000000000000000, -0.000000000000000000 ) ) ;
#333 = DIRECTION ( 'NONE',  ( 1.000000000000000000, 0.000000000000000000, -0.000000000000000000 ) ) ;
#334 = DIRECTION ( 'NONE',  ( -1.000000000000000000, 1.224646799147353454E-16, 0.000000000000000000 ) ) ;
#335 = ORIENTED_EDGE ( 'NONE', *, *, #373, .F. ) ;
#336 = AXIS2_PLACEMENT_3D ( 'NONE', #210, #328, #147 ) ;
#337 = DIRECTION ( 'NONE',  ( 1.224646799147353207E-16, 1.000000000000000000, -0.000000000000000000 ) ) ;
#338 = LINE ( 'NONE', #101, #66 ) ;
#339 = AXIS2_PLACEMENT_3D ( 'NONE', #368, #257, #65 ) ;
#340 = CARTESIAN_POINT ( 'NONE',  ( -6.000000000000000888, 0.000000000000000000, 182.0000000000000000 ) ) ;
#341 = DIRECTION ( 'NONE',  ( 1.000000000000000000, 0.000000000000000000, 0.000000000000000000 ) ) ;
#342 = DIRECTION ( 'NONE',  ( 0.000000000000000000, 0.000000000000000000, 1.000000000000000000 ) ) ;
#343 = ORIENTED_EDGE ( 'NONE', *, *, #170, .T. ) ;
#344 = AXIS2_PLACEMENT_3D ( 'NONE', #133, #281, #128 ) ;
#345 = COORDINATED_UNIVERSAL_TIME_OFFSET ( 1, 0, .AHEAD. ) ;
#346 = APPROVAL_PERSON_ORGANIZATION ( #45, #115, #172 ) ;
#347 = EDGE_CURVE ( 'NONE', #331, #376, #258, .T. ) ;
#348 = DATE_AND_TIME ( #110, #362 ) ;
#349 = APPROVAL_DATE_TIME ( #348, #115 ) ;
#350 = DATE_TIME_ROLE ( 'classification_date' ) ;
#351 = ORIENTED_EDGE ( 'NONE', *, *, #170, .F. ) ;
#352 = EDGE_LOOP ( 'NONE', ( #55, #205 ) ) ;
#353 = ORIENTED_EDGE ( 'NONE', *, *, #129, .T. ) ;
#354 = ADVANCED_FACE ( 'NONE', ( #64 ), #160, .T. ) ;
#355 = FACE_OUTER_BOUND ( 'NONE', #269, .T. ) ;
#356 = VERTEX_POINT ( 'NONE', #312 ) ;
#357 = DIRECTION ( 'NONE',  ( 0.000000000000000000, 0.000000000000000000, 1.000000000000000000 ) ) ;
#358 = ORIENTED_EDGE ( 'NONE', *, *, #288, .F. ) ;
#359 = CYLINDRICAL_SURFACE ( 'NONE', #83, 10.00000000000000000 ) ;
#360 = PLANE ( 'NONE',  #162 ) ;
#361 = AXIS2_PLACEMENT_3D ( 'NONE', #96, #363, #36 ) ;
#362 = LOCAL_TIME ( 16, 31, 18.00000000000000000, #378 ) ;
#363 = DIRECTION ( 'NONE',  ( -0.000000000000000000, -0.000000000000000000, -1.000000000000000000 ) ) ;
#364 = DIRECTION ( 'NONE',  ( -0.000000000000000000, -0.000000000000000000, -1.000000000000000000 ) ) ;
#365 = DIRECTION ( 'NONE',  ( 0.000000000000000000, 0.000000000000000000, 1.000000000000000000 ) ) ;
#366 = AXIS2_PLACEMENT_3D ( 'NONE', #222, #71, #40 ) ;
#367 = CARTESIAN_POINT ( 'NONE',  ( -4.250000000000000000, 0.000000000000000000, 182.0000000000000000 ) ) ;
#368 = CARTESIAN_POINT ( 'NONE',  ( 0.000000000000000000, 0.000000000000000000, 182.0000000000000000 ) ) ;
#369 = AXIS2_PLACEMENT_3D ( 'NONE', #252, #255, #306 ) ;
#370 = EDGE_CURVE ( 'NONE', #92, #235, #54, .T. ) ;
#371 = DIRECTION ( 'NONE',  ( 1.000000000000000000, 0.000000000000000000, 0.000000000000000000 ) ) ;
#372 = CARTESIAN_POINT ( 'NONE',  ( 0.000000000000000000, 0.000000000000000000, 0.000000000000000000 ) ) ;
#373 = EDGE_CURVE ( 'NONE', #327, #122, #74, .T. ) ;
#374 = PERSON ( 'NEURÈENÝ', 'NEURÈENÝ', 'NEURÈENÝ', ('NEURÈENÝ'), ('NEURÈENÝ'), ('NEURÈENÝ') ) ;
#375 = VECTOR ( 'NONE', #130, 1000.000000000000000 ) ;
#376 = VERTEX_POINT ( 'NONE', #68 ) ;
#377 = EDGE_CURVE ( 'NONE', #299, #92, #190, .T. ) ;
#378 = COORDINATED_UNIVERSAL_TIME_OFFSET ( 1, 0, .AHEAD. ) ;
#379 = CIRCLE ( 'NONE', #310, 4.250000000000000000 ) ;
#380 = PERSON_AND_ORGANIZATION ( #374, #286 ) ;
#381 =( GEOMETRIC_REPRESENTATION_CONTEXT ( 3 ) GLOBAL_UNCERTAINTY_ASSIGNED_CONTEXT ( ( #124 ) ) GLOBAL_UNIT_ASSIGNED_CONTEXT ( ( #21, #137, #75 ) ) REPRESENTATION_CONTEXT ( 'NONE', 'WORKASPACE' ) );
ENDSEC;
END-ISO-10303-21;
