ISO-10303-21;
HEADER;
FILE_DESCRIPTION (( 'STEP AP203' ),
    '1' );
FILE_NAME ('aa9f.STEP',
    '2022-07-08T15:47:49',
    ( '' ),
    ( '' ),
    'SwSTEP 2.0',
    'SolidWorks 2019',
    '' );
FILE_SCHEMA (( 'CONFIG_CONTROL_DESIGN' ));
ENDSEC;

DATA;
#1 = VERTEX_POINT ( 'NONE', #11 ) ;
#2 = CC_DESIGN_APPROVAL ( #130, ( #198 ) ) ;
#3 = CIRCLE ( 'NONE', #65, 2.500000000000000000 ) ;
#4 = ADVANCED_FACE ( 'NONE', ( #330, #154 ), #73, .T. ) ;
#5 = FACE_OUTER_BOUND ( 'NONE', #104, .T. ) ;
#6 = DIRECTION ( 'NONE',  ( 0.000000000000000000, 0.000000000000000000, 1.000000000000000000 ) ) ;
#7 = VERTEX_POINT ( 'NONE', #302 ) ;
#8 = CC_DESIGN_PERSON_AND_ORGANIZATION_ASSIGNMENT ( #225, #344, ( #74 ) ) ;
#9 = AXIS2_PLACEMENT_3D ( 'NONE', #324, #267, #153 ) ;
#10 = CARTESIAN_POINT ( 'NONE',  ( 0.000000000000000000, 0.000000000000000000, 3.299999999999997158 ) ) ;
#11 = CARTESIAN_POINT ( 'NONE',  ( -2.500000000000000000, 0.000000000000000000, 3.299999999999997158 ) ) ;
#12 = CARTESIAN_POINT ( 'NONE',  ( -5.000000000000000000, 0.000000000000000000, 3.000000000000000000 ) ) ;
#13 = ORIENTED_EDGE ( 'NONE', *, *, #353, .F. ) ;
#14 = PERSON_AND_ORGANIZATION ( #283, #21 ) ;
#15 = CC_DESIGN_PERSON_AND_ORGANIZATION_ASSIGNMENT ( #334, #23, ( #88 ) ) ;
#16 = EDGE_LOOP ( 'NONE', ( #293, #44 ) ) ;
#17 = MANIFOLD_SOLID_BREP ( 'Odebrat vysunutím3', #359 ) ;
#18 = AXIS2_PLACEMENT_3D ( 'NONE', #108, #24, #251 ) ;
#19 = PERSON_AND_ORGANIZATION ( #283, #21 ) ;
#20 = LOCAL_TIME ( 17, 47, 49.00000000000000000, #216 ) ;
#21 = ORGANIZATION ( 'NEURÈENÝ', 'NEURÈENÝ', '' ) ;
#22 = ORIENTED_EDGE ( 'NONE', *, *, #40, .T. ) ;
#23 = PERSON_AND_ORGANIZATION_ROLE ( 'design_owner' ) ;
#24 = DIRECTION ( 'NONE',  ( 0.000000000000000000, 0.000000000000000000, 1.000000000000000000 ) ) ;
#25 = FACE_OUTER_BOUND ( 'NONE', #129, .T. ) ;
#26 = AXIS2_PLACEMENT_3D ( 'NONE', #286, #59, #29 ) ;
#27 = APPROVAL_PERSON_ORGANIZATION ( #100, #130, #109 ) ;
#28 = DIRECTION ( 'NONE',  ( 1.000000000000000000, 0.000000000000000000, 0.000000000000000000 ) ) ;
#29 = DIRECTION ( 'NONE',  ( -1.000000000000000000, 1.224646799147353207E-16, 0.000000000000000000 ) ) ;
#30 = ADVANCED_FACE ( 'NONE', ( #47, #110 ), #340, .T. ) ;
#31 = CARTESIAN_POINT ( 'NONE',  ( 1.250000000000000000, 1.530808498934191324E-16, 203.0000000000000000 ) ) ;
#32 = CARTESIAN_POINT ( 'NONE',  ( 5.000000000000000000, 6.123233995736766282E-16, 3.000000000000000000 ) ) ;
#33 = TOROIDAL_SURFACE ( 'NONE', #362, 2.799999999999999822, 0.2999999999999999889 ) ;
#34 = ORIENTED_EDGE ( 'NONE', *, *, #68, .F. ) ;
#35 = ORIENTED_EDGE ( 'NONE', *, *, #218, .T. ) ;
#36 = EDGE_CURVE ( 'NONE', #288, #305, #63, .T. ) ;
#37 = AXIS2_PLACEMENT_3D ( 'NONE', #137, #169, #195 ) ;
#38 = DIRECTION ( 'NONE',  ( -0.000000000000000000, -0.000000000000000000, -1.000000000000000000 ) ) ;
#39 = DIRECTION ( 'NONE',  ( 1.000000000000000000, 0.000000000000000000, 0.000000000000000000 ) ) ;
#40 = EDGE_CURVE ( 'NONE', #7, #268, #200, .T. ) ;
#41 = VERTEX_POINT ( 'NONE', #226 ) ;
#42 = CARTESIAN_POINT ( 'NONE',  ( 0.000000000000000000, 0.000000000000000000, 0.000000000000000000 ) ) ;
#43 = TOROIDAL_SURFACE ( 'NONE', #243, 2.799999999999999822, 0.2999999999999999889 ) ;
#44 = ORIENTED_EDGE ( 'NONE', *, *, #284, .F. ) ;
#45 = LOCAL_TIME ( 17, 47, 49.00000000000000000, #307 ) ;
#46 = DIRECTION ( 'NONE',  ( -0.000000000000000000, -0.000000000000000000, -1.000000000000000000 ) ) ;
#47 = FACE_BOUND ( 'NONE', #271, .T. ) ;
#48 =( NAMED_UNIT ( * ) PLANE_ANGLE_UNIT ( ) SI_UNIT ( $, .RADIAN. ) );
#49 = ORIENTED_EDGE ( 'NONE', *, *, #187, .F. ) ;
#50 = CARTESIAN_POINT ( 'NONE',  ( 0.000000000000000000, 0.000000000000000000, 0.000000000000000000 ) ) ;
#51 = ORIENTED_EDGE ( 'NONE', *, *, #326, .F. ) ;
#52 = CIRCLE ( 'NONE', #66, 1.250000000000000000 ) ;
#53 = APPROVAL_DATE_TIME ( #279, #130 ) ;
#54 = CARTESIAN_POINT ( 'NONE',  ( 0.000000000000000000, 0.000000000000000000, 203.0000000000000000 ) ) ;
#55 = FACE_OUTER_BOUND ( 'NONE', #295, .T. ) ;
#56 = CC_DESIGN_DATE_AND_TIME_ASSIGNMENT ( #105, #370, ( #198 ) ) ;
#57 = PERSON_AND_ORGANIZATION_ROLE ( 'classification_officer' ) ;
#58 = FACE_BOUND ( 'NONE', #16, .T. ) ;
#59 = DIRECTION ( 'NONE',  ( 1.224646799147353207E-16, 1.000000000000000000, -0.000000000000000000 ) ) ;
#60 = EDGE_CURVE ( 'NONE', #368, #260, #272, .T. ) ;
#61 = DIRECTION ( 'NONE',  ( 1.000000000000000000, 0.000000000000000000, 0.000000000000000000 ) ) ;
#62 = DIRECTION ( 'NONE',  ( -1.000000000000000000, 0.000000000000000000, 0.000000000000000000 ) ) ;
#63 = CIRCLE ( 'NONE', #306, 5.000000000000000000 ) ;
#64 = CARTESIAN_POINT ( 'NONE',  ( 0.000000000000000000, 0.000000000000000000, 0.000000000000000000 ) ) ;
#65 = AXIS2_PLACEMENT_3D ( 'NONE', #211, #148, #329 ) ;
#66 = AXIS2_PLACEMENT_3D ( 'NONE', #64, #176, #292 ) ;
#67 = DIRECTION ( 'NONE',  ( 1.000000000000000000, 0.000000000000000000, 0.000000000000000000 ) ) ;
#68 = EDGE_CURVE ( 'NONE', #290, #260, #134, .T. ) ;
#69 = VERTEX_POINT ( 'NONE', #170 ) ;
#70 = CARTESIAN_POINT ( 'NONE',  ( 2.500000000000000000, 3.061616997868383141E-16, 3.299999999999997158 ) ) ;
#71 = DIRECTION ( 'NONE',  ( 0.000000000000000000, 0.000000000000000000, 1.000000000000000000 ) ) ;
#72 = CARTESIAN_POINT ( 'NONE',  ( 0.000000000000000000, 0.000000000000000000, 0.000000000000000000 ) ) ;
#73 = PLANE ( 'NONE',  #150 ) ;
#74 = PRODUCT_DEFINITION_FORMATION_WITH_SPECIFIED_SOURCE ( 'LIBOVOLNÝ', '', #88, .NOT_KNOWN. ) ;
#75 = ORIENTED_EDGE ( 'NONE', *, *, #93, .F. ) ;
#76 = ADVANCED_FACE ( 'NONE', ( #25 ), #349, .T. ) ;
#77 = CALENDAR_DATE ( 2022, 8, 7 ) ;
#78 = EDGE_LOOP ( 'NONE', ( #213, #22 ) ) ;
#79 = SECURITY_CLASSIFICATION_LEVEL ( 'unclassified' ) ;
#80 = CARTESIAN_POINT ( 'NONE',  ( 0.000000000000000000, 0.000000000000000000, 0.000000000000000000 ) ) ;
#81 = PERSON_AND_ORGANIZATION_ROLE ( 'creator' ) ;
#82 = ADVANCED_FACE ( 'NONE', ( #192 ), #43, .F. ) ;
#83 = CARTESIAN_POINT ( 'NONE',  ( 0.000000000000000000, 0.000000000000000000, 3.000000000000000000 ) ) ;
#84 = DIRECTION ( 'NONE',  ( 1.000000000000000000, 0.000000000000000000, 0.000000000000000000 ) ) ;
#85 = FACE_OUTER_BOUND ( 'NONE', #174, .T. ) ;
#86 = ADVANCED_FACE ( 'NONE', ( #58, #85 ), #113, .F. ) ;
#87 = DIRECTION ( 'NONE',  ( 0.000000000000000000, 0.000000000000000000, 1.000000000000000000 ) ) ;
#88 = PRODUCT ( 'aa9f', 'aa9f', '', ( #374 ) ) ;
#89 = APPLICATION_CONTEXT ( 'configuration controlled 3d designs of mechanical parts and assemblies' ) ;
#90 = DIRECTION ( 'NONE',  ( 0.000000000000000000, 0.000000000000000000, -1.000000000000000000 ) ) ;
#91 = CARTESIAN_POINT ( 'NONE',  ( -1.250000000000000000, 0.000000000000000000, 203.0000000000000000 ) ) ;
#92 = ORIENTED_EDGE ( 'NONE', *, *, #264, .T. ) ;
#93 = EDGE_CURVE ( 'NONE', #1, #368, #355, .T. ) ;
#94 = CARTESIAN_POINT ( 'NONE',  ( 0.000000000000000000, 0.000000000000000000, 3.299999999999997158 ) ) ;
#95 = VECTOR ( 'NONE', #38, 1000.000000000000000 ) ;
#96 = CARTESIAN_POINT ( 'NONE',  ( 0.000000000000000000, 0.000000000000000000, 203.0000000000000000 ) ) ;
#97 = EDGE_LOOP ( 'NONE', ( #325, #364, #275, #143 ) ) ;
#98 = CARTESIAN_POINT ( 'NONE',  ( 0.000000000000000000, 0.000000000000000000, 203.0000000000000000 ) ) ;
#99 = ORIENTED_EDGE ( 'NONE', *, *, #318, .T. ) ;
#100 = PERSON_AND_ORGANIZATION ( #283, #21 ) ;
#101 = AXIS2_PLACEMENT_3D ( 'NONE', #227, #376, #132 ) ;
#102 = ORIENTED_EDGE ( 'NONE', *, *, #166, .F. ) ;
#103 = AXIS2_PLACEMENT_3D ( 'NONE', #136, #248, #84 ) ;
#104 = EDGE_LOOP ( 'NONE', ( #337, #234, #209, #13 ) ) ;
#105 = DATE_AND_TIME ( #77, #184 ) ;
#106 = CARTESIAN_POINT ( 'NONE',  ( 0.000000000000000000, 0.000000000000000000, 203.0000000000000000 ) ) ;
#107 = ADVANCED_FACE ( 'NONE', ( #55 ), #135, .T. ) ;
#108 = CARTESIAN_POINT ( 'NONE',  ( 0.000000000000000000, 0.000000000000000000, 3.000000000000000000 ) ) ;
#109 = APPROVAL_ROLE ( '' ) ;
#110 = FACE_OUTER_BOUND ( 'NONE', #245, .T. ) ;
#111 = DIRECTION ( 'NONE',  ( -0.000000000000000000, -0.000000000000000000, -1.000000000000000000 ) ) ;
#112 = DIRECTION ( 'NONE',  ( 0.000000000000000000, 0.000000000000000000, 1.000000000000000000 ) ) ;
#113 = PLANE ( 'NONE',  #297 ) ;
#114 = AXIS2_PLACEMENT_3D ( 'NONE', #314, #87, #61 ) ;
#115 = CARTESIAN_POINT ( 'NONE',  ( -5.000000000000000000, 0.000000000000000000, 0.000000000000000000 ) ) ;
#116 = EDGE_CURVE ( 'NONE', #179, #41, #332, .T. ) ;
#117 = FACE_OUTER_BOUND ( 'NONE', #124, .T. ) ;
#118 = DIRECTION ( 'NONE',  ( -1.000000000000000000, 0.000000000000000000, 0.000000000000000000 ) ) ;
#119 = AXIS2_PLACEMENT_3D ( 'NONE', #352, #90, #62 ) ;
#120 = ORIENTED_EDGE ( 'NONE', *, *, #36, .F. ) ;
#121 = DIRECTION ( 'NONE',  ( -1.000000000000000000, 0.000000000000000000, 0.000000000000000000 ) ) ;
#122 = ORIENTED_EDGE ( 'NONE', *, *, #289, .F. ) ;
#123 = DIRECTION ( 'NONE',  ( -0.000000000000000000, -0.000000000000000000, -1.000000000000000000 ) ) ;
#124 = EDGE_LOOP ( 'NONE', ( #204, #202, #371, #34 ) ) ;
#125 = ORIENTED_EDGE ( 'NONE', *, *, #278, .T. ) ;
#126 = VECTOR ( 'NONE', #161, 1000.000000000000000 ) ;
#127 = APPROVAL_STATUS ( 'not_yet_approved' ) ;
#128 =( GEOMETRIC_REPRESENTATION_CONTEXT ( 3 ) GLOBAL_UNCERTAINTY_ASSIGNED_CONTEXT ( ( #144 ) ) GLOBAL_UNIT_ASSIGNED_CONTEXT ( ( #281, #48, #311 ) ) REPRESENTATION_CONTEXT ( 'NONE', 'WORKASPACE' ) );
#129 = EDGE_LOOP ( 'NONE', ( #217, #186, #205, #235 ) ) ;
#130 = APPROVAL ( #223, 'NEURÈENÝ' ) ;
#131 = APPLICATION_PROTOCOL_DEFINITION ( 'international standard', 'config_control_design', 1994, #89 ) ;
#132 = DIRECTION ( 'NONE',  ( 0.000000000000000000, 0.000000000000000000, -1.000000000000000000 ) ) ;
#133 = APPROVAL_STATUS ( 'not_yet_approved' ) ;
#134 = CIRCLE ( 'NONE', #101, 0.2999999999999999334 ) ;
#135 = CYLINDRICAL_SURFACE ( 'NONE', #262, 5.000000000000000000 ) ;
#136 = CARTESIAN_POINT ( 'NONE',  ( 0.000000000000000000, 0.000000000000000000, 3.000000000000000000 ) ) ;
#137 = CARTESIAN_POINT ( 'NONE',  ( 0.000000000000000000, 0.000000000000000000, 203.0000000000000000 ) ) ;
#138 = LINE ( 'NONE', #32, #95 ) ;
#139 = AXIS2_PLACEMENT_3D ( 'NONE', #42, #322, #39 ) ;
#140 = CARTESIAN_POINT ( 'NONE',  ( 1.250000000000000000, 1.530808498934191324E-16, 0.000000000000000000 ) ) ;
#141 = CIRCLE ( 'NONE', #9, 2.799999999999999822 ) ;
#142 = EDGE_CURVE ( 'NONE', #155, #298, #276, .T. ) ;
#143 = ORIENTED_EDGE ( 'NONE', *, *, #356, .T. ) ;
#144 = UNCERTAINTY_MEASURE_WITH_UNIT (LENGTH_MEASURE( 1.000000000000000082E-05 ), #281, 'distance_accuracy_value', 'NONE');
#145 = EDGE_CURVE ( 'NONE', #41, #247, #345, .T. ) ;
#146 = VECTOR ( 'NONE', #201, 1000.000000000000000 ) ;
#147 = CYLINDRICAL_SURFACE ( 'NONE', #229, 1.250000000000000000 ) ;
#148 = DIRECTION ( 'NONE',  ( 0.000000000000000000, 0.000000000000000000, 1.000000000000000000 ) ) ;
#149 = EDGE_LOOP ( 'NONE', ( #182, #102 ) ) ;
#150 = AXIS2_PLACEMENT_3D ( 'NONE', #106, #71, #185 ) ;
#151 = DIRECTION ( 'NONE',  ( -1.000000000000000000, 0.000000000000000000, 0.000000000000000000 ) ) ;
#152 = EDGE_LOOP ( 'NONE', ( #241, #335, #35, #239 ) ) ;
#153 = DIRECTION ( 'NONE',  ( 1.000000000000000000, 0.000000000000000000, 0.000000000000000000 ) ) ;
#154 = FACE_OUTER_BOUND ( 'NONE', #78, .T. ) ;
#155 = VERTEX_POINT ( 'NONE', #312 ) ;
#156 = DIRECTION ( 'NONE',  ( 0.000000000000000000, 0.000000000000000000, 1.000000000000000000 ) ) ;
#157 = EDGE_CURVE ( 'NONE', #298, #155, #160, .T. ) ;
#158 = ORIENTED_EDGE ( 'NONE', *, *, #157, .T. ) ;
#159 = SECURITY_CLASSIFICATION ( '', '', #79 ) ;
#160 = CIRCLE ( 'NONE', #103, 5.000000000000000000 ) ;
#161 = DIRECTION ( 'NONE',  ( 0.000000000000000000, 0.000000000000000000, -1.000000000000000000 ) ) ;
#162 = DATE_AND_TIME ( #270, #375 ) ;
#163 = DIRECTION ( 'NONE',  ( -0.000000000000000000, -0.000000000000000000, -1.000000000000000000 ) ) ;
#164 = DATE_TIME_ROLE ( 'classification_date' ) ;
#165 = DIRECTION ( 'NONE',  ( 0.000000000000000000, 0.000000000000000000, 1.000000000000000000 ) ) ;
#166 = EDGE_CURVE ( 'NONE', #41, #179, #380, .T. ) ;
#167 = CC_DESIGN_APPROVAL ( #212, ( #74 ) ) ;
#168 = CIRCLE ( 'NONE', #196, 5.000000000000000000 ) ;
#169 = DIRECTION ( 'NONE',  ( 0.000000000000000000, 0.000000000000000000, 1.000000000000000000 ) ) ;
#170 = CARTESIAN_POINT ( 'NONE',  ( -1.250000000000000000, 0.000000000000000000, 0.000000000000000000 ) ) ;
#171 = SHAPE_DEFINITION_REPRESENTATION ( #191, #301 ) ;
#172 = CC_DESIGN_PERSON_AND_ORGANIZATION_ASSIGNMENT ( #341, #81, ( #198 ) ) ;
#173 = DIRECTION ( 'NONE',  ( -0.000000000000000000, -0.000000000000000000, -1.000000000000000000 ) ) ;
#174 = EDGE_LOOP ( 'NONE', ( #120, #222 ) ) ;
#175 = EDGE_LOOP ( 'NONE', ( #75, #51, #242, #266 ) ) ;
#176 = DIRECTION ( 'NONE',  ( -0.000000000000000000, -0.000000000000000000, -1.000000000000000000 ) ) ;
#177 = AXIS2_PLACEMENT_3D ( 'NONE', #50, #156, #221 ) ;
#178 = DIRECTION ( 'NONE',  ( 0.000000000000000000, 0.000000000000000000, -1.000000000000000000 ) ) ;
#179 = VERTEX_POINT ( 'NONE', #372 ) ;
#180 = CYLINDRICAL_SURFACE ( 'NONE', #231, 2.500000000000000000 ) ;
#181 = EDGE_CURVE ( 'NONE', #268, #7, #210, .T. ) ;
#182 = ORIENTED_EDGE ( 'NONE', *, *, #116, .F. ) ;
#183 = DIRECTION ( 'NONE',  ( -0.000000000000000000, -0.000000000000000000, -1.000000000000000000 ) ) ;
#184 = LOCAL_TIME ( 17, 47, 49.00000000000000000, #219 ) ;
#185 = DIRECTION ( 'NONE',  ( 1.000000000000000000, 0.000000000000000000, -0.000000000000000000 ) ) ;
#186 = ORIENTED_EDGE ( 'NONE', *, *, #289, .T. ) ;
#187 = EDGE_CURVE ( 'NONE', #155, #305, #138, .T. ) ;
#188 = PERSON_AND_ORGANIZATION ( #283, #21 ) ;
#189 = COORDINATED_UNIVERSAL_TIME_OFFSET ( 1, 0, .AHEAD. ) ;
#190 = DIRECTION ( 'NONE',  ( -1.000000000000000000, 0.000000000000000000, 0.000000000000000000 ) ) ;
#191 = PRODUCT_DEFINITION_SHAPE ( 'NONE', 'NONE',  #198 ) ;
#192 = FACE_OUTER_BOUND ( 'NONE', #175, .T. ) ;
#193 = PERSON_AND_ORGANIZATION ( #283, #21 ) ;
#194 = CARTESIAN_POINT ( 'NONE',  ( 0.000000000000000000, 0.000000000000000000, 203.0000000000000000 ) ) ;
#195 = DIRECTION ( 'NONE',  ( 1.000000000000000000, 0.000000000000000000, 0.000000000000000000 ) ) ;
#196 = AXIS2_PLACEMENT_3D ( 'NONE', #72, #6, #67 ) ;
#197 = CARTESIAN_POINT ( 'NONE',  ( 0.000000000000000000, 0.000000000000000000, 3.000000000000000000 ) ) ;
#198 = PRODUCT_DEFINITION ( 'NEZNÁMÝ', '', #74, #236 ) ;
#199 = CARTESIAN_POINT ( 'NONE',  ( 2.799999999999999822, 0.000000000000000000, 2.999999999999998668 ) ) ;
#200 = CIRCLE ( 'NONE', #37, 2.500000000000000000 ) ;
#201 = DIRECTION ( 'NONE',  ( 0.000000000000000000, 0.000000000000000000, -1.000000000000000000 ) ) ;
#202 = ORIENTED_EDGE ( 'NONE', *, *, #93, .T. ) ;
#203 = LOCAL_TIME ( 17, 47, 49.00000000000000000, #189 ) ;
#204 = ORIENTED_EDGE ( 'NONE', *, *, #264, .F. ) ;
#205 = ORIENTED_EDGE ( 'NONE', *, *, #326, .T. ) ;
#206 = PRODUCT_RELATED_PRODUCT_CATEGORY ( 'detail', '', ( #88 ) ) ;
#207 = DIRECTION ( 'NONE',  ( 0.000000000000000000, 0.000000000000000000, 1.000000000000000000 ) ) ;
#208 = AXIS2_PLACEMENT_3D ( 'NONE', #10, #240, #363 ) ;
#209 = ORIENTED_EDGE ( 'NONE', *, *, #284, .T. ) ;
#210 = CIRCLE ( 'NONE', #114, 2.500000000000000000 ) ;
#211 = CARTESIAN_POINT ( 'NONE',  ( 0.000000000000000000, 0.000000000000000000, 3.299999999999997158 ) ) ;
#212 = APPROVAL ( #133, 'NEURÈENÝ' ) ;
#213 = ORIENTED_EDGE ( 'NONE', *, *, #181, .T. ) ;
#214 = ORIENTED_EDGE ( 'NONE', *, *, #379, .T. ) ;
#215 = APPLICATION_CONTEXT ( 'configuration controlled 3d designs of mechanical parts and assemblies' ) ;
#216 = COORDINATED_UNIVERSAL_TIME_OFFSET ( 1, 0, .AHEAD. ) ;
#217 = ORIENTED_EDGE ( 'NONE', *, *, #40, .F. ) ;
#218 = EDGE_CURVE ( 'NONE', #305, #288, #168, .T. ) ;
#219 = COORDINATED_UNIVERSAL_TIME_OFFSET ( 1, 0, .AHEAD. ) ;
#220 = ORIENTED_EDGE ( 'NONE', *, *, #142, .T. ) ;
#221 = DIRECTION ( 'NONE',  ( 1.000000000000000000, 0.000000000000000000, 0.000000000000000000 ) ) ;
#222 = ORIENTED_EDGE ( 'NONE', *, *, #218, .F. ) ;
#223 = APPROVAL_STATUS ( 'not_yet_approved' ) ;
#224 = DIRECTION ( 'NONE',  ( 0.000000000000000000, 0.000000000000000000, 1.000000000000000000 ) ) ;
#225 = PERSON_AND_ORGANIZATION ( #283, #21 ) ;
#226 = CARTESIAN_POINT ( 'NONE',  ( 1.250000000000000000, 1.530808498934191324E-16, 203.0000000000000000 ) ) ;
#227 = CARTESIAN_POINT ( 'NONE',  ( 2.799999999999999822, 0.000000000000000000, 3.299999999999997158 ) ) ;
#228 = DIRECTION ( 'NONE',  ( -0.000000000000000000, -0.000000000000000000, -1.000000000000000000 ) ) ;
#229 = AXIS2_PLACEMENT_3D ( 'NONE', #98, #178, #118 ) ;
#230 = CC_DESIGN_APPROVAL ( #249, ( #159 ) ) ;
#231 = AXIS2_PLACEMENT_3D ( 'NONE', #96, #46, #151 ) ;
#232 = CYLINDRICAL_SURFACE ( 'NONE', #119, 1.250000000000000000 ) ;
#233 = FACE_OUTER_BOUND ( 'NONE', #365, .T. ) ;
#234 = ORIENTED_EDGE ( 'NONE', *, *, #145, .T. ) ;
#235 = ORIENTED_EDGE ( 'NONE', *, *, #278, .F. ) ;
#236 = DESIGN_CONTEXT ( 'detailed design', #89, 'design' ) ;
#237 = ADVANCED_FACE ( 'NONE', ( #5 ), #147, .F. ) ;
#238 = CARTESIAN_POINT ( 'NONE',  ( -2.500000000000000000, 0.000000000000000000, 203.0000000000000000 ) ) ;
#239 = ORIENTED_EDGE ( 'NONE', *, *, #379, .F. ) ;
#240 = DIRECTION ( 'NONE',  ( 0.000000000000000000, 0.000000000000000000, 1.000000000000000000 ) ) ;
#241 = ORIENTED_EDGE ( 'NONE', *, *, #142, .F. ) ;
#242 = ORIENTED_EDGE ( 'NONE', *, *, #68, .T. ) ;
#243 = AXIS2_PLACEMENT_3D ( 'NONE', #346, #165, #282 ) ;
#244 = PERSON_AND_ORGANIZATION_ROLE ( 'creator' ) ;
#245 = EDGE_LOOP ( 'NONE', ( #158, #220 ) ) ;
#246 = APPROVAL_ROLE ( '' ) ;
#247 = VERTEX_POINT ( 'NONE', #140 ) ;
#248 = DIRECTION ( 'NONE',  ( 0.000000000000000000, 0.000000000000000000, 1.000000000000000000 ) ) ;
#249 = APPROVAL ( #127, 'NEURÈENÝ' ) ;
#250 = APPROVAL_DATE_TIME ( #162, #212 ) ;
#251 = DIRECTION ( 'NONE',  ( 1.000000000000000000, 0.000000000000000000, 0.000000000000000000 ) ) ;
#252 = CARTESIAN_POINT ( 'NONE',  ( 0.000000000000000000, 0.000000000000000000, 0.000000000000000000 ) ) ;
#253 = ADVANCED_FACE ( 'NONE', ( #296 ), #361, .T. ) ;
#254 = DIRECTION ( 'NONE',  ( 0.000000000000000000, 0.000000000000000000, 1.000000000000000000 ) ) ;
#255 = DIRECTION ( 'NONE',  ( 0.000000000000000000, 0.000000000000000000, 1.000000000000000000 ) ) ;
#256 = AXIS2_PLACEMENT_3D ( 'NONE', #331, #183, #121 ) ;
#257 = LINE ( 'NONE', #265, #310 ) ;
#258 = ORIENTED_EDGE ( 'NONE', *, *, #157, .F. ) ;
#259 = CALENDAR_DATE ( 2022, 8, 7 ) ;
#260 = VERTEX_POINT ( 'NONE', #199 ) ;
#261 = CC_DESIGN_PERSON_AND_ORGANIZATION_ASSIGNMENT ( #193, #57, ( #159 ) ) ;
#262 = AXIS2_PLACEMENT_3D ( 'NONE', #197, #163, #309 ) ;
#263 = CARTESIAN_POINT ( 'NONE',  ( -2.799999999999999822, 3.429011037612589276E-16, 2.999999999999998668 ) ) ;
#264 = EDGE_CURVE ( 'NONE', #1, #290, #3, .T. ) ;
#265 = CARTESIAN_POINT ( 'NONE',  ( -2.500000000000000000, 0.000000000000000000, 203.0000000000000000 ) ) ;
#266 = ORIENTED_EDGE ( 'NONE', *, *, #60, .F. ) ;
#267 = DIRECTION ( 'NONE',  ( -0.000000000000000000, -0.000000000000000000, -1.000000000000000000 ) ) ;
#268 = VERTEX_POINT ( 'NONE', #238 ) ;
#269 = FACE_OUTER_BOUND ( 'NONE', #97, .T. ) ;
#270 = CALENDAR_DATE ( 2022, 8, 7 ) ;
#271 = EDGE_LOOP ( 'NONE', ( #99, #357 ) ) ;
#272 = CIRCLE ( 'NONE', #315, 2.799999999999999822 ) ;
#273 = DATE_AND_TIME ( #304, #45 ) ;
#274 = CIRCLE ( 'NONE', #139, 1.250000000000000000 ) ;
#275 = ORIENTED_EDGE ( 'NONE', *, *, #353, .T. ) ;
#276 = CIRCLE ( 'NONE', #18, 5.000000000000000000 ) ;
#277 = CARTESIAN_POINT ( 'NONE',  ( 0.000000000000000000, 0.000000000000000000, 3.000000000000000000 ) ) ;
#278 = EDGE_CURVE ( 'NONE', #268, #1, #257, .T. ) ;
#279 = DATE_AND_TIME ( #303, #20 ) ;
#280 = DIRECTION ( 'NONE',  ( 1.000000000000000000, 0.000000000000000000, 0.000000000000000000 ) ) ;
#281 =( LENGTH_UNIT ( ) NAMED_UNIT ( * ) SI_UNIT ( .MILLI., .METRE. ) );
#282 = DIRECTION ( 'NONE',  ( 1.000000000000000000, 0.000000000000000000, 0.000000000000000000 ) ) ;
#283 = PERSON ( 'NEURÈENÝ', 'NEURÈENÝ', 'NEURÈENÝ', ('NEURÈENÝ'), ('NEURÈENÝ'), ('NEURÈENÝ') ) ;
#284 = EDGE_CURVE ( 'NONE', #247, #69, #274, .T. ) ;
#285 = CARTESIAN_POINT ( 'NONE',  ( 0.000000000000000000, 0.000000000000000000, 203.0000000000000000 ) ) ;
#286 = CARTESIAN_POINT ( 'NONE',  ( -2.799999999999999822, 3.429011037612588783E-16, 3.299999999999997158 ) ) ;
#287 = DIRECTION ( 'NONE',  ( -0.000000000000000000, -0.000000000000000000, -1.000000000000000000 ) ) ;
#288 = VERTEX_POINT ( 'NONE', #115 ) ;
#289 = EDGE_CURVE ( 'NONE', #7, #290, #299, .T. ) ;
#290 = VERTEX_POINT ( 'NONE', #70 ) ;
#291 = CC_DESIGN_SECURITY_CLASSIFICATION ( #159, ( #74 ) ) ;
#292 = DIRECTION ( 'NONE',  ( 1.000000000000000000, 0.000000000000000000, 0.000000000000000000 ) ) ;
#293 = ORIENTED_EDGE ( 'NONE', *, *, #356, .F. ) ;
#294 = CARTESIAN_POINT ( 'NONE',  ( 2.500000000000000000, 3.061616997868383141E-16, 203.0000000000000000 ) ) ;
#295 = EDGE_LOOP ( 'NONE', ( #49, #258, #214, #328 ) ) ;
#296 = FACE_OUTER_BOUND ( 'NONE', #152, .T. ) ;
#297 = AXIS2_PLACEMENT_3D ( 'NONE', #252, #254, #316 ) ;
#298 = VERTEX_POINT ( 'NONE', #12 ) ;
#299 = LINE ( 'NONE', #294, #360 ) ;
#300 = APPROVAL_PERSON_ORGANIZATION ( #19, #249, #246 ) ;
#301 = ADVANCED_BREP_SHAPE_REPRESENTATION ( 'aa9f', ( #17, #177 ), #128 ) ;
#302 = CARTESIAN_POINT ( 'NONE',  ( 2.500000000000000000, 3.061616997868383141E-16, 203.0000000000000000 ) ) ;
#303 = CALENDAR_DATE ( 2022, 8, 7 ) ;
#304 = CALENDAR_DATE ( 2022, 8, 7 ) ;
#305 = VERTEX_POINT ( 'NONE', #381 ) ;
#306 = AXIS2_PLACEMENT_3D ( 'NONE', #80, #255, #343 ) ;
#307 = COORDINATED_UNIVERSAL_TIME_OFFSET ( 1, 0, .AHEAD. ) ;
#308 = ADVANCED_FACE ( 'NONE', ( #233 ), #180, .T. ) ;
#309 = DIRECTION ( 'NONE',  ( -1.000000000000000000, 0.000000000000000000, 0.000000000000000000 ) ) ;
#310 = VECTOR ( 'NONE', #173, 1000.000000000000000 ) ;
#311 =( NAMED_UNIT ( * ) SI_UNIT ( $, .STERADIAN. ) SOLID_ANGLE_UNIT ( ) );
#312 = CARTESIAN_POINT ( 'NONE',  ( 5.000000000000000000, 6.123233995736766282E-16, 3.000000000000000000 ) ) ;
#313 = COORDINATED_UNIVERSAL_TIME_OFFSET ( 1, 0, .AHEAD. ) ;
#314 = CARTESIAN_POINT ( 'NONE',  ( 0.000000000000000000, 0.000000000000000000, 203.0000000000000000 ) ) ;
#315 = AXIS2_PLACEMENT_3D ( 'NONE', #277, #111, #280 ) ;
#316 = DIRECTION ( 'NONE',  ( 1.000000000000000000, 0.000000000000000000, -0.000000000000000000 ) ) ;
#317 = APPROVAL_PERSON_ORGANIZATION ( #188, #212, #339 ) ;
#318 = EDGE_CURVE ( 'NONE', #260, #368, #141, .T. ) ;
#319 = CIRCLE ( 'NONE', #208, 2.500000000000000000 ) ;
#320 = DATE_AND_TIME ( #259, #203 ) ;
#321 = DIRECTION ( 'NONE',  ( 1.000000000000000000, 0.000000000000000000, 0.000000000000000000 ) ) ;
#322 = DIRECTION ( 'NONE',  ( -0.000000000000000000, -0.000000000000000000, -1.000000000000000000 ) ) ;
#323 = CC_DESIGN_DATE_AND_TIME_ASSIGNMENT ( #273, #164, ( #159 ) ) ;
#324 = CARTESIAN_POINT ( 'NONE',  ( 0.000000000000000000, 0.000000000000000000, 3.000000000000000000 ) ) ;
#325 = ORIENTED_EDGE ( 'NONE', *, *, #145, .F. ) ;
#326 = EDGE_CURVE ( 'NONE', #290, #1, #319, .T. ) ;
#327 = DIRECTION ( 'NONE',  ( 1.000000000000000000, 0.000000000000000000, 0.000000000000000000 ) ) ;
#328 = ORIENTED_EDGE ( 'NONE', *, *, #36, .T. ) ;
#329 = DIRECTION ( 'NONE',  ( 1.000000000000000000, 0.000000000000000000, 0.000000000000000000 ) ) ;
#330 = FACE_BOUND ( 'NONE', #149, .T. ) ;
#331 = CARTESIAN_POINT ( 'NONE',  ( 0.000000000000000000, 0.000000000000000000, 3.000000000000000000 ) ) ;
#332 = CIRCLE ( 'NONE', #350, 1.250000000000000000 ) ;
#333 = ORIENTED_EDGE ( 'NONE', *, *, #181, .F. ) ;
#334 = PERSON_AND_ORGANIZATION ( #283, #21 ) ;
#335 = ORIENTED_EDGE ( 'NONE', *, *, #187, .T. ) ;
#336 = APPLICATION_PROTOCOL_DEFINITION ( 'international standard', 'config_control_design', 1994, #215 ) ;
#337 = ORIENTED_EDGE ( 'NONE', *, *, #116, .T. ) ;
#338 = CC_DESIGN_PERSON_AND_ORGANIZATION_ASSIGNMENT ( #14, #244, ( #74 ) ) ;
#339 = APPROVAL_ROLE ( '' ) ;
#340 = PLANE ( 'NONE',  #373 ) ;
#341 = PERSON_AND_ORGANIZATION ( #283, #21 ) ;
#342 = AXIS2_PLACEMENT_3D ( 'NONE', #194, #112, #321 ) ;
#343 = DIRECTION ( 'NONE',  ( 1.000000000000000000, 0.000000000000000000, 0.000000000000000000 ) ) ;
#344 = PERSON_AND_ORGANIZATION_ROLE ( 'design_supplier' ) ;
#345 = LINE ( 'NONE', #31, #126 ) ;
#346 = CARTESIAN_POINT ( 'NONE',  ( 0.000000000000000000, 0.000000000000000000, 3.299999999999997158 ) ) ;
#347 = ADVANCED_FACE ( 'NONE', ( #269 ), #232, .F. ) ;
#348 = AXIS2_PLACEMENT_3D ( 'NONE', #285, #228, #190 ) ;
#349 = CYLINDRICAL_SURFACE ( 'NONE', #348, 2.500000000000000000 ) ;
#350 = AXIS2_PLACEMENT_3D ( 'NONE', #54, #378, #28 ) ;
#351 = APPROVAL_DATE_TIME ( #320, #249 ) ;
#352 = CARTESIAN_POINT ( 'NONE',  ( 0.000000000000000000, 0.000000000000000000, 203.0000000000000000 ) ) ;
#353 = EDGE_CURVE ( 'NONE', #179, #69, #354, .T. ) ;
#354 = LINE ( 'NONE', #91, #146 ) ;
#355 = CIRCLE ( 'NONE', #26, 0.2999999999999999334 ) ;
#356 = EDGE_CURVE ( 'NONE', #69, #247, #52, .T. ) ;
#357 = ORIENTED_EDGE ( 'NONE', *, *, #60, .T. ) ;
#358 = LINE ( 'NONE', #366, #367 ) ;
#359 = CLOSED_SHELL ( 'NONE', ( #237, #369, #76, #253, #107, #30, #86, #308, #4, #82, #347 ) ) ;
#360 = VECTOR ( 'NONE', #287, 1000.000000000000000 ) ;
#361 = CYLINDRICAL_SURFACE ( 'NONE', #256, 5.000000000000000000 ) ;
#362 = AXIS2_PLACEMENT_3D ( 'NONE', #94, #207, #327 ) ;
#363 = DIRECTION ( 'NONE',  ( 1.000000000000000000, 0.000000000000000000, 0.000000000000000000 ) ) ;
#364 = ORIENTED_EDGE ( 'NONE', *, *, #166, .T. ) ;
#365 = EDGE_LOOP ( 'NONE', ( #122, #333, #125, #92 ) ) ;
#366 = CARTESIAN_POINT ( 'NONE',  ( -5.000000000000000000, 0.000000000000000000, 3.000000000000000000 ) ) ;
#367 = VECTOR ( 'NONE', #123, 1000.000000000000000 ) ;
#368 = VERTEX_POINT ( 'NONE', #263 ) ;
#369 = ADVANCED_FACE ( 'NONE', ( #117 ), #33, .F. ) ;
#370 = DATE_TIME_ROLE ( 'creation_date' ) ;
#371 = ORIENTED_EDGE ( 'NONE', *, *, #318, .F. ) ;
#372 = CARTESIAN_POINT ( 'NONE',  ( -1.250000000000000000, 0.000000000000000000, 203.0000000000000000 ) ) ;
#373 = AXIS2_PLACEMENT_3D ( 'NONE', #83, #224, #377 ) ;
#374 = MECHANICAL_CONTEXT ( 'NONE', #215, 'mechanical' ) ;
#375 = LOCAL_TIME ( 17, 47, 49.00000000000000000, #313 ) ;
#376 = DIRECTION ( 'NONE',  ( 0.000000000000000000, -1.000000000000000000, 0.000000000000000000 ) ) ;
#377 = DIRECTION ( 'NONE',  ( 1.000000000000000000, 0.000000000000000000, -0.000000000000000000 ) ) ;
#378 = DIRECTION ( 'NONE',  ( 0.000000000000000000, 0.000000000000000000, 1.000000000000000000 ) ) ;
#379 = EDGE_CURVE ( 'NONE', #298, #288, #358, .T. ) ;
#380 = CIRCLE ( 'NONE', #342, 1.250000000000000000 ) ;
#381 = CARTESIAN_POINT ( 'NONE',  ( 5.000000000000000000, 6.123233995736766282E-16, 0.000000000000000000 ) ) ;
ENDSEC;
END-ISO-10303-21;
