ISO-10303-21;
HEADER;
FILE_DESCRIPTION (( 'STEP AP203' ),
    '1' );
FILE_NAME ('405c.STEP',
    '2022-07-08T15:00:18',
    ( '' ),
    ( '' ),
    'SwSTEP 2.0',
    'SolidWorks 2019',
    '' );
FILE_SCHEMA (( 'CONFIG_CONTROL_DESIGN' ));
ENDSEC;

DATA;
#1 = CARTESIAN_POINT ( 'NONE',  ( 2.750000000000000000, 3.367778697655221012E-16, 507.0000000000000000 ) ) ;
#2 = CLOSED_SHELL ( 'NONE', ( #74, #29, #76, #249, #241, #307, #5, #234, #201, #69, #348 ) ) ;
#3 = PRODUCT_DEFINITION_FORMATION_WITH_SPECIFIED_SOURCE ( 'LIBOVOLNÝ', '', #22, .NOT_KNOWN. ) ;
#4 = EDGE_CURVE ( 'NONE', #107, #38, #94, .T. ) ;
#5 = ADVANCED_FACE ( 'NONE', ( #171, #137 ), #110, .F. ) ;
#6 = LINE ( 'NONE', #299, #120 ) ;
#7 = ORIENTED_EDGE ( 'NONE', *, *, #252, .F. ) ;
#8 = DATE_AND_TIME ( #236, #233 ) ;
#9 = AXIS2_PLACEMENT_3D ( 'NONE', #83, #251, #197 ) ;
#10 = DIRECTION ( 'NONE',  ( 0.000000000000000000, 0.000000000000000000, 1.000000000000000000 ) ) ;
#11 = APPLICATION_CONTEXT ( 'configuration controlled 3d designs of mechanical parts and assemblies' ) ;
#12 = VERTEX_POINT ( 'NONE', #317 ) ;
#13 = DIRECTION ( 'NONE',  ( 0.000000000000000000, 0.000000000000000000, 1.000000000000000000 ) ) ;
#14 = ORIENTED_EDGE ( 'NONE', *, *, #378, .F. ) ;
#15 = DIRECTION ( 'NONE',  ( -0.000000000000000000, -0.000000000000000000, -1.000000000000000000 ) ) ;
#16 = DIRECTION ( 'NONE',  ( 1.000000000000000000, 0.000000000000000000, 0.000000000000000000 ) ) ;
#17 = AXIS2_PLACEMENT_3D ( 'NONE', #271, #13, #126 ) ;
#18 = DIRECTION ( 'NONE',  ( 0.000000000000000000, 0.000000000000000000, -1.000000000000000000 ) ) ;
#19 = ORIENTED_EDGE ( 'NONE', *, *, #378, .T. ) ;
#20 = DIRECTION ( 'NONE',  ( 1.224646799147353207E-16, 1.000000000000000000, -0.000000000000000000 ) ) ;
#21 = DIRECTION ( 'NONE',  ( 1.000000000000000000, 0.000000000000000000, 0.000000000000000000 ) ) ;
#22 = PRODUCT ( '405c', '405c', '', ( #381 ) ) ;
#23 = CARTESIAN_POINT ( 'NONE',  ( 0.000000000000000000, 0.000000000000000000, 507.0000000000000000 ) ) ;
#24 = ORIENTED_EDGE ( 'NONE', *, *, #103, .F. ) ;
#25 = AXIS2_PLACEMENT_3D ( 'NONE', #55, #135, #368 ) ;
#26 = LOCAL_TIME ( 17, 0, 18.00000000000000000, #149 ) ;
#27 = PERSON ( 'NEURÈENÝ', 'NEURÈENÝ', 'NEURÈENÝ', ('NEURÈENÝ'), ('NEURÈENÝ'), ('NEURÈENÝ') ) ;
#28 = ORIENTED_EDGE ( 'NONE', *, *, #358, .F. ) ;
#29 = ADVANCED_FACE ( 'NONE', ( #344 ), #228, .F. ) ;
#30 =( LENGTH_UNIT ( ) NAMED_UNIT ( * ) SI_UNIT ( .MILLI., .METRE. ) );
#31 = DIRECTION ( 'NONE',  ( 1.000000000000000000, 0.000000000000000000, 0.000000000000000000 ) ) ;
#32 = PERSON_AND_ORGANIZATION_ROLE ( 'creator' ) ;
#33 = CC_DESIGN_PERSON_AND_ORGANIZATION_ASSIGNMENT ( #349, #32, ( #178 ) ) ;
#34 = CIRCLE ( 'NONE', #180, 6.000000000000000888 ) ;
#35 = AXIS2_PLACEMENT_3D ( 'NONE', #347, #85, #58 ) ;
#36 = EDGE_CURVE ( 'NONE', #84, #332, #312, .T. ) ;
#37 = DIRECTION ( 'NONE',  ( -0.000000000000000000, -0.000000000000000000, -1.000000000000000000 ) ) ;
#38 = VERTEX_POINT ( 'NONE', #79 ) ;
#39 = CYLINDRICAL_SURFACE ( 'NONE', #176, 6.000000000000000888 ) ;
#40 = VECTOR ( 'NONE', #63, 1000.000000000000000 ) ;
#41 = CC_DESIGN_APPROVAL ( #243, ( #178 ) ) ;
#42 = LINE ( 'NONE', #161, #327 ) ;
#43 = ORIENTED_EDGE ( 'NONE', *, *, #268, .T. ) ;
#44 = SHAPE_DEFINITION_REPRESENTATION ( #60, #333 ) ;
#45 = DIRECTION ( 'NONE',  ( 0.000000000000000000, 0.000000000000000000, 1.000000000000000000 ) ) ;
#46 = DIRECTION ( 'NONE',  ( 0.000000000000000000, 0.000000000000000000, 1.000000000000000000 ) ) ;
#47 = CARTESIAN_POINT ( 'NONE',  ( 0.000000000000000000, 0.000000000000000000, 7.000000000000000000 ) ) ;
#48 = CIRCLE ( 'NONE', #257, 6.000000000000000888 ) ;
#49 = ORIENTED_EDGE ( 'NONE', *, *, #163, .T. ) ;
#50 = EDGE_CURVE ( 'NONE', #105, #97, #290, .T. ) ;
#51 = CARTESIAN_POINT ( 'NONE',  ( 2.750000000000000000, 3.367778697655221012E-16, 507.0000000000000000 ) ) ;
#52 = ORIENTED_EDGE ( 'NONE', *, *, #304, .F. ) ;
#53 = FACE_OUTER_BOUND ( 'NONE', #112, .T. ) ;
#54 = EDGE_LOOP ( 'NONE', ( #7, #19, #376, #169 ) ) ;
#55 = CARTESIAN_POINT ( 'NONE',  ( 0.000000000000000000, 0.000000000000000000, 7.000000000000000000 ) ) ;
#56 = EDGE_LOOP ( 'NONE', ( #14, #167, #132, #124 ) ) ;
#57 = CIRCLE ( 'NONE', #223, 2.750000000000000000 ) ;
#58 = DIRECTION ( 'NONE',  ( 1.000000000000000000, 0.000000000000000000, 0.000000000000000000 ) ) ;
#59 = CC_DESIGN_PERSON_AND_ORGANIZATION_ASSIGNMENT ( #351, #89, ( #3 ) ) ;
#60 = PRODUCT_DEFINITION_SHAPE ( 'NONE', 'NONE',  #178 ) ;
#61 = CALENDAR_DATE ( 2022, 8, 7 ) ;
#62 = CARTESIAN_POINT ( 'NONE',  ( 6.000000000000000888, 7.347880794884120722E-16, 7.500000000000007105 ) ) ;
#63 = DIRECTION ( 'NONE',  ( 0.000000000000000000, 0.000000000000000000, -1.000000000000000000 ) ) ;
#64 = EDGE_CURVE ( 'NONE', #214, #192, #266, .T. ) ;
#65 = SECURITY_CLASSIFICATION_LEVEL ( 'unclassified' ) ;
#66 = VECTOR ( 'NONE', #339, 1000.000000000000000 ) ;
#67 = DIRECTION ( 'NONE',  ( 1.000000000000000000, 0.000000000000000000, 0.000000000000000000 ) ) ;
#68 = LINE ( 'NONE', #131, #320 ) ;
#69 = ADVANCED_FACE ( 'NONE', ( #53 ), #187, .F. ) ;
#70 = APPROVAL_DATE_TIME ( #8, #380 ) ;
#71 = CARTESIAN_POINT ( 'NONE',  ( 0.000000000000000000, 0.000000000000000000, 507.0000000000000000 ) ) ;
#72 = EDGE_LOOP ( 'NONE', ( #254, #142 ) ) ;
#73 = CARTESIAN_POINT ( 'NONE',  ( 0.000000000000000000, 0.000000000000000000, 7.000000000000000000 ) ) ;
#74 = ADVANCED_FACE ( 'NONE', ( #170 ), #140, .F. ) ;
#75 = CYLINDRICAL_SURFACE ( 'NONE', #279, 10.00000000000000000 ) ;
#76 = ADVANCED_FACE ( 'NONE', ( #109 ), #199, .T. ) ;
#77 = CARTESIAN_POINT ( 'NONE',  ( 6.500000000000000888, 0.000000000000000000, 7.500000000000007105 ) ) ;
#78 = ORIENTED_EDGE ( 'NONE', *, *, #208, .F. ) ;
#79 = CARTESIAN_POINT ( 'NONE',  ( -2.750000000000000000, 0.000000000000000000, 507.0000000000000000 ) ) ;
#80 = ORIENTED_EDGE ( 'NONE', *, *, #220, .T. ) ;
#81 = DIRECTION ( 'NONE',  ( 0.000000000000000000, 0.000000000000000000, 1.000000000000000000 ) ) ;
#82 = DIRECTION ( 'NONE',  ( 0.000000000000000000, 0.000000000000000000, 1.000000000000000000 ) ) ;
#83 = CARTESIAN_POINT ( 'NONE',  ( 0.000000000000000000, 0.000000000000000000, 7.000000000000000000 ) ) ;
#84 = VERTEX_POINT ( 'NONE', #224 ) ;
#85 = DIRECTION ( 'NONE',  ( 0.000000000000000000, 0.000000000000000000, 1.000000000000000000 ) ) ;
#86 = APPROVAL_STATUS ( 'not_yet_approved' ) ;
#87 = AXIS2_PLACEMENT_3D ( 'NONE', #231, #203, #326 ) ;
#88 = LOCAL_TIME ( 17, 0, 18.00000000000000000, #325 ) ;
#89 = PERSON_AND_ORGANIZATION_ROLE ( 'creator' ) ;
#90 = EDGE_CURVE ( 'NONE', #332, #84, #34, .T. ) ;
#91 = DIRECTION ( 'NONE',  ( 0.000000000000000000, 0.000000000000000000, 1.000000000000000000 ) ) ;
#92 = DIRECTION ( 'NONE',  ( 1.000000000000000000, 0.000000000000000000, 0.000000000000000000 ) ) ;
#93 = AXIS2_PLACEMENT_3D ( 'NONE', #375, #18, #104 ) ;
#94 = CIRCLE ( 'NONE', #151, 2.750000000000000000 ) ;
#95 = SECURITY_CLASSIFICATION ( '', '', #65 ) ;
#96 = DIRECTION ( 'NONE',  ( -0.000000000000000000, -0.000000000000000000, -1.000000000000000000 ) ) ;
#97 = VERTEX_POINT ( 'NONE', #226 ) ;
#98 = CARTESIAN_POINT ( 'NONE',  ( -10.00000000000000000, 0.000000000000000000, 0.000000000000000000 ) ) ;
#99 = EDGE_LOOP ( 'NONE', ( #239, #101 ) ) ;
#100 = CARTESIAN_POINT ( 'NONE',  ( -6.500000000000000888, 7.960204194457796463E-16, 7.000000000000002665 ) ) ;
#101 = ORIENTED_EDGE ( 'NONE', *, *, #220, .F. ) ;
#102 = CARTESIAN_POINT ( 'NONE',  ( 0.000000000000000000, 0.000000000000000000, 7.000000000000000000 ) ) ;
#103 = EDGE_CURVE ( 'NONE', #38, #285, #369, .T. ) ;
#104 = DIRECTION ( 'NONE',  ( -1.000000000000000000, 0.000000000000000000, 0.000000000000000000 ) ) ;
#105 = VERTEX_POINT ( 'NONE', #318 ) ;
#106 = CARTESIAN_POINT ( 'NONE',  ( -2.750000000000000000, 0.000000000000000000, 507.0000000000000000 ) ) ;
#107 = VERTEX_POINT ( 'NONE', #51 ) ;
#108 = AXIS2_PLACEMENT_3D ( 'NONE', #77, #191, #282 ) ;
#109 = FACE_OUTER_BOUND ( 'NONE', #261, .T. ) ;
#110 = PLANE ( 'NONE',  #342 ) ;
#111 = DIRECTION ( 'NONE',  ( 1.000000000000000000, 0.000000000000000000, 0.000000000000000000 ) ) ;
#112 = EDGE_LOOP ( 'NONE', ( #295, #162, #370, #341 ) ) ;
#113 = CYLINDRICAL_SURFACE ( 'NONE', #87, 2.750000000000000000 ) ;
#114 = CC_DESIGN_PERSON_AND_ORGANIZATION_ASSIGNMENT ( #181, #153, ( #95 ) ) ;
#115 = AXIS2_PLACEMENT_3D ( 'NONE', #235, #15, #92 ) ;
#116 = PERSON_AND_ORGANIZATION ( #27, #141 ) ;
#117 = EDGE_CURVE ( 'NONE', #192, #214, #311, .T. ) ;
#118 =( NAMED_UNIT ( * ) PLANE_ANGLE_UNIT ( ) SI_UNIT ( $, .RADIAN. ) );
#119 = FACE_OUTER_BOUND ( 'NONE', #377, .T. ) ;
#120 = VECTOR ( 'NONE', #362, 1000.000000000000000 ) ;
#121 = PERSON_AND_ORGANIZATION ( #27, #141 ) ;
#122 = PERSON_AND_ORGANIZATION_ROLE ( 'design_supplier' ) ;
#123 = DIRECTION ( 'NONE',  ( 0.000000000000000000, 0.000000000000000000, 1.000000000000000000 ) ) ;
#124 = ORIENTED_EDGE ( 'NONE', *, *, #183, .T. ) ;
#125 = CIRCLE ( 'NONE', #217, 0.5000000000000004441 ) ;
#126 = DIRECTION ( 'NONE',  ( 1.000000000000000000, 0.000000000000000000, -0.000000000000000000 ) ) ;
#127 = PERSON_AND_ORGANIZATION ( #27, #141 ) ;
#128 = CARTESIAN_POINT ( 'NONE',  ( 0.000000000000000000, 0.000000000000000000, 0.000000000000000000 ) ) ;
#129 = ORIENTED_EDGE ( 'NONE', *, *, #358, .T. ) ;
#130 = COORDINATED_UNIVERSAL_TIME_OFFSET ( 1, 0, .AHEAD. ) ;
#131 = CARTESIAN_POINT ( 'NONE',  ( 6.000000000000000888, 7.347880794884120722E-16, 507.0000000000000000 ) ) ;
#132 = ORIENTED_EDGE ( 'NONE', *, *, #278, .T. ) ;
#133 = EDGE_CURVE ( 'NONE', #363, #214, #147, .T. ) ;
#134 = CIRCLE ( 'NONE', #166, 6.000000000000000888 ) ;
#135 = DIRECTION ( 'NONE',  ( -0.000000000000000000, -0.000000000000000000, -1.000000000000000000 ) ) ;
#136 = DIRECTION ( 'NONE',  ( -0.000000000000000000, -0.000000000000000000, -1.000000000000000000 ) ) ;
#137 = FACE_OUTER_BOUND ( 'NONE', #72, .T. ) ;
#138 = DIRECTION ( 'NONE',  ( 1.000000000000000000, 0.000000000000000000, 0.000000000000000000 ) ) ;
#139 = ORIENTED_EDGE ( 'NONE', *, *, #4, .F. ) ;
#140 = CYLINDRICAL_SURFACE ( 'NONE', #93, 2.750000000000000000 ) ;
#141 = ORGANIZATION ( 'NEURÈENÝ', 'NEURÈENÝ', '' ) ;
#142 = ORIENTED_EDGE ( 'NONE', *, *, #174, .F. ) ;
#143 = EDGE_LOOP ( 'NONE', ( #43, #129, #80, #24 ) ) ;
#144 =( NAMED_UNIT ( * ) SI_UNIT ( $, .STERADIAN. ) SOLID_ANGLE_UNIT ( ) );
#145 = CC_DESIGN_PERSON_AND_ORGANIZATION_ASSIGNMENT ( #121, #204, ( #22 ) ) ;
#146 = CARTESIAN_POINT ( 'NONE',  ( -6.000000000000000888, 0.000000000000000000, 7.500000000000007105 ) ) ;
#147 = CIRCLE ( 'NONE', #108, 0.5000000000000004441 ) ;
#148 = CALENDAR_DATE ( 2022, 8, 7 ) ;
#149 = COORDINATED_UNIVERSAL_TIME_OFFSET ( 1, 0, .AHEAD. ) ;
#150 = PERSON_AND_ORGANIZATION ( #27, #141 ) ;
#151 = AXIS2_PLACEMENT_3D ( 'NONE', #281, #373, #21 ) ;
#152 = APPROVAL_STATUS ( 'not_yet_approved' ) ;
#153 = PERSON_AND_ORGANIZATION_ROLE ( 'classification_officer' ) ;
#154 = DIRECTION ( 'NONE',  ( -0.000000000000000000, -0.000000000000000000, -1.000000000000000000 ) ) ;
#155 = ORIENTED_EDGE ( 'NONE', *, *, #90, .F. ) ;
#156 = CARTESIAN_POINT ( 'NONE',  ( 10.00000000000000000, 1.224646799147353256E-15, 0.000000000000000000 ) ) ;
#157 = ORIENTED_EDGE ( 'NONE', *, *, #90, .T. ) ;
#158 = MANIFOLD_SOLID_BREP ( 'Odebrat vysunutím3', #2 ) ;
#159 = CIRCLE ( 'NONE', #115, 2.750000000000000000 ) ;
#160 = CC_DESIGN_APPROVAL ( #193, ( #3 ) ) ;
#161 = CARTESIAN_POINT ( 'NONE',  ( -10.00000000000000000, 0.000000000000000000, 7.000000000000000000 ) ) ;
#162 = ORIENTED_EDGE ( 'NONE', *, *, #322, .F. ) ;
#163 = EDGE_CURVE ( 'NONE', #366, #192, #125, .T. ) ;
#164 = CARTESIAN_POINT ( 'NONE',  ( 0.000000000000000000, 0.000000000000000000, 7.000000000000000000 ) ) ;
#165 = FACE_BOUND ( 'NONE', #216, .T. ) ;
#166 = AXIS2_PLACEMENT_3D ( 'NONE', #328, #46, #209 ) ;
#167 = ORIENTED_EDGE ( 'NONE', *, *, #50, .F. ) ;
#168 = CARTESIAN_POINT ( 'NONE',  ( -6.500000000000000888, 7.960204194457796463E-16, 7.500000000000007105 ) ) ;
#169 = ORIENTED_EDGE ( 'NONE', *, *, #278, .F. ) ;
#170 = FACE_OUTER_BOUND ( 'NONE', #143, .T. ) ;
#171 = FACE_BOUND ( 'NONE', #99, .T. ) ;
#172 = ORIENTED_EDGE ( 'NONE', *, *, #289, .T. ) ;
#173 = DESIGN_CONTEXT ( 'detailed design', #11, 'design' ) ;
#174 = EDGE_CURVE ( 'NONE', #227, #200, #365, .T. ) ;
#175 = LINE ( 'NONE', #1, #40 ) ;
#176 = AXIS2_PLACEMENT_3D ( 'NONE', #184, #96, #211 ) ;
#177 = APPLICATION_PROTOCOL_DEFINITION ( 'international standard', 'config_control_design', 1994, #11 ) ;
#178 = PRODUCT_DEFINITION ( 'NEZNÁMÝ', '', #3, #173 ) ;
#179 = CALENDAR_DATE ( 2022, 8, 7 ) ;
#180 = AXIS2_PLACEMENT_3D ( 'NONE', #280, #253, #111 ) ;
#181 = PERSON_AND_ORGANIZATION ( #27, #141 ) ;
#182 = DIRECTION ( 'NONE',  ( -0.000000000000000000, -0.000000000000000000, -1.000000000000000000 ) ) ;
#183 = EDGE_CURVE ( 'NONE', #200, #227, #206, .T. ) ;
#184 = CARTESIAN_POINT ( 'NONE',  ( 0.000000000000000000, 0.000000000000000000, 507.0000000000000000 ) ) ;
#185 = DIRECTION ( 'NONE',  ( 1.000000000000000000, 0.000000000000000000, 0.000000000000000000 ) ) ;
#186 = ORIENTED_EDGE ( 'NONE', *, *, #133, .F. ) ;
#187 = TOROIDAL_SURFACE ( 'NONE', #346, 6.500000000000000888, 0.5000000000000000000 ) ;
#188 = FACE_OUTER_BOUND ( 'NONE', #297, .T. ) ;
#189 = ORIENTED_EDGE ( 'NONE', *, *, #208, .T. ) ;
#190 = DIRECTION ( 'NONE',  ( 0.000000000000000000, 0.000000000000000000, 1.000000000000000000 ) ) ;
#191 = DIRECTION ( 'NONE',  ( 0.000000000000000000, -1.000000000000000000, 0.000000000000000000 ) ) ;
#192 = VERTEX_POINT ( 'NONE', #100 ) ;
#193 = APPROVAL ( #86, 'NEURÈENÝ' ) ;
#194 = AXIS2_PLACEMENT_3D ( 'NONE', #47, #195, #316 ) ;
#195 = DIRECTION ( 'NONE',  ( -0.000000000000000000, -0.000000000000000000, -1.000000000000000000 ) ) ;
#196 = ORIENTED_EDGE ( 'NONE', *, *, #268, .F. ) ;
#197 = DIRECTION ( 'NONE',  ( 1.000000000000000000, 0.000000000000000000, 0.000000000000000000 ) ) ;
#198 = DIRECTION ( 'NONE',  ( 1.000000000000000000, 0.000000000000000000, -0.000000000000000000 ) ) ;
#199 = CYLINDRICAL_SURFACE ( 'NONE', #293, 6.000000000000000888 ) ;
#200 = VERTEX_POINT ( 'NONE', #98 ) ;
#201 = ADVANCED_FACE ( 'NONE', ( #242, #277 ), #213, .T. ) ;
#202 = AXIS2_PLACEMENT_3D ( 'NONE', #23, #255, #340 ) ;
#203 = DIRECTION ( 'NONE',  ( 0.000000000000000000, 0.000000000000000000, -1.000000000000000000 ) ) ;
#204 = PERSON_AND_ORGANIZATION_ROLE ( 'design_owner' ) ;
#205 = CARTESIAN_POINT ( 'NONE',  ( 10.00000000000000000, 1.224646799147353256E-15, 7.000000000000000000 ) ) ;
#206 = CIRCLE ( 'NONE', #286, 10.00000000000000000 ) ;
#207 = APPLICATION_PROTOCOL_DEFINITION ( 'international standard', 'config_control_design', 1994, #371 ) ;
#208 = EDGE_CURVE ( 'NONE', #332, #366, #6, .T. ) ;
#209 = DIRECTION ( 'NONE',  ( 1.000000000000000000, 0.000000000000000000, 0.000000000000000000 ) ) ;
#210 = AXIS2_PLACEMENT_3D ( 'NONE', #338, #190, #308 ) ;
#211 = DIRECTION ( 'NONE',  ( -1.000000000000000000, 0.000000000000000000, 0.000000000000000000 ) ) ;
#212 = DATE_TIME_ROLE ( 'classification_date' ) ;
#213 = PLANE ( 'NONE',  #17 ) ;
#214 = VERTEX_POINT ( 'NONE', #356 ) ;
#215 = CYLINDRICAL_SURFACE ( 'NONE', #335, 10.00000000000000000 ) ;
#216 = EDGE_LOOP ( 'NONE', ( #345, #276 ) ) ;
#217 = AXIS2_PLACEMENT_3D ( 'NONE', #168, #20, #309 ) ;
#218 = DIRECTION ( 'NONE',  ( 0.000000000000000000, 0.000000000000000000, 1.000000000000000000 ) ) ;
#219 = CARTESIAN_POINT ( 'NONE',  ( 0.000000000000000000, 0.000000000000000000, 7.500000000000007105 ) ) ;
#220 = EDGE_CURVE ( 'NONE', #12, #285, #374, .T. ) ;
#221 = CARTESIAN_POINT ( 'NONE',  ( 0.000000000000000000, 0.000000000000000000, 7.500000000000007105 ) ) ;
#222 = ORIENTED_EDGE ( 'NONE', *, *, #322, .T. ) ;
#223 = AXIS2_PLACEMENT_3D ( 'NONE', #71, #45, #185 ) ;
#224 = CARTESIAN_POINT ( 'NONE',  ( 6.000000000000000888, 7.347880794884120722E-16, 507.0000000000000000 ) ) ;
#225 = ORIENTED_EDGE ( 'NONE', *, *, #36, .F. ) ;
#226 = CARTESIAN_POINT ( 'NONE',  ( 10.00000000000000000, 1.224646799147353256E-15, 7.000000000000000000 ) ) ;
#227 = VERTEX_POINT ( 'NONE', #156 ) ;
#228 = TOROIDAL_SURFACE ( 'NONE', #262, 6.500000000000000888, 0.5000000000000000000 ) ;
#229 = APPROVAL_STATUS ( 'not_yet_approved' ) ;
#230 = CC_DESIGN_PERSON_AND_ORGANIZATION_ASSIGNMENT ( #303, #122, ( #3 ) ) ;
#231 = CARTESIAN_POINT ( 'NONE',  ( 0.000000000000000000, 0.000000000000000000, 507.0000000000000000 ) ) ;
#232 = APPROVAL_DATE_TIME ( #291, #193 ) ;
#233 = LOCAL_TIME ( 17, 0, 18.00000000000000000, #130 ) ;
#234 = ADVANCED_FACE ( 'NONE', ( #188 ), #39, .T. ) ;
#235 = CARTESIAN_POINT ( 'NONE',  ( 0.000000000000000000, 0.000000000000000000, 0.000000000000000000 ) ) ;
#236 = CALENDAR_DATE ( 2022, 8, 7 ) ;
#237 = CARTESIAN_POINT ( 'NONE',  ( 0.000000000000000000, 0.000000000000000000, 0.000000000000000000 ) ) ;
#238 = AXIS2_PLACEMENT_3D ( 'NONE', #73, #218, #305 ) ;
#239 = ORIENTED_EDGE ( 'NONE', *, *, #289, .F. ) ;
#240 = CC_DESIGN_APPROVAL ( #380, ( #95 ) ) ;
#241 = ADVANCED_FACE ( 'NONE', ( #244 ), #75, .T. ) ;
#242 = FACE_BOUND ( 'NONE', #287, .T. ) ;
#243 = APPROVAL ( #229, 'NEURÈENÝ' ) ;
#244 = FACE_OUTER_BOUND ( 'NONE', #56, .T. ) ;
#245 = ORIENTED_EDGE ( 'NONE', *, *, #337, .F. ) ;
#246 = CALENDAR_DATE ( 2022, 8, 7 ) ;
#247 = FACE_OUTER_BOUND ( 'NONE', #256, .T. ) ;
#248 = ORIENTED_EDGE ( 'NONE', *, *, #64, .F. ) ;
#249 = ADVANCED_FACE ( 'NONE', ( #359 ), #215, .T. ) ;
#250 = LOCAL_TIME ( 17, 0, 18.00000000000000000, #321 ) ;
#251 = DIRECTION ( 'NONE',  ( 0.000000000000000000, 0.000000000000000000, 1.000000000000000000 ) ) ;
#252 = EDGE_CURVE ( 'NONE', #97, #105, #357, .T. ) ;
#253 = DIRECTION ( 'NONE',  ( 0.000000000000000000, 0.000000000000000000, 1.000000000000000000 ) ) ;
#254 = ORIENTED_EDGE ( 'NONE', *, *, #183, .F. ) ;
#255 = DIRECTION ( 'NONE',  ( 0.000000000000000000, 0.000000000000000000, 1.000000000000000000 ) ) ;
#256 = EDGE_LOOP ( 'NONE', ( #360, #310 ) ) ;
#257 = AXIS2_PLACEMENT_3D ( 'NONE', #270, #91, #31 ) ;
#258 = APPROVAL_PERSON_ORGANIZATION ( #127, #380, #269 ) ;
#259 = DIRECTION ( 'NONE',  ( -1.000000000000000000, 0.000000000000000000, 0.000000000000000000 ) ) ;
#260 = ORIENTED_EDGE ( 'NONE', *, *, #4, .T. ) ;
#261 = EDGE_LOOP ( 'NONE', ( #225, #306, #222, #78 ) ) ;
#262 = AXIS2_PLACEMENT_3D ( 'NONE', #219, #81, #138 ) ;
#263 = DATE_AND_TIME ( #148, #88 ) ;
#264 = DIRECTION ( 'NONE',  ( -0.000000000000000000, -0.000000000000000000, -1.000000000000000000 ) ) ;
#265 = APPROVAL_ROLE ( '' ) ;
#266 = CIRCLE ( 'NONE', #194, 6.500000000000000888 ) ;
#267 = APPROVAL_PERSON_ORGANIZATION ( #150, #193, #265 ) ;
#268 = EDGE_CURVE ( 'NONE', #38, #107, #57, .T. ) ;
#269 = APPROVAL_ROLE ( '' ) ;
#270 = CARTESIAN_POINT ( 'NONE',  ( 0.000000000000000000, 0.000000000000000000, 7.500000000000007105 ) ) ;
#271 = CARTESIAN_POINT ( 'NONE',  ( 0.000000000000000000, 0.000000000000000000, 507.0000000000000000 ) ) ;
#272 = AXIS2_PLACEMENT_3D ( 'NONE', #237, #182, #16 ) ;
#273 = EDGE_LOOP ( 'NONE', ( #245, #49, #248, #186 ) ) ;
#274 = CARTESIAN_POINT ( 'NONE',  ( 0.000000000000000000, 0.000000000000000000, 0.000000000000000000 ) ) ;
#275 = CARTESIAN_POINT ( 'NONE',  ( -2.750000000000000000, 0.000000000000000000, 0.000000000000000000 ) ) ;
#276 = ORIENTED_EDGE ( 'NONE', *, *, #117, .T. ) ;
#277 = FACE_OUTER_BOUND ( 'NONE', #319, .T. ) ;
#278 = EDGE_CURVE ( 'NONE', #105, #200, #42, .T. ) ;
#279 = AXIS2_PLACEMENT_3D ( 'NONE', #102, #37, #330 ) ;
#280 = CARTESIAN_POINT ( 'NONE',  ( 0.000000000000000000, 0.000000000000000000, 507.0000000000000000 ) ) ;
#281 = CARTESIAN_POINT ( 'NONE',  ( 0.000000000000000000, 0.000000000000000000, 507.0000000000000000 ) ) ;
#282 = DIRECTION ( 'NONE',  ( 0.000000000000000000, 0.000000000000000000, -1.000000000000000000 ) ) ;
#283 = ORIENTED_EDGE ( 'NONE', *, *, #36, .T. ) ;
#284 = CARTESIAN_POINT ( 'NONE',  ( 0.000000000000000000, 0.000000000000000000, 507.0000000000000000 ) ) ;
#285 = VERTEX_POINT ( 'NONE', #275 ) ;
#286 = AXIS2_PLACEMENT_3D ( 'NONE', #128, #123, #361 ) ;
#287 = EDGE_LOOP ( 'NONE', ( #196, #139 ) ) ;
#288 = LINE ( 'NONE', #205, #300 ) ;
#289 = EDGE_CURVE ( 'NONE', #285, #12, #159, .T. ) ;
#290 = CIRCLE ( 'NONE', #9, 10.00000000000000000 ) ;
#291 = DATE_AND_TIME ( #61, #26 ) ;
#292 = UNCERTAINTY_MEASURE_WITH_UNIT (LENGTH_MEASURE( 1.000000000000000082E-05 ), #30, 'distance_accuracy_value', 'NONE');
#293 = AXIS2_PLACEMENT_3D ( 'NONE', #284, #136, #259 ) ;
#294 = CARTESIAN_POINT ( 'NONE',  ( -6.000000000000000888, 0.000000000000000000, 507.0000000000000000 ) ) ;
#295 = ORIENTED_EDGE ( 'NONE', *, *, #163, .F. ) ;
#296 = DIRECTION ( 'NONE',  ( -0.000000000000000000, -0.000000000000000000, -1.000000000000000000 ) ) ;
#297 = EDGE_LOOP ( 'NONE', ( #52, #155, #189, #314 ) ) ;
#298 = COORDINATED_UNIVERSAL_TIME_OFFSET ( 1, 0, .AHEAD. ) ;
#299 = CARTESIAN_POINT ( 'NONE',  ( -6.000000000000000888, 0.000000000000000000, 507.0000000000000000 ) ) ;
#300 = VECTOR ( 'NONE', #264, 1000.000000000000000 ) ;
#301 = ORIENTED_EDGE ( 'NONE', *, *, #103, .T. ) ;
#302 = CC_DESIGN_SECURITY_CLASSIFICATION ( #95, ( #3 ) ) ;
#303 = PERSON_AND_ORGANIZATION ( #27, #141 ) ;
#304 = EDGE_CURVE ( 'NONE', #84, #363, #68, .T. ) ;
#305 = DIRECTION ( 'NONE',  ( 1.000000000000000000, 0.000000000000000000, 0.000000000000000000 ) ) ;
#306 = ORIENTED_EDGE ( 'NONE', *, *, #304, .T. ) ;
#307 = ADVANCED_FACE ( 'NONE', ( #165, #247 ), #364, .T. ) ;
#308 = DIRECTION ( 'NONE',  ( 1.000000000000000000, 0.000000000000000000, -0.000000000000000000 ) ) ;
#309 = DIRECTION ( 'NONE',  ( -1.000000000000000000, 1.224646799147351482E-16, 0.000000000000000000 ) ) ;
#310 = ORIENTED_EDGE ( 'NONE', *, *, #252, .T. ) ;
#311 = CIRCLE ( 'NONE', #25, 6.500000000000000888 ) ;
#312 = CIRCLE ( 'NONE', #202, 6.000000000000000888 ) ;
#313 = DIRECTION ( 'NONE',  ( 1.000000000000000000, 0.000000000000000000, 0.000000000000000000 ) ) ;
#314 = ORIENTED_EDGE ( 'NONE', *, *, #337, .T. ) ;
#315 = PRODUCT_RELATED_PRODUCT_CATEGORY ( 'detail', '', ( #22 ) ) ;
#316 = DIRECTION ( 'NONE',  ( 1.000000000000000000, 0.000000000000000000, 0.000000000000000000 ) ) ;
#317 = CARTESIAN_POINT ( 'NONE',  ( 2.750000000000000000, 3.367778697655221012E-16, 0.000000000000000000 ) ) ;
#318 = CARTESIAN_POINT ( 'NONE',  ( -10.00000000000000000, 0.000000000000000000, 7.000000000000000000 ) ) ;
#319 = EDGE_LOOP ( 'NONE', ( #157, #283 ) ) ;
#320 = VECTOR ( 'NONE', #296, 1000.000000000000000 ) ;
#321 = COORDINATED_UNIVERSAL_TIME_OFFSET ( 1, 0, .AHEAD. ) ;
#322 = EDGE_CURVE ( 'NONE', #363, #366, #134, .T. ) ;
#323 = APPROVAL_DATE_TIME ( #379, #243 ) ;
#324 = APPROVAL_PERSON_ORGANIZATION ( #116, #243, #354 ) ;
#325 = COORDINATED_UNIVERSAL_TIME_OFFSET ( 1, 0, .AHEAD. ) ;
#326 = DIRECTION ( 'NONE',  ( -1.000000000000000000, 0.000000000000000000, 0.000000000000000000 ) ) ;
#327 = VECTOR ( 'NONE', #154, 1000.000000000000000 ) ;
#328 = CARTESIAN_POINT ( 'NONE',  ( 0.000000000000000000, 0.000000000000000000, 7.500000000000007105 ) ) ;
#329 = CC_DESIGN_DATE_AND_TIME_ASSIGNMENT ( #263, #350, ( #178 ) ) ;
#330 = DIRECTION ( 'NONE',  ( -1.000000000000000000, 0.000000000000000000, 0.000000000000000000 ) ) ;
#331 = DIRECTION ( 'NONE',  ( -0.000000000000000000, -0.000000000000000000, -1.000000000000000000 ) ) ;
#332 = VERTEX_POINT ( 'NONE', #294 ) ;
#333 = ADVANCED_BREP_SHAPE_REPRESENTATION ( '405c', ( #158, #35 ), #367 ) ;
#334 = DIRECTION ( 'NONE',  ( -1.000000000000000000, 0.000000000000000000, 0.000000000000000000 ) ) ;
#335 = AXIS2_PLACEMENT_3D ( 'NONE', #164, #331, #334 ) ;
#336 = DATE_AND_TIME ( #246, #353 ) ;
#337 = EDGE_CURVE ( 'NONE', #366, #363, #48, .T. ) ;
#338 = CARTESIAN_POINT ( 'NONE',  ( 0.000000000000000000, 0.000000000000000000, 7.000000000000000000 ) ) ;
#339 = DIRECTION ( 'NONE',  ( 0.000000000000000000, 0.000000000000000000, -1.000000000000000000 ) ) ;
#340 = DIRECTION ( 'NONE',  ( 1.000000000000000000, 0.000000000000000000, 0.000000000000000000 ) ) ;
#341 = ORIENTED_EDGE ( 'NONE', *, *, #117, .F. ) ;
#342 = AXIS2_PLACEMENT_3D ( 'NONE', #343, #82, #198 ) ;
#343 = CARTESIAN_POINT ( 'NONE',  ( 0.000000000000000000, 0.000000000000000000, 0.000000000000000000 ) ) ;
#344 = FACE_OUTER_BOUND ( 'NONE', #273, .T. ) ;
#345 = ORIENTED_EDGE ( 'NONE', *, *, #64, .T. ) ;
#346 = AXIS2_PLACEMENT_3D ( 'NONE', #221, #372, #313 ) ;
#347 = CARTESIAN_POINT ( 'NONE',  ( 0.000000000000000000, 0.000000000000000000, 0.000000000000000000 ) ) ;
#348 = ADVANCED_FACE ( 'NONE', ( #119 ), #113, .F. ) ;
#349 = PERSON_AND_ORGANIZATION ( #27, #141 ) ;
#350 = DATE_TIME_ROLE ( 'creation_date' ) ;
#351 = PERSON_AND_ORGANIZATION ( #27, #141 ) ;
#352 = AXIS2_PLACEMENT_3D ( 'NONE', #274, #10, #67 ) ;
#353 = LOCAL_TIME ( 17, 0, 18.00000000000000000, #298 ) ;
#354 = APPROVAL_ROLE ( '' ) ;
#355 = CC_DESIGN_DATE_AND_TIME_ASSIGNMENT ( #336, #212, ( #95 ) ) ;
#356 = CARTESIAN_POINT ( 'NONE',  ( 6.500000000000000888, 0.000000000000000000, 7.000000000000002665 ) ) ;
#357 = CIRCLE ( 'NONE', #238, 10.00000000000000000 ) ;
#358 = EDGE_CURVE ( 'NONE', #107, #12, #175, .T. ) ;
#359 = FACE_OUTER_BOUND ( 'NONE', #54, .T. ) ;
#360 = ORIENTED_EDGE ( 'NONE', *, *, #50, .T. ) ;
#361 = DIRECTION ( 'NONE',  ( 1.000000000000000000, 0.000000000000000000, 0.000000000000000000 ) ) ;
#362 = DIRECTION ( 'NONE',  ( -0.000000000000000000, -0.000000000000000000, -1.000000000000000000 ) ) ;
#363 = VERTEX_POINT ( 'NONE', #62 ) ;
#364 = PLANE ( 'NONE',  #210 ) ;
#365 = CIRCLE ( 'NONE', #352, 10.00000000000000000 ) ;
#366 = VERTEX_POINT ( 'NONE', #146 ) ;
#367 =( GEOMETRIC_REPRESENTATION_CONTEXT ( 3 ) GLOBAL_UNCERTAINTY_ASSIGNED_CONTEXT ( ( #292 ) ) GLOBAL_UNIT_ASSIGNED_CONTEXT ( ( #30, #118, #144 ) ) REPRESENTATION_CONTEXT ( 'NONE', 'WORKASPACE' ) );
#368 = DIRECTION ( 'NONE',  ( 1.000000000000000000, 0.000000000000000000, 0.000000000000000000 ) ) ;
#369 = LINE ( 'NONE', #106, #66 ) ;
#370 = ORIENTED_EDGE ( 'NONE', *, *, #133, .T. ) ;
#371 = APPLICATION_CONTEXT ( 'configuration controlled 3d designs of mechanical parts and assemblies' ) ;
#372 = DIRECTION ( 'NONE',  ( 0.000000000000000000, 0.000000000000000000, 1.000000000000000000 ) ) ;
#373 = DIRECTION ( 'NONE',  ( 0.000000000000000000, 0.000000000000000000, 1.000000000000000000 ) ) ;
#374 = CIRCLE ( 'NONE', #272, 2.750000000000000000 ) ;
#375 = CARTESIAN_POINT ( 'NONE',  ( 0.000000000000000000, 0.000000000000000000, 507.0000000000000000 ) ) ;
#376 = ORIENTED_EDGE ( 'NONE', *, *, #174, .T. ) ;
#377 = EDGE_LOOP ( 'NONE', ( #28, #260, #301, #172 ) ) ;
#378 = EDGE_CURVE ( 'NONE', #97, #227, #288, .T. ) ;
#379 = DATE_AND_TIME ( #179, #250 ) ;
#380 = APPROVAL ( #152, 'NEURÈENÝ' ) ;
#381 = MECHANICAL_CONTEXT ( 'NONE', #371, 'mechanical' ) ;
ENDSEC;
END-ISO-10303-21;
