ISO-10303-21;
HEADER;
FILE_DESCRIPTION (( 'STEP AP203' ),
    '1' );
FILE_NAME ('85f0.STEP',
    '2022-07-08T15:25:01',
    ( '' ),
    ( '' ),
    'SwSTEP 2.0',
    'SolidWorks 2019',
    '' );
FILE_SCHEMA (( 'CONFIG_CONTROL_DESIGN' ));
ENDSEC;

DATA;
#1 = DIRECTION ( 'NONE',  ( 0.000000000000000000, 0.000000000000000000, -1.000000000000000000 ) ) ;
#2 = AXIS2_PLACEMENT_3D ( 'NONE', #245, #353, #42 ) ;
#3 = PLANE ( 'NONE',  #229 ) ;
#4 = CARTESIAN_POINT ( 'NONE',  ( -4.500000000000000888, 5.510910596163089556E-16, 5.500000000000005329 ) ) ;
#5 = FACE_OUTER_BOUND ( 'NONE', #217, .T. ) ;
#6 = ORIENTED_EDGE ( 'NONE', *, *, #102, .F. ) ;
#7 = CIRCLE ( 'NONE', #186, 4.000000000000000000 ) ;
#8 = AXIS2_PLACEMENT_3D ( 'NONE', #74, #124, #9 ) ;
#9 = DIRECTION ( 'NONE',  ( -1.000000000000000000, 0.000000000000000000, 0.000000000000000000 ) ) ;
#10 = CIRCLE ( 'NONE', #160, 2.250000000000000000 ) ;
#11 = EDGE_CURVE ( 'NONE', #363, #285, #338, .T. ) ;
#12 = DIRECTION ( 'NONE',  ( 0.000000000000000000, 0.000000000000000000, 1.000000000000000000 ) ) ;
#13 = EDGE_CURVE ( 'NONE', #285, #363, #136, .T. ) ;
#14 = ORIENTED_EDGE ( 'NONE', *, *, #130, .F. ) ;
#15 = ORIENTED_EDGE ( 'NONE', *, *, #141, .T. ) ;
#16 = LOCAL_TIME ( 17, 25, 1.000000000000000000, #294 ) ;
#17 = ORIENTED_EDGE ( 'NONE', *, *, #37, .F. ) ;
#18 = AXIS2_PLACEMENT_3D ( 'NONE', #20, #232, #231 ) ;
#19 = ORIENTED_EDGE ( 'NONE', *, *, #181, .T. ) ;
#20 = CARTESIAN_POINT ( 'NONE',  ( 0.000000000000000000, 0.000000000000000000, 5.000000000000000000 ) ) ;
#21 = FACE_BOUND ( 'NONE', #69, .T. ) ;
#22 = ORGANIZATION ( 'NEURÈENÝ', 'NEURÈENÝ', '' ) ;
#23 = APPLICATION_CONTEXT ( 'configuration controlled 3d designs of mechanical parts and assemblies' ) ;
#24 = DATE_AND_TIME ( #288, #16 ) ;
#25 = DESIGN_CONTEXT ( 'detailed design', #177, 'design' ) ;
#26 = ORIENTED_EDGE ( 'NONE', *, *, #141, .F. ) ;
#27 = LINE ( 'NONE', #171, #193 ) ;
#28 = ORIENTED_EDGE ( 'NONE', *, *, #213, .F. ) ;
#29 = AXIS2_PLACEMENT_3D ( 'NONE', #4, #356, #216 ) ;
#30 = AXIS2_PLACEMENT_3D ( 'NONE', #266, #87, #380 ) ;
#31 = APPROVAL_DATE_TIME ( #24, #328 ) ;
#32 = PRODUCT_DEFINITION_SHAPE ( 'NONE', 'NONE',  #187 ) ;
#33 = CALENDAR_DATE ( 2022, 8, 7 ) ;
#34 = DIRECTION ( 'NONE',  ( -0.000000000000000000, -0.000000000000000000, -1.000000000000000000 ) ) ;
#35 = DIRECTION ( 'NONE',  ( 1.000000000000000000, 0.000000000000000000, 0.000000000000000000 ) ) ;
#36 = VERTEX_POINT ( 'NONE', #109 ) ;
#37 = EDGE_CURVE ( 'NONE', #58, #267, #173, .T. ) ;
#38 = AXIS2_PLACEMENT_3D ( 'NONE', #128, #250, #72 ) ;
#39 = CARTESIAN_POINT ( 'NONE',  ( 0.000000000000000000, 0.000000000000000000, 5.500000000000005329 ) ) ;
#40 = ORIENTED_EDGE ( 'NONE', *, *, #118, .T. ) ;
#41 = CARTESIAN_POINT ( 'NONE',  ( -4.000000000000000000, 0.000000000000000000, 5.500000000000005329 ) ) ;
#42 = DIRECTION ( 'NONE',  ( 1.000000000000000000, 0.000000000000000000, 0.000000000000000000 ) ) ;
#43 = CC_DESIGN_APPROVAL ( #272, ( #287 ) ) ;
#44 = CARTESIAN_POINT ( 'NONE',  ( 0.000000000000000000, 0.000000000000000000, 80.00000000000000000 ) ) ;
#45 = ORIENTED_EDGE ( 'NONE', *, *, #80, .T. ) ;
#46 = AXIS2_PLACEMENT_3D ( 'NONE', #310, #299, #61 ) ;
#47 = FACE_BOUND ( 'NONE', #381, .T. ) ;
#48 = ORIENTED_EDGE ( 'NONE', *, *, #76, .T. ) ;
#49 = EDGE_CURVE ( 'NONE', #332, #92, #289, .T. ) ;
#50 = CYLINDRICAL_SURFACE ( 'NONE', #46, 7.000000000000000000 ) ;
#51 = CC_DESIGN_PERSON_AND_ORGANIZATION_ASSIGNMENT ( #199, #314, ( #265 ) ) ;
#52 = CARTESIAN_POINT ( 'NONE',  ( 0.000000000000000000, 0.000000000000000000, 5.000000000000000000 ) ) ;
#53 = DIRECTION ( 'NONE',  ( 1.000000000000000000, 0.000000000000000000, 0.000000000000000000 ) ) ;
#54 = CIRCLE ( 'NONE', #264, 7.000000000000000000 ) ;
#55 = DIRECTION ( 'NONE',  ( 1.000000000000000000, 0.000000000000000000, 0.000000000000000000 ) ) ;
#56 = DIRECTION ( 'NONE',  ( -1.000000000000000000, 0.000000000000000000, 0.000000000000000000 ) ) ;
#57 = ORIENTED_EDGE ( 'NONE', *, *, #306, .F. ) ;
#58 = VERTEX_POINT ( 'NONE', #163 ) ;
#59 = COORDINATED_UNIVERSAL_TIME_OFFSET ( 1, 0, .AHEAD. ) ;
#60 = PERSON_AND_ORGANIZATION ( #123, #22 ) ;
#61 = DIRECTION ( 'NONE',  ( -1.000000000000000000, 0.000000000000000000, 0.000000000000000000 ) ) ;
#62 = EDGE_CURVE ( 'NONE', #122, #270, #7, .T. ) ;
#63 = DIRECTION ( 'NONE',  ( -1.000000000000000000, 0.000000000000000000, 0.000000000000000000 ) ) ;
#64 = TOROIDAL_SURFACE ( 'NONE', #2, 4.500000000000000888, 0.5000000000000000000 ) ;
#65 = AXIS2_PLACEMENT_3D ( 'NONE', #322, #85, #144 ) ;
#66 = PERSON_AND_ORGANIZATION ( #123, #22 ) ;
#67 = DIRECTION ( 'NONE',  ( 1.000000000000000000, 0.000000000000000000, 0.000000000000000000 ) ) ;
#68 = CARTESIAN_POINT ( 'NONE',  ( 4.000000000000000000, 4.898587196589412829E-16, 5.500000000000005329 ) ) ;
#69 = EDGE_LOOP ( 'NONE', ( #73, #17 ) ) ;
#70 = FACE_OUTER_BOUND ( 'NONE', #103, .T. ) ;
#71 = CYLINDRICAL_SURFACE ( 'NONE', #38, 4.000000000000000000 ) ;
#72 = DIRECTION ( 'NONE',  ( -1.000000000000000000, 0.000000000000000000, 0.000000000000000000 ) ) ;
#73 = ORIENTED_EDGE ( 'NONE', *, *, #302, .F. ) ;
#74 = CARTESIAN_POINT ( 'NONE',  ( 0.000000000000000000, 0.000000000000000000, 80.00000000000000000 ) ) ;
#75 = ORIENTED_EDGE ( 'NONE', *, *, #130, .T. ) ;
#76 = EDGE_CURVE ( 'NONE', #220, #332, #319, .T. ) ;
#77 = DIRECTION ( 'NONE',  ( -0.000000000000000000, -0.000000000000000000, -1.000000000000000000 ) ) ;
#78 = CARTESIAN_POINT ( 'NONE',  ( 7.000000000000000000, 8.572527594031473190E-16, 0.000000000000000000 ) ) ;
#79 = APPROVAL_PERSON_ORGANIZATION ( #258, #93, #346 ) ;
#80 = EDGE_CURVE ( 'NONE', #326, #58, #257, .T. ) ;
#81 =( NAMED_UNIT ( * ) PLANE_ANGLE_UNIT ( ) SI_UNIT ( $, .RADIAN. ) );
#82 = DIRECTION ( 'NONE',  ( 1.000000000000000000, 0.000000000000000000, 0.000000000000000000 ) ) ;
#83 = DIRECTION ( 'NONE',  ( 1.000000000000000000, 0.000000000000000000, 0.000000000000000000 ) ) ;
#84 = SECURITY_CLASSIFICATION_LEVEL ( 'unclassified' ) ;
#85 = DIRECTION ( 'NONE',  ( 0.000000000000000000, 0.000000000000000000, 1.000000000000000000 ) ) ;
#86 = CIRCLE ( 'NONE', #370, 7.000000000000000000 ) ;
#87 = DIRECTION ( 'NONE',  ( 0.000000000000000000, 0.000000000000000000, 1.000000000000000000 ) ) ;
#88 = LINE ( 'NONE', #111, #377 ) ;
#89 = SHAPE_DEFINITION_REPRESENTATION ( #32, #110 ) ;
#90 = CARTESIAN_POINT ( 'NONE',  ( -7.000000000000000000, 0.000000000000000000, 5.000000000000000000 ) ) ;
#91 = CC_DESIGN_PERSON_AND_ORGANIZATION_ASSIGNMENT ( #66, #350, ( #287 ) ) ;
#92 = VERTEX_POINT ( 'NONE', #78 ) ;
#93 = APPROVAL ( #143, 'NEURÈENÝ' ) ;
#94 = ORIENTED_EDGE ( 'NONE', *, *, #306, .T. ) ;
#95 = ORIENTED_EDGE ( 'NONE', *, *, #244, .F. ) ;
#96 = CIRCLE ( 'NONE', #305, 0.5000000000000004441 ) ;
#97 = CLOSED_SHELL ( 'NONE', ( #263, #271, #313, #354, #112, #150, #367, #334, #290, #293, #125 ) ) ;
#98 = CARTESIAN_POINT ( 'NONE',  ( 0.000000000000000000, 0.000000000000000000, 80.00000000000000000 ) ) ;
#99 = ORIENTED_EDGE ( 'NONE', *, *, #169, .F. ) ;
#100 = EDGE_LOOP ( 'NONE', ( #223, #45, #222, #152 ) ) ;
#101 = DIRECTION ( 'NONE',  ( 1.000000000000000000, 0.000000000000000000, -0.000000000000000000 ) ) ;
#102 = EDGE_CURVE ( 'NONE', #326, #253, #10, .T. ) ;
#103 = EDGE_LOOP ( 'NONE', ( #57, #134, #198, #120 ) ) ;
#104 = DIRECTION ( 'NONE',  ( 0.000000000000000000, 0.000000000000000000, 1.000000000000000000 ) ) ;
#105 = DIRECTION ( 'NONE',  ( -0.000000000000000000, -0.000000000000000000, -1.000000000000000000 ) ) ;
#106 = AXIS2_PLACEMENT_3D ( 'NONE', #259, #105, #228 ) ;
#107 = AXIS2_PLACEMENT_3D ( 'NONE', #341, #104, #83 ) ;
#108 = DIRECTION ( 'NONE',  ( 0.000000000000000000, 0.000000000000000000, 1.000000000000000000 ) ) ;
#109 = CARTESIAN_POINT ( 'NONE',  ( 4.000000000000000000, 4.898587196589412829E-16, 80.00000000000000000 ) ) ;
#110 = ADVANCED_BREP_SHAPE_REPRESENTATION ( '85f0', ( #176, #107 ), #209 ) ;
#111 = CARTESIAN_POINT ( 'NONE',  ( -4.000000000000000000, 0.000000000000000000, 80.00000000000000000 ) ) ;
#112 = ADVANCED_FACE ( 'NONE', ( #192 ), #50, .T. ) ;
#113 = CARTESIAN_POINT ( 'NONE',  ( 0.000000000000000000, 0.000000000000000000, 80.00000000000000000 ) ) ;
#114 = AXIS2_PLACEMENT_3D ( 'NONE', #39, #12, #325 ) ;
#115 = APPROVAL_STATUS ( 'not_yet_approved' ) ;
#116 = DIRECTION ( 'NONE',  ( 1.000000000000000000, 0.000000000000000000, 0.000000000000000000 ) ) ;
#117 = DATE_AND_TIME ( #352, #224 ) ;
#118 = EDGE_CURVE ( 'NONE', #360, #270, #88, .T. ) ;
#119 = LINE ( 'NONE', #347, #280 ) ;
#120 = ORIENTED_EDGE ( 'NONE', *, *, #13, .F. ) ;
#121 = DIRECTION ( 'NONE',  ( 1.000000000000000000, 0.000000000000000000, -0.000000000000000000 ) ) ;
#122 = VERTEX_POINT ( 'NONE', #68 ) ;
#123 = PERSON ( 'NEURÈENÝ', 'NEURÈENÝ', 'NEURÈENÝ', ('NEURÈENÝ'), ('NEURÈENÝ'), ('NEURÈENÝ') ) ;
#124 = DIRECTION ( 'NONE',  ( 0.000000000000000000, 0.000000000000000000, -1.000000000000000000 ) ) ;
#125 = ADVANCED_FACE ( 'NONE', ( #238 ), #236, .F. ) ;
#126 = ORIENTED_EDGE ( 'NONE', *, *, #118, .F. ) ;
#127 = CIRCLE ( 'NONE', #145, 2.250000000000000000 ) ;
#128 = CARTESIAN_POINT ( 'NONE',  ( 0.000000000000000000, 0.000000000000000000, 80.00000000000000000 ) ) ;
#129 = ORIENTED_EDGE ( 'NONE', *, *, #148, .F. ) ;
#130 = EDGE_CURVE ( 'NONE', #220, #301, #343, .T. ) ;
#131 = DIRECTION ( 'NONE',  ( -1.000000000000000000, 0.000000000000000000, 0.000000000000000000 ) ) ;
#132 = AXIS2_PLACEMENT_3D ( 'NONE', #98, #219, #330 ) ;
#133 = CARTESIAN_POINT ( 'NONE',  ( 0.000000000000000000, 0.000000000000000000, 5.500000000000005329 ) ) ;
#134 = ORIENTED_EDGE ( 'NONE', *, *, #62, .F. ) ;
#135 = DIRECTION ( 'NONE',  ( -0.000000000000000000, -0.000000000000000000, -1.000000000000000000 ) ) ;
#136 = CIRCLE ( 'NONE', #175, 4.500000000000000888 ) ;
#137 = CIRCLE ( 'NONE', #132, 4.000000000000000000 ) ;
#138 = EDGE_LOOP ( 'NONE', ( #140, #156, #161, #126 ) ) ;
#139 = COORDINATED_UNIVERSAL_TIME_OFFSET ( 1, 0, .AHEAD. ) ;
#140 = ORIENTED_EDGE ( 'NONE', *, *, #308, .F. ) ;
#141 = EDGE_CURVE ( 'NONE', #332, #220, #54, .T. ) ;
#142 = ORIENTED_EDGE ( 'NONE', *, *, #239, .F. ) ;
#143 = APPROVAL_STATUS ( 'not_yet_approved' ) ;
#144 = DIRECTION ( 'NONE',  ( 1.000000000000000000, 0.000000000000000000, -0.000000000000000000 ) ) ;
#145 = AXIS2_PLACEMENT_3D ( 'NONE', #214, #300, #359 ) ;
#146 = PERSON_AND_ORGANIZATION_ROLE ( 'creator' ) ;
#147 = APPROVAL_ROLE ( '' ) ;
#148 = EDGE_CURVE ( 'NONE', #270, #122, #195, .T. ) ;
#149 = CARTESIAN_POINT ( 'NONE',  ( 0.000000000000000000, 0.000000000000000000, 5.000000000000000000 ) ) ;
#150 = ADVANCED_FACE ( 'NONE', ( #351, #211 ), #174, .T. ) ;
#151 = CARTESIAN_POINT ( 'NONE',  ( -7.000000000000000000, 0.000000000000000000, 0.000000000000000000 ) ) ;
#152 = ORIENTED_EDGE ( 'NONE', *, *, #167, .F. ) ;
#153 = CARTESIAN_POINT ( 'NONE',  ( -4.500000000000000888, 5.510910596163088569E-16, 5.000000000000002665 ) ) ;
#154 = EDGE_LOOP ( 'NONE', ( #26, #283, #19, #14 ) ) ;
#155 = FACE_OUTER_BOUND ( 'NONE', #138, .T. ) ;
#156 = ORIENTED_EDGE ( 'NONE', *, *, #178, .T. ) ;
#157 = DIRECTION ( 'NONE',  ( 0.000000000000000000, 0.000000000000000000, 1.000000000000000000 ) ) ;
#158 = ORIENTED_EDGE ( 'NONE', *, *, #11, .T. ) ;
#159 = LOCAL_TIME ( 17, 25, 1.000000000000000000, #139 ) ;
#160 = AXIS2_PLACEMENT_3D ( 'NONE', #342, #200, #53 ) ;
#161 = ORIENTED_EDGE ( 'NONE', *, *, #62, .T. ) ;
#162 = CYLINDRICAL_SURFACE ( 'NONE', #339, 7.000000000000000000 ) ;
#163 = CARTESIAN_POINT ( 'NONE',  ( 2.250000000000000000, 2.755455298081544285E-16, 0.000000000000000000 ) ) ;
#164 = CARTESIAN_POINT ( 'NONE',  ( 2.250000000000000000, 2.755455298081544285E-16, 80.00000000000000000 ) ) ;
#165 = AXIS2_PLACEMENT_3D ( 'NONE', #168, #291, #67 ) ;
#166 = DIRECTION ( 'NONE',  ( 1.000000000000000000, 0.000000000000000000, 0.000000000000000000 ) ) ;
#167 = EDGE_CURVE ( 'NONE', #253, #267, #119, .T. ) ;
#168 = CARTESIAN_POINT ( 'NONE',  ( 0.000000000000000000, 0.000000000000000000, 0.000000000000000000 ) ) ;
#169 = EDGE_CURVE ( 'NONE', #301, #92, #210, .T. ) ;
#170 = APPROVAL_STATUS ( 'not_yet_approved' ) ;
#171 = CARTESIAN_POINT ( 'NONE',  ( 4.000000000000000000, 4.898587196589412829E-16, 80.00000000000000000 ) ) ;
#172 = COORDINATED_UNIVERSAL_TIME_OFFSET ( 1, 0, .AHEAD. ) ;
#173 = CIRCLE ( 'NONE', #106, 2.250000000000000000 ) ;
#174 = PLANE ( 'NONE',  #65 ) ;
#175 = AXIS2_PLACEMENT_3D ( 'NONE', #307, #312, #55 ) ;
#176 = MANIFOLD_SOLID_BREP ( 'Odebrat vysunutím3', #97 ) ;
#177 = APPLICATION_CONTEXT ( 'configuration controlled 3d designs of mechanical parts and assemblies' ) ;
#178 = EDGE_CURVE ( 'NONE', #36, #122, #27, .T. ) ;
#179 = EDGE_LOOP ( 'NONE', ( #99, #261 ) ) ;
#180 = PRODUCT_DEFINITION_FORMATION_WITH_SPECIFIED_SOURCE ( 'LIBOVOLNÝ', '', #265, .NOT_KNOWN. ) ;
#181 = EDGE_CURVE ( 'NONE', #92, #301, #86, .T. ) ;
#182 = FACE_OUTER_BOUND ( 'NONE', #100, .T. ) ;
#183 = CC_DESIGN_PERSON_AND_ORGANIZATION_ASSIGNMENT ( #233, #146, ( #180 ) ) ;
#184 = CARTESIAN_POINT ( 'NONE',  ( 7.000000000000000000, 8.572527594031473190E-16, 5.000000000000000000 ) ) ;
#185 = ORIENTED_EDGE ( 'NONE', *, *, #302, .T. ) ;
#186 = AXIS2_PLACEMENT_3D ( 'NONE', #133, #108, #82 ) ;
#187 = PRODUCT_DEFINITION ( 'NEZNÁMÝ', '', #180, #25 ) ;
#188 = EDGE_LOOP ( 'NONE', ( #129, #94, #190, #28 ) ) ;
#189 = DIRECTION ( 'NONE',  ( 0.000000000000000000, 0.000000000000000000, 1.000000000000000000 ) ) ;
#190 = ORIENTED_EDGE ( 'NONE', *, *, #11, .F. ) ;
#191 = CARTESIAN_POINT ( 'NONE',  ( -4.000000000000000000, 0.000000000000000000, 80.00000000000000000 ) ) ;
#192 = FACE_OUTER_BOUND ( 'NONE', #364, .T. ) ;
#193 = VECTOR ( 'NONE', #34, 1000.000000000000000 ) ;
#194 = CYLINDRICAL_SURFACE ( 'NONE', #254, 4.000000000000000000 ) ;
#195 = CIRCLE ( 'NONE', #30, 4.000000000000000000 ) ;
#196 = ORIENTED_EDGE ( 'NONE', *, *, #169, .T. ) ;
#197 =( NAMED_UNIT ( * ) SI_UNIT ( $, .STERADIAN. ) SOLID_ANGLE_UNIT ( ) );
#198 = ORIENTED_EDGE ( 'NONE', *, *, #213, .T. ) ;
#199 = PERSON_AND_ORGANIZATION ( #123, #22 ) ;
#200 = DIRECTION ( 'NONE',  ( 0.000000000000000000, 0.000000000000000000, 1.000000000000000000 ) ) ;
#201 = DATE_TIME_ROLE ( 'classification_date' ) ;
#202 = CIRCLE ( 'NONE', #273, 2.250000000000000000 ) ;
#203 = DIRECTION ( 'NONE',  ( 1.000000000000000000, 0.000000000000000000, 0.000000000000000000 ) ) ;
#204 = CALENDAR_DATE ( 2022, 8, 7 ) ;
#205 = DIRECTION ( 'NONE',  ( 0.000000000000000000, 0.000000000000000000, 1.000000000000000000 ) ) ;
#206 = DIRECTION ( 'NONE',  ( 1.000000000000000000, 0.000000000000000000, 0.000000000000000000 ) ) ;
#207 = PERSON_AND_ORGANIZATION_ROLE ( 'creator' ) ;
#208 = DIRECTION ( 'NONE',  ( -0.000000000000000000, -0.000000000000000000, -1.000000000000000000 ) ) ;
#209 =( GEOMETRIC_REPRESENTATION_CONTEXT ( 3 ) GLOBAL_UNCERTAINTY_ASSIGNED_CONTEXT ( ( #317 ) ) GLOBAL_UNIT_ASSIGNED_CONTEXT ( ( #371, #81, #197 ) ) REPRESENTATION_CONTEXT ( 'NONE', 'WORKASPACE' ) );
#210 = CIRCLE ( 'NONE', #165, 7.000000000000000000 ) ;
#211 = FACE_OUTER_BOUND ( 'NONE', #329, .T. ) ;
#212 = ORIENTED_EDGE ( 'NONE', *, *, #49, .F. ) ;
#213 = EDGE_CURVE ( 'NONE', #122, #363, #96, .T. ) ;
#214 = CARTESIAN_POINT ( 'NONE',  ( 0.000000000000000000, 0.000000000000000000, 0.000000000000000000 ) ) ;
#215 = ORIENTED_EDGE ( 'NONE', *, *, #167, .T. ) ;
#216 = DIRECTION ( 'NONE',  ( -1.000000000000000000, 1.224646799147351482E-16, 0.000000000000000000 ) ) ;
#217 = EDGE_LOOP ( 'NONE', ( #251, #248 ) ) ;
#218 = VECTOR ( 'NONE', #208, 1000.000000000000000 ) ;
#219 = DIRECTION ( 'NONE',  ( 0.000000000000000000, 0.000000000000000000, 1.000000000000000000 ) ) ;
#220 = VERTEX_POINT ( 'NONE', #375 ) ;
#221 = CARTESIAN_POINT ( 'NONE',  ( -2.250000000000000000, 0.000000000000000000, 80.00000000000000000 ) ) ;
#222 = ORIENTED_EDGE ( 'NONE', *, *, #37, .T. ) ;
#223 = ORIENTED_EDGE ( 'NONE', *, *, #239, .T. ) ;
#224 = LOCAL_TIME ( 17, 25, 1.000000000000000000, #240 ) ;
#225 = FACE_OUTER_BOUND ( 'NONE', #154, .T. ) ;
#226 = PRODUCT_RELATED_PRODUCT_CATEGORY ( 'detail', '', ( #265 ) ) ;
#227 = APPLICATION_PROTOCOL_DEFINITION ( 'international standard', 'config_control_design', 1994, #23 ) ;
#228 = DIRECTION ( 'NONE',  ( 1.000000000000000000, 0.000000000000000000, 0.000000000000000000 ) ) ;
#229 = AXIS2_PLACEMENT_3D ( 'NONE', #44, #157, #121 ) ;
#230 = AXIS2_PLACEMENT_3D ( 'NONE', #324, #1, #63 ) ;
#231 = DIRECTION ( 'NONE',  ( 1.000000000000000000, 0.000000000000000000, 0.000000000000000000 ) ) ;
#232 = DIRECTION ( 'NONE',  ( 0.000000000000000000, 0.000000000000000000, 1.000000000000000000 ) ) ;
#233 = PERSON_AND_ORGANIZATION ( #123, #22 ) ;
#234 = APPLICATION_PROTOCOL_DEFINITION ( 'international standard', 'config_control_design', 1994, #177 ) ;
#235 = CC_DESIGN_APPROVAL ( #328, ( #180 ) ) ;
#236 = CYLINDRICAL_SURFACE ( 'NONE', #230, 2.250000000000000000 ) ;
#237 = DATE_AND_TIME ( #33, #376 ) ;
#238 = FACE_OUTER_BOUND ( 'NONE', #361, .T. ) ;
#239 = EDGE_CURVE ( 'NONE', #253, #326, #202, .T. ) ;
#240 = COORDINATED_UNIVERSAL_TIME_OFFSET ( 1, 0, .AHEAD. ) ;
#241 = DATE_AND_TIME ( #204, #242 ) ;
#242 = LOCAL_TIME ( 17, 25, 1.000000000000000000, #172 ) ;
#243 = DIRECTION ( 'NONE',  ( 0.000000000000000000, 0.000000000000000000, 1.000000000000000000 ) ) ;
#244 = EDGE_CURVE ( 'NONE', #360, #36, #362, .T. ) ;
#245 = CARTESIAN_POINT ( 'NONE',  ( 0.000000000000000000, 0.000000000000000000, 5.500000000000005329 ) ) ;
#246 = FACE_OUTER_BOUND ( 'NONE', #188, .T. ) ;
#247 = ORIENTED_EDGE ( 'NONE', *, *, #178, .F. ) ;
#248 = ORIENTED_EDGE ( 'NONE', *, *, #308, .T. ) ;
#249 = CIRCLE ( 'NONE', #29, 0.5000000000000004441 ) ;
#250 = DIRECTION ( 'NONE',  ( -0.000000000000000000, -0.000000000000000000, -1.000000000000000000 ) ) ;
#251 = ORIENTED_EDGE ( 'NONE', *, *, #244, .T. ) ;
#252 = CYLINDRICAL_SURFACE ( 'NONE', #8, 2.250000000000000000 ) ;
#253 = VERTEX_POINT ( 'NONE', #221 ) ;
#254 = AXIS2_PLACEMENT_3D ( 'NONE', #282, #77, #56 ) ;
#255 = CARTESIAN_POINT ( 'NONE',  ( 4.500000000000000888, 0.000000000000000000, 5.000000000000002665 ) ) ;
#256 = CC_DESIGN_SECURITY_CLASSIFICATION ( #287, ( #180 ) ) ;
#257 = LINE ( 'NONE', #164, #345 ) ;
#258 = PERSON_AND_ORGANIZATION ( #123, #22 ) ;
#259 = CARTESIAN_POINT ( 'NONE',  ( 0.000000000000000000, 0.000000000000000000, 0.000000000000000000 ) ) ;
#260 = DIRECTION ( 'NONE',  ( 0.000000000000000000, 0.000000000000000000, -1.000000000000000000 ) ) ;
#261 = ORIENTED_EDGE ( 'NONE', *, *, #181, .F. ) ;
#262 = DATE_AND_TIME ( #373, #159 ) ;
#263 = ADVANCED_FACE ( 'NONE', ( #182 ), #252, .F. ) ;
#264 = AXIS2_PLACEMENT_3D ( 'NONE', #149, #274, #35 ) ;
#265 = PRODUCT ( '85f0', '85f0', '', ( #337 ) ) ;
#266 = CARTESIAN_POINT ( 'NONE',  ( 0.000000000000000000, 0.000000000000000000, 5.500000000000005329 ) ) ;
#267 = VERTEX_POINT ( 'NONE', #278 ) ;
#268 = PERSON_AND_ORGANIZATION_ROLE ( 'design_supplier' ) ;
#269 = DIRECTION ( 'NONE',  ( 0.000000000000000000, 0.000000000000000000, -1.000000000000000000 ) ) ;
#270 = VERTEX_POINT ( 'NONE', #41 ) ;
#271 = ADVANCED_FACE ( 'NONE', ( #246 ), #279, .F. ) ;
#272 = APPROVAL ( #115, 'NEURÈENÝ' ) ;
#273 = AXIS2_PLACEMENT_3D ( 'NONE', #113, #205, #116 ) ;
#274 = DIRECTION ( 'NONE',  ( 0.000000000000000000, 0.000000000000000000, 1.000000000000000000 ) ) ;
#275 = CC_DESIGN_DATE_AND_TIME_ASSIGNMENT ( #117, #323, ( #187 ) ) ;
#276 = ORIENTED_EDGE ( 'NONE', *, *, #80, .F. ) ;
#277 = CC_DESIGN_PERSON_AND_ORGANIZATION_ASSIGNMENT ( #348, #268, ( #180 ) ) ;
#278 = CARTESIAN_POINT ( 'NONE',  ( -2.250000000000000000, 0.000000000000000000, 0.000000000000000000 ) ) ;
#279 = TOROIDAL_SURFACE ( 'NONE', #114, 4.500000000000000888, 0.5000000000000000000 ) ;
#280 = VECTOR ( 'NONE', #269, 1000.000000000000000 ) ;
#281 = ORIENTED_EDGE ( 'NONE', *, *, #76, .F. ) ;
#282 = CARTESIAN_POINT ( 'NONE',  ( 0.000000000000000000, 0.000000000000000000, 80.00000000000000000 ) ) ;
#283 = ORIENTED_EDGE ( 'NONE', *, *, #49, .T. ) ;
#284 = APPROVAL_PERSON_ORGANIZATION ( #320, #328, #147 ) ;
#285 = VERTEX_POINT ( 'NONE', #153 ) ;
#286 = CARTESIAN_POINT ( 'NONE',  ( 7.000000000000000000, 8.572527594031473190E-16, 5.000000000000000000 ) ) ;
#287 = SECURITY_CLASSIFICATION ( '', '', #84 ) ;
#288 = CALENDAR_DATE ( 2022, 8, 7 ) ;
#289 = LINE ( 'NONE', #286, #311 ) ;
#290 = ADVANCED_FACE ( 'NONE', ( #47, #5 ), #3, .T. ) ;
#291 = DIRECTION ( 'NONE',  ( 0.000000000000000000, 0.000000000000000000, 1.000000000000000000 ) ) ;
#292 = EDGE_LOOP ( 'NONE', ( #158, #369 ) ) ;
#293 = ADVANCED_FACE ( 'NONE', ( #70 ), #64, .F. ) ;
#294 = COORDINATED_UNIVERSAL_TIME_OFFSET ( 1, 0, .AHEAD. ) ;
#295 = DIRECTION ( 'NONE',  ( -0.000000000000000000, -0.000000000000000000, -1.000000000000000000 ) ) ;
#296 = APPROVAL_DATE_TIME ( #237, #272 ) ;
#297 = CARTESIAN_POINT ( 'NONE',  ( 0.000000000000000000, 0.000000000000000000, 0.000000000000000000 ) ) ;
#298 = APPROVAL_DATE_TIME ( #241, #93 ) ;
#299 = DIRECTION ( 'NONE',  ( -0.000000000000000000, -0.000000000000000000, -1.000000000000000000 ) ) ;
#300 = DIRECTION ( 'NONE',  ( -0.000000000000000000, -0.000000000000000000, -1.000000000000000000 ) ) ;
#301 = VERTEX_POINT ( 'NONE', #151 ) ;
#302 = EDGE_CURVE ( 'NONE', #267, #58, #127, .T. ) ;
#303 = FACE_OUTER_BOUND ( 'NONE', #336, .T. ) ;
#304 = AXIS2_PLACEMENT_3D ( 'NONE', #366, #340, #166 ) ;
#305 = AXIS2_PLACEMENT_3D ( 'NONE', #379, #316, #260 ) ;
#306 = EDGE_CURVE ( 'NONE', #270, #285, #249, .T. ) ;
#307 = CARTESIAN_POINT ( 'NONE',  ( 0.000000000000000000, 0.000000000000000000, 5.000000000000000000 ) ) ;
#308 = EDGE_CURVE ( 'NONE', #36, #360, #137, .T. ) ;
#309 = FACE_OUTER_BOUND ( 'NONE', #179, .T. ) ;
#310 = CARTESIAN_POINT ( 'NONE',  ( 0.000000000000000000, 0.000000000000000000, 5.000000000000000000 ) ) ;
#311 = VECTOR ( 'NONE', #374, 1000.000000000000000 ) ;
#312 = DIRECTION ( 'NONE',  ( -0.000000000000000000, -0.000000000000000000, -1.000000000000000000 ) ) ;
#313 = ADVANCED_FACE ( 'NONE', ( #155 ), #71, .T. ) ;
#314 = PERSON_AND_ORGANIZATION_ROLE ( 'design_owner' ) ;
#315 = APPROVAL_ROLE ( '' ) ;
#316 = DIRECTION ( 'NONE',  ( 0.000000000000000000, -1.000000000000000000, 0.000000000000000000 ) ) ;
#317 = UNCERTAINTY_MEASURE_WITH_UNIT (LENGTH_MEASURE( 1.000000000000000082E-05 ), #371, 'distance_accuracy_value', 'NONE');
#318 = CARTESIAN_POINT ( 'NONE',  ( 0.000000000000000000, 0.000000000000000000, 80.00000000000000000 ) ) ;
#319 = CIRCLE ( 'NONE', #18, 7.000000000000000000 ) ;
#320 = PERSON_AND_ORGANIZATION ( #123, #22 ) ;
#321 = APPROVAL_PERSON_ORGANIZATION ( #378, #272, #315 ) ;
#322 = CARTESIAN_POINT ( 'NONE',  ( 0.000000000000000000, 0.000000000000000000, 5.000000000000000000 ) ) ;
#323 = DATE_TIME_ROLE ( 'creation_date' ) ;
#324 = CARTESIAN_POINT ( 'NONE',  ( 0.000000000000000000, 0.000000000000000000, 80.00000000000000000 ) ) ;
#325 = DIRECTION ( 'NONE',  ( 1.000000000000000000, 0.000000000000000000, 0.000000000000000000 ) ) ;
#326 = VERTEX_POINT ( 'NONE', #331 ) ;
#327 = AXIS2_PLACEMENT_3D ( 'NONE', #365, #189, #101 ) ;
#328 = APPROVAL ( #170, 'NEURÈENÝ' ) ;
#329 = EDGE_LOOP ( 'NONE', ( #48, #15 ) ) ;
#330 = DIRECTION ( 'NONE',  ( 1.000000000000000000, 0.000000000000000000, 0.000000000000000000 ) ) ;
#331 = CARTESIAN_POINT ( 'NONE',  ( 2.250000000000000000, 2.755455298081544285E-16, 80.00000000000000000 ) ) ;
#332 = VERTEX_POINT ( 'NONE', #184 ) ;
#333 = CC_DESIGN_DATE_AND_TIME_ASSIGNMENT ( #262, #201, ( #287 ) ) ;
#334 = ADVANCED_FACE ( 'NONE', ( #303 ), #194, .T. ) ;
#335 = ORIENTED_EDGE ( 'NONE', *, *, #102, .T. ) ;
#336 = EDGE_LOOP ( 'NONE', ( #247, #95, #40, #357 ) ) ;
#337 = MECHANICAL_CONTEXT ( 'NONE', #23, 'mechanical' ) ;
#338 = CIRCLE ( 'NONE', #304, 4.500000000000000888 ) ;
#339 = AXIS2_PLACEMENT_3D ( 'NONE', #52, #135, #131 ) ;
#340 = DIRECTION ( 'NONE',  ( -0.000000000000000000, -0.000000000000000000, -1.000000000000000000 ) ) ;
#341 = CARTESIAN_POINT ( 'NONE',  ( 0.000000000000000000, 0.000000000000000000, 0.000000000000000000 ) ) ;
#342 = CARTESIAN_POINT ( 'NONE',  ( 0.000000000000000000, 0.000000000000000000, 80.00000000000000000 ) ) ;
#343 = LINE ( 'NONE', #90, #218 ) ;
#344 = CC_DESIGN_APPROVAL ( #93, ( #187 ) ) ;
#345 = VECTOR ( 'NONE', #372, 1000.000000000000000 ) ;
#346 = APPROVAL_ROLE ( '' ) ;
#347 = CARTESIAN_POINT ( 'NONE',  ( -2.250000000000000000, 0.000000000000000000, 80.00000000000000000 ) ) ;
#348 = PERSON_AND_ORGANIZATION ( #123, #22 ) ;
#349 = DIRECTION ( 'NONE',  ( 0.000000000000000000, 0.000000000000000000, 1.000000000000000000 ) ) ;
#350 = PERSON_AND_ORGANIZATION_ROLE ( 'classification_officer' ) ;
#351 = FACE_BOUND ( 'NONE', #292, .T. ) ;
#352 = CALENDAR_DATE ( 2022, 8, 7 ) ;
#353 = DIRECTION ( 'NONE',  ( 0.000000000000000000, 0.000000000000000000, 1.000000000000000000 ) ) ;
#354 = ADVANCED_FACE ( 'NONE', ( #225 ), #162, .T. ) ;
#355 = CC_DESIGN_PERSON_AND_ORGANIZATION_ASSIGNMENT ( #60, #207, ( #187 ) ) ;
#356 = DIRECTION ( 'NONE',  ( 1.224646799147353207E-16, 1.000000000000000000, -0.000000000000000000 ) ) ;
#357 = ORIENTED_EDGE ( 'NONE', *, *, #148, .T. ) ;
#358 = AXIS2_PLACEMENT_3D ( 'NONE', #318, #349, #206 ) ;
#359 = DIRECTION ( 'NONE',  ( 1.000000000000000000, 0.000000000000000000, 0.000000000000000000 ) ) ;
#360 = VERTEX_POINT ( 'NONE', #191 ) ;
#361 = EDGE_LOOP ( 'NONE', ( #276, #335, #215, #185 ) ) ;
#362 = CIRCLE ( 'NONE', #358, 4.000000000000000000 ) ;
#363 = VERTEX_POINT ( 'NONE', #255 ) ;
#364 = EDGE_LOOP ( 'NONE', ( #212, #281, #75, #196 ) ) ;
#365 = CARTESIAN_POINT ( 'NONE',  ( 0.000000000000000000, 0.000000000000000000, 0.000000000000000000 ) ) ;
#366 = CARTESIAN_POINT ( 'NONE',  ( 0.000000000000000000, 0.000000000000000000, 5.000000000000000000 ) ) ;
#367 = ADVANCED_FACE ( 'NONE', ( #21, #309 ), #368, .F. ) ;
#368 = PLANE ( 'NONE',  #327 ) ;
#369 = ORIENTED_EDGE ( 'NONE', *, *, #13, .T. ) ;
#370 = AXIS2_PLACEMENT_3D ( 'NONE', #297, #243, #203 ) ;
#371 =( LENGTH_UNIT ( ) NAMED_UNIT ( * ) SI_UNIT ( .MILLI., .METRE. ) );
#372 = DIRECTION ( 'NONE',  ( 0.000000000000000000, 0.000000000000000000, -1.000000000000000000 ) ) ;
#373 = CALENDAR_DATE ( 2022, 8, 7 ) ;
#374 = DIRECTION ( 'NONE',  ( -0.000000000000000000, -0.000000000000000000, -1.000000000000000000 ) ) ;
#375 = CARTESIAN_POINT ( 'NONE',  ( -7.000000000000000000, 0.000000000000000000, 5.000000000000000000 ) ) ;
#376 = LOCAL_TIME ( 17, 25, 1.000000000000000000, #59 ) ;
#377 = VECTOR ( 'NONE', #295, 1000.000000000000000 ) ;
#378 = PERSON_AND_ORGANIZATION ( #123, #22 ) ;
#379 = CARTESIAN_POINT ( 'NONE',  ( 4.500000000000000888, 0.000000000000000000, 5.500000000000005329 ) ) ;
#380 = DIRECTION ( 'NONE',  ( 1.000000000000000000, 0.000000000000000000, 0.000000000000000000 ) ) ;
#381 = EDGE_LOOP ( 'NONE', ( #142, #6 ) ) ;
ENDSEC;
END-ISO-10303-21;
