ISO-10303-21;
HEADER;
FILE_DESCRIPTION (( 'STEP AP203' ),
    '1' );
FILE_NAME ('d108.STEP',
    '2022-07-08T15:00:36',
    ( '' ),
    ( '' ),
    'SwSTEP 2.0',
    'SolidWorks 2019',
    '' );
FILE_SCHEMA (( 'CONFIG_CONTROL_DESIGN' ));
ENDSEC;

DATA;
#1 = DIRECTION ( 'NONE',  ( 0.000000000000000000, 0.000000000000000000, -1.000000000000000000 ) ) ;
#2 = VERTEX_POINT ( 'NONE', #229 ) ;
#3 =( NAMED_UNIT ( * ) SI_UNIT ( $, .STERADIAN. ) SOLID_ANGLE_UNIT ( ) );
#4 = VERTEX_POINT ( 'NONE', #114 ) ;
#5 = PRODUCT_DEFINITION ( 'NEZNÁMÝ', '', #152, #48 ) ;
#6 = ORIENTED_EDGE ( 'NONE', *, *, #275, .T. ) ;
#7 = PERSON_AND_ORGANIZATION_ROLE ( 'creator' ) ;
#8 = ORIENTED_EDGE ( 'NONE', *, *, #234, .F. ) ;
#9 = CALENDAR_DATE ( 2022, 8, 7 ) ;
#10 = ORIENTED_EDGE ( 'NONE', *, *, #46, .F. ) ;
#11 = FACE_OUTER_BOUND ( 'NONE', #269, .T. ) ;
#12 = ORIENTED_EDGE ( 'NONE', *, *, #46, .T. ) ;
#13 = ADVANCED_FACE ( 'NONE', ( #145 ), #311, .T. ) ;
#14 = PERSON_AND_ORGANIZATION ( #134, #335 ) ;
#15 = CIRCLE ( 'NONE', #52, 10.00000000000000000 ) ;
#16 = DIRECTION ( 'NONE',  ( 1.000000000000000000, 0.000000000000000000, -0.000000000000000000 ) ) ;
#17 = PERSON_AND_ORGANIZATION ( #134, #335 ) ;
#18 = FACE_OUTER_BOUND ( 'NONE', #100, .T. ) ;
#19 = EDGE_CURVE ( 'NONE', #268, #189, #155, .T. ) ;
#20 = DATE_AND_TIME ( #141, #35 ) ;
#21 = DIRECTION ( 'NONE',  ( 0.000000000000000000, 0.000000000000000000, 1.000000000000000000 ) ) ;
#22 = AXIS2_PLACEMENT_3D ( 'NONE', #56, #53, #147 ) ;
#23 = CARTESIAN_POINT ( 'NONE',  ( -6.000000000000000888, 0.000000000000000000, 407.0000000000000000 ) ) ;
#24 = CARTESIAN_POINT ( 'NONE',  ( 6.000000000000000888, 7.347880794884120722E-16, 407.0000000000000000 ) ) ;
#25 = DIRECTION ( 'NONE',  ( -1.000000000000000000, 0.000000000000000000, 0.000000000000000000 ) ) ;
#26 = APPROVAL ( #339, 'NEURÈENÝ' ) ;
#27 = DIRECTION ( 'NONE',  ( 1.000000000000000000, 0.000000000000000000, 0.000000000000000000 ) ) ;
#28 = AXIS2_PLACEMENT_3D ( 'NONE', #192, #36, #130 ) ;
#29 = DIRECTION ( 'NONE',  ( 1.000000000000000000, 0.000000000000000000, -0.000000000000000000 ) ) ;
#30 = CC_DESIGN_PERSON_AND_ORGANIZATION_ASSIGNMENT ( #14, #337, ( #157 ) ) ;
#31 = DIRECTION ( 'NONE',  ( 0.000000000000000000, 0.000000000000000000, -1.000000000000000000 ) ) ;
#32 = ORIENTED_EDGE ( 'NONE', *, *, #135, .T. ) ;
#33 = AXIS2_PLACEMENT_3D ( 'NONE', #142, #21, #368 ) ;
#34 = CARTESIAN_POINT ( 'NONE',  ( 0.000000000000000000, 0.000000000000000000, 407.0000000000000000 ) ) ;
#35 = LOCAL_TIME ( 17, 0, 36.00000000000000000, #78 ) ;
#36 = DIRECTION ( 'NONE',  ( -0.000000000000000000, -0.000000000000000000, -1.000000000000000000 ) ) ;
#37 = MANIFOLD_SOLID_BREP ( 'Odebrat vysunutím3', #118 ) ;
#38 = EDGE_LOOP ( 'NONE', ( #185, #187, #160, #249 ) ) ;
#39 = CC_DESIGN_PERSON_AND_ORGANIZATION_ASSIGNMENT ( #272, #7, ( #5 ) ) ;
#40 = ORIENTED_EDGE ( 'NONE', *, *, #324, .T. ) ;
#41 = EDGE_LOOP ( 'NONE', ( #278, #75 ) ) ;
#42 = CIRCLE ( 'NONE', #91, 2.750000000000000000 ) ;
#43 = APPROVAL_ROLE ( '' ) ;
#44 = ORIENTED_EDGE ( 'NONE', *, *, #80, .T. ) ;
#45 = PERSON_AND_ORGANIZATION ( #134, #335 ) ;
#46 = EDGE_CURVE ( 'NONE', #333, #336, #219, .T. ) ;
#47 = ORIENTED_EDGE ( 'NONE', *, *, #182, .T. ) ;
#48 = DESIGN_CONTEXT ( 'detailed design', #216, 'design' ) ;
#49 = DIRECTION ( 'NONE',  ( -0.000000000000000000, -0.000000000000000000, -1.000000000000000000 ) ) ;
#50 = AXIS2_PLACEMENT_3D ( 'NONE', #140, #279, #201 ) ;
#51 = AXIS2_PLACEMENT_3D ( 'NONE', #202, #286, #117 ) ;
#52 = AXIS2_PLACEMENT_3D ( 'NONE', #206, #350, #154 ) ;
#53 = DIRECTION ( 'NONE',  ( -0.000000000000000000, -0.000000000000000000, -1.000000000000000000 ) ) ;
#54 = EDGE_CURVE ( 'NONE', #193, #333, #172, .T. ) ;
#55 = CARTESIAN_POINT ( 'NONE',  ( 0.000000000000000000, 0.000000000000000000, 7.000000000000000000 ) ) ;
#56 = CARTESIAN_POINT ( 'NONE',  ( 0.000000000000000000, 0.000000000000000000, 0.000000000000000000 ) ) ;
#57 = CARTESIAN_POINT ( 'NONE',  ( 0.000000000000000000, 0.000000000000000000, 407.0000000000000000 ) ) ;
#58 = DIRECTION ( 'NONE',  ( 1.000000000000000000, 0.000000000000000000, 0.000000000000000000 ) ) ;
#59 = ADVANCED_FACE ( 'NONE', ( #280, #228 ), #310, .T. ) ;
#60 = DIRECTION ( 'NONE',  ( 1.000000000000000000, 0.000000000000000000, 0.000000000000000000 ) ) ;
#61 = FACE_OUTER_BOUND ( 'NONE', #66, .T. ) ;
#62 = LOCAL_TIME ( 17, 0, 36.00000000000000000, #334 ) ;
#63 = DIRECTION ( 'NONE',  ( -0.000000000000000000, -0.000000000000000000, -1.000000000000000000 ) ) ;
#64 = CARTESIAN_POINT ( 'NONE',  ( 0.000000000000000000, 0.000000000000000000, 7.000000000000000000 ) ) ;
#65 = APPROVAL_DATE_TIME ( #363, #174 ) ;
#66 = EDGE_LOOP ( 'NONE', ( #96, #47 ) ) ;
#67 = EDGE_CURVE ( 'NONE', #175, #301, #375, .T. ) ;
#68 = PERSON_AND_ORGANIZATION ( #134, #335 ) ;
#69 = ORIENTED_EDGE ( 'NONE', *, *, #263, .F. ) ;
#70 = APPROVAL_STATUS ( 'not_yet_approved' ) ;
#71 = ORIENTED_EDGE ( 'NONE', *, *, #54, .T. ) ;
#72 = CIRCLE ( 'NONE', #284, 6.500000000000000888 ) ;
#73 = ADVANCED_FACE ( 'NONE', ( #18 ), #318, .F. ) ;
#74 = MECHANICAL_CONTEXT ( 'NONE', #171, 'mechanical' ) ;
#75 = ORIENTED_EDGE ( 'NONE', *, *, #116, .F. ) ;
#76 = DATE_TIME_ROLE ( 'classification_date' ) ;
#77 = EDGE_LOOP ( 'NONE', ( #274, #44, #199, #69 ) ) ;
#78 = COORDINATED_UNIVERSAL_TIME_OFFSET ( 1, 0, .AHEAD. ) ;
#79 = DIRECTION ( 'NONE',  ( -1.000000000000000000, 0.000000000000000000, 0.000000000000000000 ) ) ;
#80 = EDGE_CURVE ( 'NONE', #107, #175, #340, .T. ) ;
#81 = AXIS2_PLACEMENT_3D ( 'NONE', #64, #300, #188 ) ;
#82 = DIRECTION ( 'NONE',  ( -1.000000000000000000, 0.000000000000000000, 0.000000000000000000 ) ) ;
#83 = DIRECTION ( 'NONE',  ( -0.000000000000000000, -0.000000000000000000, -1.000000000000000000 ) ) ;
#84 = PLANE ( 'NONE',  #51 ) ;
#85 = CC_DESIGN_PERSON_AND_ORGANIZATION_ASSIGNMENT ( #102, #220, ( #152 ) ) ;
#86 = DIRECTION ( 'NONE',  ( 0.000000000000000000, 0.000000000000000000, 1.000000000000000000 ) ) ;
#87 = CARTESIAN_POINT ( 'NONE',  ( 6.000000000000000888, 7.347880794884120722E-16, 7.500000000000007105 ) ) ;
#88 = CARTESIAN_POINT ( 'NONE',  ( -10.00000000000000000, 0.000000000000000000, 7.000000000000000000 ) ) ;
#89 = ADVANCED_FACE ( 'NONE', ( #347 ), #253, .T. ) ;
#90 = DIRECTION ( 'NONE',  ( 0.000000000000000000, 0.000000000000000000, 1.000000000000000000 ) ) ;
#91 = AXIS2_PLACEMENT_3D ( 'NONE', #293, #120, #58 ) ;
#92 = CARTESIAN_POINT ( 'NONE',  ( 0.000000000000000000, 0.000000000000000000, 7.500000000000007105 ) ) ;
#93 = DIRECTION ( 'NONE',  ( 0.000000000000000000, 0.000000000000000000, 1.000000000000000000 ) ) ;
#94 = AXIS2_PLACEMENT_3D ( 'NONE', #257, #252, #79 ) ;
#95 = CYLINDRICAL_SURFACE ( 'NONE', #28, 10.00000000000000000 ) ;
#96 = ORIENTED_EDGE ( 'NONE', *, *, #234, .T. ) ;
#97 = TOROIDAL_SURFACE ( 'NONE', #266, 6.500000000000000888, 0.5000000000000000000 ) ;
#98 = CARTESIAN_POINT ( 'NONE',  ( 0.000000000000000000, 0.000000000000000000, 7.000000000000000000 ) ) ;
#99 = ORIENTED_EDGE ( 'NONE', *, *, #331, .T. ) ;
#100 = EDGE_LOOP ( 'NONE', ( #163, #364, #6, #167 ) ) ;
#101 = ADVANCED_FACE ( 'NONE', ( #111 ), #256, .F. ) ;
#102 = PERSON_AND_ORGANIZATION ( #134, #335 ) ;
#103 = ORIENTED_EDGE ( 'NONE', *, *, #116, .T. ) ;
#104 = VECTOR ( 'NONE', #143, 1000.000000000000000 ) ;
#105 = AXIS2_PLACEMENT_3D ( 'NONE', #376, #237, #208 ) ;
#106 = CALENDAR_DATE ( 2022, 8, 7 ) ;
#107 = VERTEX_POINT ( 'NONE', #371 ) ;
#108 = EDGE_CURVE ( 'NONE', #301, #175, #149, .T. ) ;
#109 = DIRECTION ( 'NONE',  ( -1.000000000000000000, 0.000000000000000000, 0.000000000000000000 ) ) ;
#110 = SHAPE_DEFINITION_REPRESENTATION ( #247, #226 ) ;
#111 = FACE_OUTER_BOUND ( 'NONE', #294, .T. ) ;
#112 = LOCAL_TIME ( 17, 0, 36.00000000000000000, #200 ) ;
#113 = PRODUCT ( 'd108', 'd108', '', ( #74 ) ) ;
#114 = CARTESIAN_POINT ( 'NONE',  ( -6.500000000000000888, 7.960204194457796463E-16, 7.000000000000002665 ) ) ;
#115 = DIRECTION ( 'NONE',  ( 1.000000000000000000, 0.000000000000000000, 0.000000000000000000 ) ) ;
#116 = EDGE_CURVE ( 'NONE', #297, #223, #243, .T. ) ;
#117 = DIRECTION ( 'NONE',  ( 1.000000000000000000, 0.000000000000000000, -0.000000000000000000 ) ) ;
#118 = CLOSED_SHELL ( 'NONE', ( #250, #345, #89, #366, #380, #59, #128, #13, #313, #73, #101 ) ) ;
#119 = AXIS2_PLACEMENT_3D ( 'NONE', #55, #225, #16 ) ;
#120 = DIRECTION ( 'NONE',  ( 0.000000000000000000, 0.000000000000000000, 1.000000000000000000 ) ) ;
#121 = EDGE_CURVE ( 'NONE', #129, #336, #346, .T. ) ;
#122 = DIRECTION ( 'NONE',  ( 0.000000000000000000, 0.000000000000000000, -1.000000000000000000 ) ) ;
#123 = DIRECTION ( 'NONE',  ( 0.000000000000000000, 0.000000000000000000, 1.000000000000000000 ) ) ;
#124 = DIRECTION ( 'NONE',  ( -0.000000000000000000, -0.000000000000000000, -1.000000000000000000 ) ) ;
#125 = CC_DESIGN_APPROVAL ( #174, ( #152 ) ) ;
#126 = CARTESIAN_POINT ( 'NONE',  ( 0.000000000000000000, 0.000000000000000000, 407.0000000000000000 ) ) ;
#127 = ORIENTED_EDGE ( 'NONE', *, *, #195, .F. ) ;
#128 = ADVANCED_FACE ( 'NONE', ( #283, #373 ), #84, .F. ) ;
#129 = VERTEX_POINT ( 'NONE', #24 ) ;
#130 = DIRECTION ( 'NONE',  ( -1.000000000000000000, 0.000000000000000000, 0.000000000000000000 ) ) ;
#131 = ORIENTED_EDGE ( 'NONE', *, *, #195, .T. ) ;
#132 = AXIS2_PLACEMENT_3D ( 'NONE', #230, #308, #265 ) ;
#133 = LOCAL_TIME ( 17, 0, 36.00000000000000000, #214 ) ;
#134 = PERSON ( 'NEURÈENÝ', 'NEURÈENÝ', 'NEURÈENÝ', ('NEURÈENÝ'), ('NEURÈENÝ'), ('NEURÈENÝ') ) ;
#135 = EDGE_CURVE ( 'NONE', #333, #4, #164, .T. ) ;
#136 = ORIENTED_EDGE ( 'NONE', *, *, #80, .F. ) ;
#137 = DIRECTION ( 'NONE',  ( -1.000000000000000000, 0.000000000000000000, 0.000000000000000000 ) ) ;
#138 = ORIENTED_EDGE ( 'NONE', *, *, #263, .T. ) ;
#139 = VERTEX_POINT ( 'NONE', #379 ) ;
#140 = CARTESIAN_POINT ( 'NONE',  ( 0.000000000000000000, 0.000000000000000000, 0.000000000000000000 ) ) ;
#141 = CALENDAR_DATE ( 2022, 8, 7 ) ;
#142 = CARTESIAN_POINT ( 'NONE',  ( 0.000000000000000000, 0.000000000000000000, 7.500000000000007105 ) ) ;
#143 = DIRECTION ( 'NONE',  ( -0.000000000000000000, -0.000000000000000000, -1.000000000000000000 ) ) ;
#144 = AXIS2_PLACEMENT_3D ( 'NONE', #270, #93, #209 ) ;
#145 = FACE_OUTER_BOUND ( 'NONE', #215, .T. ) ;
#146 = EDGE_CURVE ( 'NONE', #297, #189, #264, .T. ) ;
#147 = DIRECTION ( 'NONE',  ( 1.000000000000000000, 0.000000000000000000, 0.000000000000000000 ) ) ;
#148 = CARTESIAN_POINT ( 'NONE',  ( 6.500000000000000888, 0.000000000000000000, 7.500000000000007105 ) ) ;
#149 = CIRCLE ( 'NONE', #341, 10.00000000000000000 ) ;
#150 = EDGE_CURVE ( 'NONE', #2, #107, #178, .T. ) ;
#151 = LINE ( 'NONE', #239, #285 ) ;
#152 = PRODUCT_DEFINITION_FORMATION_WITH_SPECIFIED_SOURCE ( 'LIBOVOLNÝ', '', #113, .NOT_KNOWN. ) ;
#153 = DIRECTION ( 'NONE',  ( 0.000000000000000000, 0.000000000000000000, 1.000000000000000000 ) ) ;
#154 = DIRECTION ( 'NONE',  ( 1.000000000000000000, 0.000000000000000000, 0.000000000000000000 ) ) ;
#155 = CIRCLE ( 'NONE', #22, 2.750000000000000000 ) ;
#156 = FACE_BOUND ( 'NONE', #41, .T. ) ;
#157 = SECURITY_CLASSIFICATION ( '', '', #367 ) ;
#158 = EDGE_CURVE ( 'NONE', #223, #297, #42, .T. ) ;
#159 =( NAMED_UNIT ( * ) PLANE_ANGLE_UNIT ( ) SI_UNIT ( $, .RADIAN. ) );
#160 = ORIENTED_EDGE ( 'NONE', *, *, #222, .T. ) ;
#161 = ORIENTED_EDGE ( 'NONE', *, *, #150, .T. ) ;
#162 = APPROVAL_DATE_TIME ( #329, #287 ) ;
#163 = ORIENTED_EDGE ( 'NONE', *, *, #135, .F. ) ;
#164 = CIRCLE ( 'NONE', #132, 0.5000000000000004441 ) ;
#165 = APPROVAL_PERSON_ORGANIZATION ( #17, #26, #370 ) ;
#166 = COORDINATED_UNIVERSAL_TIME_OFFSET ( 1, 0, .AHEAD. ) ;
#167 = ORIENTED_EDGE ( 'NONE', *, *, #359, .F. ) ;
#168 = ORIENTED_EDGE ( 'NONE', *, *, #108, .T. ) ;
#169 = DIRECTION ( 'NONE',  ( 0.000000000000000000, 0.000000000000000000, 1.000000000000000000 ) ) ;
#170 = AXIS2_PLACEMENT_3D ( 'NONE', #57, #344, #282 ) ;
#171 = APPLICATION_CONTEXT ( 'configuration controlled 3d designs of mechanical parts and assemblies' ) ;
#172 = LINE ( 'NONE', #23, #104 ) ;
#173 = DIRECTION ( 'NONE',  ( 0.000000000000000000, 0.000000000000000000, 1.000000000000000000 ) ) ;
#174 = APPROVAL ( #70, 'NEURÈENÝ' ) ;
#175 = VERTEX_POINT ( 'NONE', #317 ) ;
#176 = CARTESIAN_POINT ( 'NONE',  ( -6.000000000000000888, 0.000000000000000000, 407.0000000000000000 ) ) ;
#177 = DIRECTION ( 'NONE',  ( 1.000000000000000000, 0.000000000000000000, 0.000000000000000000 ) ) ;
#178 = CIRCLE ( 'NONE', #190, 10.00000000000000000 ) ;
#179 = DIRECTION ( 'NONE',  ( 1.000000000000000000, 0.000000000000000000, 0.000000000000000000 ) ) ;
#180 = ORIENTED_EDGE ( 'NONE', *, *, #275, .F. ) ;
#181 = DIRECTION ( 'NONE',  ( 0.000000000000000000, 0.000000000000000000, 1.000000000000000000 ) ) ;
#182 = EDGE_CURVE ( 'NONE', #129, #193, #303, .T. ) ;
#183 = CARTESIAN_POINT ( 'NONE',  ( 0.000000000000000000, 0.000000000000000000, 7.500000000000007105 ) ) ;
#184 = FACE_OUTER_BOUND ( 'NONE', #77, .T. ) ;
#185 = ORIENTED_EDGE ( 'NONE', *, *, #182, .F. ) ;
#186 = APPLICATION_PROTOCOL_DEFINITION ( 'international standard', 'config_control_design', 1994, #216 ) ;
#187 = ORIENTED_EDGE ( 'NONE', *, *, #121, .T. ) ;
#188 = DIRECTION ( 'NONE',  ( 1.000000000000000000, 0.000000000000000000, 0.000000000000000000 ) ) ;
#189 = VERTEX_POINT ( 'NONE', #354 ) ;
#190 = AXIS2_PLACEMENT_3D ( 'NONE', #233, #153, #179 ) ;
#191 = LOCAL_TIME ( 17, 0, 36.00000000000000000, #166 ) ;
#192 = CARTESIAN_POINT ( 'NONE',  ( 0.000000000000000000, 0.000000000000000000, 7.000000000000000000 ) ) ;
#193 = VERTEX_POINT ( 'NONE', #176 ) ;
#194 = UNCERTAINTY_MEASURE_WITH_UNIT (LENGTH_MEASURE( 1.000000000000000082E-05 ), #240, 'distance_accuracy_value', 'NONE');
#195 = EDGE_CURVE ( 'NONE', #139, #4, #72, .T. ) ;
#196 = DIRECTION ( 'NONE',  ( -0.000000000000000000, -0.000000000000000000, -1.000000000000000000 ) ) ;
#197 = DIRECTION ( 'NONE',  ( 1.000000000000000000, 0.000000000000000000, 0.000000000000000000 ) ) ;
#198 = CC_DESIGN_SECURITY_CLASSIFICATION ( #157, ( #152 ) ) ;
#199 = ORIENTED_EDGE ( 'NONE', *, *, #67, .T. ) ;
#200 = COORDINATED_UNIVERSAL_TIME_OFFSET ( 1, 0, .AHEAD. ) ;
#201 = DIRECTION ( 'NONE',  ( 1.000000000000000000, 0.000000000000000000, 0.000000000000000000 ) ) ;
#202 = CARTESIAN_POINT ( 'NONE',  ( 0.000000000000000000, 0.000000000000000000, 0.000000000000000000 ) ) ;
#203 =( GEOMETRIC_REPRESENTATION_CONTEXT ( 3 ) GLOBAL_UNCERTAINTY_ASSIGNED_CONTEXT ( ( #194 ) ) GLOBAL_UNIT_ASSIGNED_CONTEXT ( ( #240, #159, #3 ) ) REPRESENTATION_CONTEXT ( 'NONE', 'WORKASPACE' ) );
#204 = CARTESIAN_POINT ( 'NONE',  ( 2.750000000000000000, 3.367778697655221012E-16, 407.0000000000000000 ) ) ;
#205 = CARTESIAN_POINT ( 'NONE',  ( -2.750000000000000000, 0.000000000000000000, 0.000000000000000000 ) ) ;
#206 = CARTESIAN_POINT ( 'NONE',  ( 0.000000000000000000, 0.000000000000000000, 7.000000000000000000 ) ) ;
#207 = AXIS2_PLACEMENT_3D ( 'NONE', #259, #90, #29 ) ;
#208 = DIRECTION ( 'NONE',  ( 1.000000000000000000, 0.000000000000000000, 0.000000000000000000 ) ) ;
#209 = DIRECTION ( 'NONE',  ( 1.000000000000000000, 0.000000000000000000, 0.000000000000000000 ) ) ;
#210 = VECTOR ( 'NONE', #196, 1000.000000000000000 ) ;
#211 = EDGE_CURVE ( 'NONE', #223, #268, #151, .T. ) ;
#212 = AXIS2_PLACEMENT_3D ( 'NONE', #148, #319, #31 ) ;
#213 = EDGE_LOOP ( 'NONE', ( #218, #330, #99, #244 ) ) ;
#214 = COORDINATED_UNIVERSAL_TIME_OFFSET ( 1, 0, .AHEAD. ) ;
#215 = EDGE_LOOP ( 'NONE', ( #299, #8, #71, #12 ) ) ;
#216 = APPLICATION_CONTEXT ( 'configuration controlled 3d designs of mechanical parts and assemblies' ) ;
#217 = CALENDAR_DATE ( 2022, 8, 7 ) ;
#218 = ORIENTED_EDGE ( 'NONE', *, *, #158, .T. ) ;
#219 = CIRCLE ( 'NONE', #33, 6.000000000000000888 ) ;
#220 = PERSON_AND_ORGANIZATION_ROLE ( 'creator' ) ;
#221 = ORIENTED_EDGE ( 'NONE', *, *, #108, .F. ) ;
#222 = EDGE_CURVE ( 'NONE', #336, #333, #377, .T. ) ;
#223 = VERTEX_POINT ( 'NONE', #262 ) ;
#224 = DATE_AND_TIME ( #106, #112 ) ;
#225 = DIRECTION ( 'NONE',  ( 0.000000000000000000, 0.000000000000000000, 1.000000000000000000 ) ) ;
#226 = ADVANCED_BREP_SHAPE_REPRESENTATION ( 'd108', ( #37, #144 ), #203 ) ;
#227 = DIRECTION ( 'NONE',  ( 0.000000000000000000, 0.000000000000000000, -1.000000000000000000 ) ) ;
#228 = FACE_OUTER_BOUND ( 'NONE', #307, .T. ) ;
#229 = CARTESIAN_POINT ( 'NONE',  ( -10.00000000000000000, 0.000000000000000000, 7.000000000000000000 ) ) ;
#230 = CARTESIAN_POINT ( 'NONE',  ( -6.500000000000000888, 7.960204194457796463E-16, 7.500000000000007105 ) ) ;
#231 = DIRECTION ( 'NONE',  ( 1.000000000000000000, 0.000000000000000000, 0.000000000000000000 ) ) ;
#232 = DIRECTION ( 'NONE',  ( 0.000000000000000000, 0.000000000000000000, -1.000000000000000000 ) ) ;
#233 = CARTESIAN_POINT ( 'NONE',  ( 0.000000000000000000, 0.000000000000000000, 7.000000000000000000 ) ) ;
#234 = EDGE_CURVE ( 'NONE', #193, #129, #381, .T. ) ;
#235 = AXIS2_PLACEMENT_3D ( 'NONE', #369, #83, #109 ) ;
#236 = AXIS2_PLACEMENT_3D ( 'NONE', #34, #181, #231 ) ;
#237 = DIRECTION ( 'NONE',  ( -0.000000000000000000, -0.000000000000000000, -1.000000000000000000 ) ) ;
#238 = CIRCLE ( 'NONE', #81, 6.500000000000000888 ) ;
#239 = CARTESIAN_POINT ( 'NONE',  ( -2.750000000000000000, 0.000000000000000000, 407.0000000000000000 ) ) ;
#240 =( LENGTH_UNIT ( ) NAMED_UNIT ( * ) SI_UNIT ( .MILLI., .METRE. ) );
#241 = ORIENTED_EDGE ( 'NONE', *, *, #150, .F. ) ;
#242 = PERSON_AND_ORGANIZATION ( #134, #335 ) ;
#243 = CIRCLE ( 'NONE', #170, 2.750000000000000000 ) ;
#244 = ORIENTED_EDGE ( 'NONE', *, *, #211, .F. ) ;
#245 = DATE_AND_TIME ( #217, #62 ) ;
#246 = EDGE_LOOP ( 'NONE', ( #221, #338 ) ) ;
#247 = PRODUCT_DEFINITION_SHAPE ( 'NONE', 'NONE',  #5 ) ;
#248 = APPROVAL_STATUS ( 'not_yet_approved' ) ;
#249 = ORIENTED_EDGE ( 'NONE', *, *, #54, .F. ) ;
#250 = ADVANCED_FACE ( 'NONE', ( #322 ), #378, .F. ) ;
#251 = ORIENTED_EDGE ( 'NONE', *, *, #19, .T. ) ;
#252 = DIRECTION ( 'NONE',  ( -0.000000000000000000, -0.000000000000000000, -1.000000000000000000 ) ) ;
#253 = CYLINDRICAL_SURFACE ( 'NONE', #94, 6.000000000000000888 ) ;
#254 = CARTESIAN_POINT ( 'NONE',  ( 10.00000000000000000, 1.224646799147353256E-15, 7.000000000000000000 ) ) ;
#255 = AXIS2_PLACEMENT_3D ( 'NONE', #92, #123, #60 ) ;
#256 = CYLINDRICAL_SURFACE ( 'NONE', #309, 2.750000000000000000 ) ;
#257 = CARTESIAN_POINT ( 'NONE',  ( 0.000000000000000000, 0.000000000000000000, 407.0000000000000000 ) ) ;
#258 = CC_DESIGN_PERSON_AND_ORGANIZATION_ASSIGNMENT ( #45, #277, ( #152 ) ) ;
#259 = CARTESIAN_POINT ( 'NONE',  ( 0.000000000000000000, 0.000000000000000000, 407.0000000000000000 ) ) ;
#260 = VECTOR ( 'NONE', #49, 1000.000000000000000 ) ;
#261 = VECTOR ( 'NONE', #63, 1000.000000000000000 ) ;
#262 = CARTESIAN_POINT ( 'NONE',  ( -2.750000000000000000, 0.000000000000000000, 407.0000000000000000 ) ) ;
#263 = EDGE_CURVE ( 'NONE', #2, #301, #351, .T. ) ;
#264 = LINE ( 'NONE', #289, #343 ) ;
#265 = DIRECTION ( 'NONE',  ( -1.000000000000000000, 1.224646799147351482E-16, 0.000000000000000000 ) ) ;
#266 = AXIS2_PLACEMENT_3D ( 'NONE', #183, #295, #327 ) ;
#267 = CARTESIAN_POINT ( 'NONE',  ( 0.000000000000000000, 0.000000000000000000, 407.0000000000000000 ) ) ;
#268 = VERTEX_POINT ( 'NONE', #205 ) ;
#269 = EDGE_LOOP ( 'NONE', ( #136, #241, #138, #168 ) ) ;
#270 = CARTESIAN_POINT ( 'NONE',  ( 0.000000000000000000, 0.000000000000000000, 0.000000000000000000 ) ) ;
#271 = EDGE_LOOP ( 'NONE', ( #276, #305 ) ) ;
#272 = PERSON_AND_ORGANIZATION ( #134, #335 ) ;
#273 = APPROVAL_PERSON_ORGANIZATION ( #332, #174, #43 ) ;
#274 = ORIENTED_EDGE ( 'NONE', *, *, #324, .F. ) ;
#275 = EDGE_CURVE ( 'NONE', #336, #139, #315, .T. ) ;
#276 = ORIENTED_EDGE ( 'NONE', *, *, #19, .F. ) ;
#277 = PERSON_AND_ORGANIZATION_ROLE ( 'design_supplier' ) ;
#278 = ORIENTED_EDGE ( 'NONE', *, *, #158, .F. ) ;
#279 = DIRECTION ( 'NONE',  ( 0.000000000000000000, 0.000000000000000000, 1.000000000000000000 ) ) ;
#280 = FACE_BOUND ( 'NONE', #328, .T. ) ;
#281 = APPROVAL_DATE_TIME ( #20, #26 ) ;
#282 = DIRECTION ( 'NONE',  ( 1.000000000000000000, 0.000000000000000000, 0.000000000000000000 ) ) ;
#283 = FACE_BOUND ( 'NONE', #271, .T. ) ;
#284 = AXIS2_PLACEMENT_3D ( 'NONE', #288, #124, #27 ) ;
#285 = VECTOR ( 'NONE', #122, 1000.000000000000000 ) ;
#286 = DIRECTION ( 'NONE',  ( 0.000000000000000000, 0.000000000000000000, 1.000000000000000000 ) ) ;
#287 = APPROVAL ( #248, 'NEURÈENÝ' ) ;
#288 = CARTESIAN_POINT ( 'NONE',  ( 0.000000000000000000, 0.000000000000000000, 7.000000000000000000 ) ) ;
#289 = CARTESIAN_POINT ( 'NONE',  ( 2.750000000000000000, 3.367778697655221012E-16, 407.0000000000000000 ) ) ;
#290 = PRODUCT_RELATED_PRODUCT_CATEGORY ( 'detail', '', ( #113 ) ) ;
#291 = AXIS2_PLACEMENT_3D ( 'NONE', #126, #86, #177 ) ;
#292 = PLANE ( 'NONE',  #207 ) ;
#293 = CARTESIAN_POINT ( 'NONE',  ( 0.000000000000000000, 0.000000000000000000, 407.0000000000000000 ) ) ;
#294 = EDGE_LOOP ( 'NONE', ( #357, #103, #365, #251 ) ) ;
#295 = DIRECTION ( 'NONE',  ( 0.000000000000000000, 0.000000000000000000, 1.000000000000000000 ) ) ;
#296 = CYLINDRICAL_SURFACE ( 'NONE', #326, 10.00000000000000000 ) ;
#297 = VERTEX_POINT ( 'NONE', #204 ) ;
#298 = CC_DESIGN_DATE_AND_TIME_ASSIGNMENT ( #224, #76, ( #157 ) ) ;
#299 = ORIENTED_EDGE ( 'NONE', *, *, #121, .F. ) ;
#300 = DIRECTION ( 'NONE',  ( -0.000000000000000000, -0.000000000000000000, -1.000000000000000000 ) ) ;
#301 = VERTEX_POINT ( 'NONE', #352 ) ;
#302 = DIRECTION ( 'NONE',  ( -0.000000000000000000, -0.000000000000000000, -1.000000000000000000 ) ) ;
#303 = CIRCLE ( 'NONE', #236, 6.000000000000000888 ) ;
#304 = APPROVAL_PERSON_ORGANIZATION ( #68, #287, #325 ) ;
#305 = ORIENTED_EDGE ( 'NONE', *, *, #331, .F. ) ;
#306 = CALENDAR_DATE ( 2022, 8, 7 ) ;
#307 = EDGE_LOOP ( 'NONE', ( #161, #40 ) ) ;
#308 = DIRECTION ( 'NONE',  ( 1.224646799147353207E-16, 1.000000000000000000, -0.000000000000000000 ) ) ;
#309 = AXIS2_PLACEMENT_3D ( 'NONE', #314, #227, #82 ) ;
#310 = PLANE ( 'NONE',  #119 ) ;
#311 = CYLINDRICAL_SURFACE ( 'NONE', #235, 6.000000000000000888 ) ;
#312 = CARTESIAN_POINT ( 'NONE',  ( 6.000000000000000888, 7.347880794884120722E-16, 407.0000000000000000 ) ) ;
#313 = ADVANCED_FACE ( 'NONE', ( #156, #61 ), #292, .T. ) ;
#314 = CARTESIAN_POINT ( 'NONE',  ( 0.000000000000000000, 0.000000000000000000, 407.0000000000000000 ) ) ;
#315 = CIRCLE ( 'NONE', #212, 0.5000000000000004441 ) ;
#316 = FACE_OUTER_BOUND ( 'NONE', #362, .T. ) ;
#317 = CARTESIAN_POINT ( 'NONE',  ( 10.00000000000000000, 1.224646799147353256E-15, 0.000000000000000000 ) ) ;
#318 = TOROIDAL_SURFACE ( 'NONE', #320, 6.500000000000000888, 0.5000000000000000000 ) ;
#319 = DIRECTION ( 'NONE',  ( 0.000000000000000000, -1.000000000000000000, 0.000000000000000000 ) ) ;
#320 = AXIS2_PLACEMENT_3D ( 'NONE', #342, #169, #115 ) ;
#321 = CIRCLE ( 'NONE', #105, 2.750000000000000000 ) ;
#322 = FACE_OUTER_BOUND ( 'NONE', #213, .T. ) ;
#323 = CARTESIAN_POINT ( 'NONE',  ( -6.000000000000000888, 0.000000000000000000, 7.500000000000007105 ) ) ;
#324 = EDGE_CURVE ( 'NONE', #107, #2, #15, .T. ) ;
#325 = APPROVAL_ROLE ( '' ) ;
#326 = AXIS2_PLACEMENT_3D ( 'NONE', #98, #302, #137 ) ;
#327 = DIRECTION ( 'NONE',  ( 1.000000000000000000, 0.000000000000000000, 0.000000000000000000 ) ) ;
#328 = EDGE_LOOP ( 'NONE', ( #131, #360 ) ) ;
#329 = DATE_AND_TIME ( #306, #133 ) ;
#330 = ORIENTED_EDGE ( 'NONE', *, *, #146, .T. ) ;
#331 = EDGE_CURVE ( 'NONE', #189, #268, #321, .T. ) ;
#332 = PERSON_AND_ORGANIZATION ( #134, #335 ) ;
#333 = VERTEX_POINT ( 'NONE', #323 ) ;
#334 = COORDINATED_UNIVERSAL_TIME_OFFSET ( 1, 0, .AHEAD. ) ;
#335 = ORGANIZATION ( 'NEURÈENÝ', 'NEURÈENÝ', '' ) ;
#336 = VERTEX_POINT ( 'NONE', #87 ) ;
#337 = PERSON_AND_ORGANIZATION_ROLE ( 'classification_officer' ) ;
#338 = ORIENTED_EDGE ( 'NONE', *, *, #67, .F. ) ;
#339 = APPROVAL_STATUS ( 'not_yet_approved' ) ;
#340 = LINE ( 'NONE', #254, #260 ) ;
#341 = AXIS2_PLACEMENT_3D ( 'NONE', #374, #173, #197 ) ;
#342 = CARTESIAN_POINT ( 'NONE',  ( 0.000000000000000000, 0.000000000000000000, 7.500000000000007105 ) ) ;
#343 = VECTOR ( 'NONE', #1, 1000.000000000000000 ) ;
#344 = DIRECTION ( 'NONE',  ( 0.000000000000000000, 0.000000000000000000, 1.000000000000000000 ) ) ;
#345 = ADVANCED_FACE ( 'NONE', ( #316 ), #97, .F. ) ;
#346 = LINE ( 'NONE', #312, #210 ) ;
#347 = FACE_OUTER_BOUND ( 'NONE', #38, .T. ) ;
#348 = AXIS2_PLACEMENT_3D ( 'NONE', #267, #232, #25 ) ;
#349 = CC_DESIGN_DATE_AND_TIME_ASSIGNMENT ( #245, #361, ( #5 ) ) ;
#350 = DIRECTION ( 'NONE',  ( 0.000000000000000000, 0.000000000000000000, 1.000000000000000000 ) ) ;
#351 = LINE ( 'NONE', #88, #261 ) ;
#352 = CARTESIAN_POINT ( 'NONE',  ( -10.00000000000000000, 0.000000000000000000, 0.000000000000000000 ) ) ;
#353 = CC_DESIGN_APPROVAL ( #287, ( #5 ) ) ;
#354 = CARTESIAN_POINT ( 'NONE',  ( 2.750000000000000000, 3.367778697655221012E-16, 0.000000000000000000 ) ) ;
#355 = CC_DESIGN_PERSON_AND_ORGANIZATION_ASSIGNMENT ( #242, #358, ( #113 ) ) ;
#356 = APPLICATION_PROTOCOL_DEFINITION ( 'international standard', 'config_control_design', 1994, #171 ) ;
#357 = ORIENTED_EDGE ( 'NONE', *, *, #146, .F. ) ;
#358 = PERSON_AND_ORGANIZATION_ROLE ( 'design_owner' ) ;
#359 = EDGE_CURVE ( 'NONE', #4, #139, #238, .T. ) ;
#360 = ORIENTED_EDGE ( 'NONE', *, *, #359, .T. ) ;
#361 = DATE_TIME_ROLE ( 'creation_date' ) ;
#362 = EDGE_LOOP ( 'NONE', ( #10, #32, #127, #180 ) ) ;
#363 = DATE_AND_TIME ( #9, #191 ) ;
#364 = ORIENTED_EDGE ( 'NONE', *, *, #222, .F. ) ;
#365 = ORIENTED_EDGE ( 'NONE', *, *, #211, .T. ) ;
#366 = ADVANCED_FACE ( 'NONE', ( #184 ), #296, .T. ) ;
#367 = SECURITY_CLASSIFICATION_LEVEL ( 'unclassified' ) ;
#368 = DIRECTION ( 'NONE',  ( 1.000000000000000000, 0.000000000000000000, 0.000000000000000000 ) ) ;
#369 = CARTESIAN_POINT ( 'NONE',  ( 0.000000000000000000, 0.000000000000000000, 407.0000000000000000 ) ) ;
#370 = APPROVAL_ROLE ( '' ) ;
#371 = CARTESIAN_POINT ( 'NONE',  ( 10.00000000000000000, 1.224646799147353256E-15, 7.000000000000000000 ) ) ;
#372 = CC_DESIGN_APPROVAL ( #26, ( #157 ) ) ;
#373 = FACE_OUTER_BOUND ( 'NONE', #246, .T. ) ;
#374 = CARTESIAN_POINT ( 'NONE',  ( 0.000000000000000000, 0.000000000000000000, 0.000000000000000000 ) ) ;
#375 = CIRCLE ( 'NONE', #50, 10.00000000000000000 ) ;
#376 = CARTESIAN_POINT ( 'NONE',  ( 0.000000000000000000, 0.000000000000000000, 0.000000000000000000 ) ) ;
#377 = CIRCLE ( 'NONE', #255, 6.000000000000000888 ) ;
#378 = CYLINDRICAL_SURFACE ( 'NONE', #348, 2.750000000000000000 ) ;
#379 = CARTESIAN_POINT ( 'NONE',  ( 6.500000000000000888, 0.000000000000000000, 7.000000000000002665 ) ) ;
#380 = ADVANCED_FACE ( 'NONE', ( #11 ), #95, .T. ) ;
#381 = CIRCLE ( 'NONE', #291, 6.000000000000000888 ) ;
ENDSEC;
END-ISO-10303-21;
