ISO-10303-21;
HEADER;
FILE_DESCRIPTION (( 'STEP AP203' ),
    '1' );
FILE_NAME ('6227.STEP',
    '2022-07-08T15:49:21',
    ( '' ),
    ( '' ),
    'SwSTEP 2.0',
    'SolidWorks 2019',
    '' );
FILE_SCHEMA (( 'CONFIG_CONTROL_DESIGN' ));
ENDSEC;

DATA;
#1 = DIRECTION ( 'NONE',  ( 1.000000000000000000, 0.000000000000000000, -0.000000000000000000 ) ) ;
#2 = CIRCLE ( 'NONE', #147, 1.100000000000000089 ) ;
#3 = PRODUCT ( '6227', '6227', '', ( #117 ) ) ;
#4 =( NAMED_UNIT ( * ) PLANE_ANGLE_UNIT ( ) SI_UNIT ( $, .RADIAN. ) );
#5 = EDGE_CURVE ( 'NONE', #209, #96, #346, .T. ) ;
#6 = CARTESIAN_POINT ( 'NONE',  ( 0.000000000000000000, 0.000000000000000000, 353.0000000000000000 ) ) ;
#7 = EDGE_LOOP ( 'NONE', ( #64, #120 ) ) ;
#8 =( NAMED_UNIT ( * ) SI_UNIT ( $, .STERADIAN. ) SOLID_ANGLE_UNIT ( ) );
#9 = ORIENTED_EDGE ( 'NONE', *, *, #220, .F. ) ;
#10 = EDGE_LOOP ( 'NONE', ( #25, #240 ) ) ;
#11 = VERTEX_POINT ( 'NONE', #73 ) ;
#12 = DIRECTION ( 'NONE',  ( -0.000000000000000000, -0.000000000000000000, -1.000000000000000000 ) ) ;
#13 = PERSON_AND_ORGANIZATION ( #23, #102 ) ;
#14 = CARTESIAN_POINT ( 'NONE',  ( 2.000000000000000000, 2.449293598294706414E-16, 353.0000000000000000 ) ) ;
#15 = DIRECTION ( 'NONE',  ( 0.000000000000000000, 0.000000000000000000, 1.000000000000000000 ) ) ;
#16 = DIRECTION ( 'NONE',  ( 0.000000000000000000, 0.000000000000000000, 1.000000000000000000 ) ) ;
#17 = EDGE_CURVE ( 'NONE', #38, #11, #158, .T. ) ;
#18 = LINE ( 'NONE', #113, #320 ) ;
#19 = AXIS2_PLACEMENT_3D ( 'NONE', #364, #294, #256 ) ;
#20 = CARTESIAN_POINT ( 'NONE',  ( 0.000000000000000000, 0.000000000000000000, 0.000000000000000000 ) ) ;
#21 = DIRECTION ( 'NONE',  ( -1.000000000000000000, 0.000000000000000000, 0.000000000000000000 ) ) ;
#22 = CC_DESIGN_PERSON_AND_ORGANIZATION_ASSIGNMENT ( #339, #189, ( #37 ) ) ;
#23 = PERSON ( 'NEURÈENÝ', 'NEURÈENÝ', 'NEURÈENÝ', ('NEURÈENÝ'), ('NEURÈENÝ'), ('NEURÈENÝ') ) ;
#24 = CARTESIAN_POINT ( 'NONE',  ( 4.000000000000000000, 4.898587196589412829E-16, 3.000000000000000000 ) ) ;
#25 = ORIENTED_EDGE ( 'NONE', *, *, #110, .F. ) ;
#26 = LINE ( 'NONE', #354, #173 ) ;
#27 =( GEOMETRIC_REPRESENTATION_CONTEXT ( 3 ) GLOBAL_UNCERTAINTY_ASSIGNED_CONTEXT ( ( #29 ) ) GLOBAL_UNIT_ASSIGNED_CONTEXT ( ( #31, #4, #8 ) ) REPRESENTATION_CONTEXT ( 'NONE', 'WORKASPACE' ) );
#28 = CARTESIAN_POINT ( 'NONE',  ( 0.000000000000000000, 0.000000000000000000, 353.0000000000000000 ) ) ;
#29 = UNCERTAINTY_MEASURE_WITH_UNIT (LENGTH_MEASURE( 1.000000000000000082E-05 ), #31, 'distance_accuracy_value', 'NONE');
#30 = CC_DESIGN_PERSON_AND_ORGANIZATION_ASSIGNMENT ( #328, #87, ( #344 ) ) ;
#31 =( LENGTH_UNIT ( ) NAMED_UNIT ( * ) SI_UNIT ( .MILLI., .METRE. ) );
#32 = AXIS2_PLACEMENT_3D ( 'NONE', #42, #334, #368 ) ;
#33 = CARTESIAN_POINT ( 'NONE',  ( -1.100000000000000089, 0.000000000000000000, 353.0000000000000000 ) ) ;
#34 = ORIENTED_EDGE ( 'NONE', *, *, #337, .T. ) ;
#35 = AXIS2_PLACEMENT_3D ( 'NONE', #53, #259, #83 ) ;
#36 = CARTESIAN_POINT ( 'NONE',  ( 0.000000000000000000, 0.000000000000000000, 0.000000000000000000 ) ) ;
#37 = SECURITY_CLASSIFICATION ( '', '', #247 ) ;
#38 = VERTEX_POINT ( 'NONE', #252 ) ;
#39 = ORIENTED_EDGE ( 'NONE', *, *, #376, .T. ) ;
#40 = CALENDAR_DATE ( 2022, 8, 7 ) ;
#41 = EDGE_LOOP ( 'NONE', ( #114, #274 ) ) ;
#42 = CARTESIAN_POINT ( 'NONE',  ( 0.000000000000000000, 0.000000000000000000, 353.0000000000000000 ) ) ;
#43 = LOCAL_TIME ( 17, 49, 21.00000000000000000, #327 ) ;
#44 = ADVANCED_FACE ( 'NONE', ( #248 ), #99, .T. ) ;
#45 = EDGE_LOOP ( 'NONE', ( #90, #180 ) ) ;
#46 = DATE_TIME_ROLE ( 'creation_date' ) ;
#47 = FACE_OUTER_BOUND ( 'NONE', #45, .T. ) ;
#48 = ORIENTED_EDGE ( 'NONE', *, *, #366, .T. ) ;
#49 = VERTEX_POINT ( 'NONE', #340 ) ;
#50 = CARTESIAN_POINT ( 'NONE',  ( 0.000000000000000000, 0.000000000000000000, 3.000000000000000000 ) ) ;
#51 = EDGE_CURVE ( 'NONE', #96, #11, #157, .T. ) ;
#52 = CARTESIAN_POINT ( 'NONE',  ( 0.000000000000000000, 0.000000000000000000, 353.0000000000000000 ) ) ;
#53 = CARTESIAN_POINT ( 'NONE',  ( 0.000000000000000000, 0.000000000000000000, 3.300000000000025135 ) ) ;
#54 = EDGE_LOOP ( 'NONE', ( #332, #303, #130, #293 ) ) ;
#55 = CYLINDRICAL_SURFACE ( 'NONE', #172, 2.000000000000000000 ) ;
#56 = DIRECTION ( 'NONE',  ( 0.000000000000000000, 0.000000000000000000, 1.000000000000000000 ) ) ;
#57 = AXIS2_PLACEMENT_3D ( 'NONE', #174, #290, #21 ) ;
#58 = EDGE_CURVE ( 'NONE', #49, #228, #91, .T. ) ;
#59 = APPROVAL_ROLE ( '' ) ;
#60 = LINE ( 'NONE', #33, #241 ) ;
#61 = ORIENTED_EDGE ( 'NONE', *, *, #231, .T. ) ;
#62 = DATE_AND_TIME ( #207, #43 ) ;
#63 = ADVANCED_FACE ( 'NONE', ( #69, #188 ), #193, .T. ) ;
#64 = ORIENTED_EDGE ( 'NONE', *, *, #337, .F. ) ;
#65 = CYLINDRICAL_SURFACE ( 'NONE', #108, 4.000000000000000000 ) ;
#66 = ORIENTED_EDGE ( 'NONE', *, *, #318, .T. ) ;
#67 = APPROVAL_STATUS ( 'not_yet_approved' ) ;
#68 = VERTEX_POINT ( 'NONE', #190 ) ;
#69 = FACE_BOUND ( 'NONE', #7, .T. ) ;
#70 = ADVANCED_FACE ( 'NONE', ( #312, #47 ), #162, .T. ) ;
#71 = DATE_TIME_ROLE ( 'classification_date' ) ;
#72 = ORIENTED_EDGE ( 'NONE', *, *, #313, .F. ) ;
#73 = CARTESIAN_POINT ( 'NONE',  ( -2.299999999999999822, 2.816687638038912056E-16, 3.000000000000012434 ) ) ;
#74 = COORDINATED_UNIVERSAL_TIME_OFFSET ( 1, 0, .AHEAD. ) ;
#75 = ORIENTED_EDGE ( 'NONE', *, *, #17, .F. ) ;
#76 = CARTESIAN_POINT ( 'NONE',  ( 0.000000000000000000, 0.000000000000000000, 0.000000000000000000 ) ) ;
#77 = AXIS2_PLACEMENT_3D ( 'NONE', #28, #118, #270 ) ;
#78 = LINE ( 'NONE', #378, #182 ) ;
#79 = FACE_OUTER_BOUND ( 'NONE', #381, .T. ) ;
#80 = AXIS2_PLACEMENT_3D ( 'NONE', #254, #12, #218 ) ;
#81 = FACE_OUTER_BOUND ( 'NONE', #166, .T. ) ;
#82 = EDGE_LOOP ( 'NONE', ( #9, #202, #39, #101 ) ) ;
#83 = DIRECTION ( 'NONE',  ( 1.000000000000000000, 0.000000000000000000, 0.000000000000000000 ) ) ;
#84 = ORIENTED_EDGE ( 'NONE', *, *, #215, .T. ) ;
#85 = DIRECTION ( 'NONE',  ( 1.000000000000000000, 0.000000000000000000, 0.000000000000000000 ) ) ;
#86 = DIRECTION ( 'NONE',  ( 1.000000000000000000, 0.000000000000000000, 0.000000000000000000 ) ) ;
#87 = PERSON_AND_ORGANIZATION_ROLE ( 'creator' ) ;
#88 = ADVANCED_FACE ( 'NONE', ( #104 ), #278, .T. ) ;
#89 = PERSON_AND_ORGANIZATION_ROLE ( 'design_owner' ) ;
#90 = ORIENTED_EDGE ( 'NONE', *, *, #58, .T. ) ;
#91 = CIRCLE ( 'NONE', #314, 4.000000000000000000 ) ;
#92 = CARTESIAN_POINT ( 'NONE',  ( 0.000000000000000000, 0.000000000000000000, 353.0000000000000000 ) ) ;
#93 = ORIENTED_EDGE ( 'NONE', *, *, #97, .F. ) ;
#94 = APPROVAL_PERSON_ORGANIZATION ( #273, #253, #243 ) ;
#95 = ORIENTED_EDGE ( 'NONE', *, *, #300, .T. ) ;
#96 = VERTEX_POINT ( 'NONE', #311 ) ;
#97 = EDGE_CURVE ( 'NONE', #338, #151, #282, .T. ) ;
#98 = AXIS2_PLACEMENT_3D ( 'NONE', #20, #195, #1 ) ;
#99 = CYLINDRICAL_SURFACE ( 'NONE', #238, 2.000000000000000000 ) ;
#100 = CIRCLE ( 'NONE', #342, 2.000000000000000000 ) ;
#101 = ORIENTED_EDGE ( 'NONE', *, *, #300, .F. ) ;
#102 = ORGANIZATION ( 'NEURÈENÝ', 'NEURÈENÝ', '' ) ;
#103 = DIRECTION ( 'NONE',  ( 1.000000000000000000, 0.000000000000000000, -0.000000000000000000 ) ) ;
#104 = FACE_OUTER_BOUND ( 'NONE', #160, .T. ) ;
#105 = VECTOR ( 'NONE', #133, 1000.000000000000000 ) ;
#106 = AXIS2_PLACEMENT_3D ( 'NONE', #198, #181, #230 ) ;
#107 = CARTESIAN_POINT ( 'NONE',  ( -1.100000000000000089, 0.000000000000000000, 353.0000000000000000 ) ) ;
#108 = AXIS2_PLACEMENT_3D ( 'NONE', #178, #153, #297 ) ;
#109 = CARTESIAN_POINT ( 'NONE',  ( -1.100000000000000089, 0.000000000000000000, 0.000000000000000000 ) ) ;
#110 = EDGE_CURVE ( 'NONE', #359, #211, #112, .T. ) ;
#111 = CYLINDRICAL_SURFACE ( 'NONE', #57, 1.100000000000000089 ) ;
#112 = CIRCLE ( 'NONE', #281, 4.000000000000000000 ) ;
#113 = CARTESIAN_POINT ( 'NONE',  ( -2.000000000000000000, 0.000000000000000000, 353.0000000000000000 ) ) ;
#114 = ORIENTED_EDGE ( 'NONE', *, *, #17, .T. ) ;
#115 = AXIS2_PLACEMENT_3D ( 'NONE', #36, #239, #86 ) ;
#116 = CARTESIAN_POINT ( 'NONE',  ( 0.000000000000000000, 0.000000000000000000, 353.0000000000000000 ) ) ;
#117 = MECHANICAL_CONTEXT ( 'NONE', #360, 'mechanical' ) ;
#118 = DIRECTION ( 'NONE',  ( 0.000000000000000000, 0.000000000000000000, 1.000000000000000000 ) ) ;
#119 = EDGE_CURVE ( 'NONE', #68, #209, #288, .T. ) ;
#120 = ORIENTED_EDGE ( 'NONE', *, *, #357, .F. ) ;
#121 = APPLICATION_PROTOCOL_DEFINITION ( 'international standard', 'config_control_design', 1994, #217 ) ;
#122 = ORIENTED_EDGE ( 'NONE', *, *, #58, .F. ) ;
#123 = APPLICATION_PROTOCOL_DEFINITION ( 'international standard', 'config_control_design', 1994, #360 ) ;
#124 = ORIENTED_EDGE ( 'NONE', *, *, #379, .T. ) ;
#125 = APPROVAL_PERSON_ORGANIZATION ( #251, #184, #371 ) ;
#126 = SHAPE_DEFINITION_REPRESENTATION ( #260, #304 ) ;
#127 = EDGE_CURVE ( 'NONE', #209, #38, #204, .T. ) ;
#128 = CARTESIAN_POINT ( 'NONE',  ( 0.000000000000000000, 0.000000000000000000, 3.000000000000000000 ) ) ;
#129 = APPROVAL_DATE_TIME ( #279, #184 ) ;
#130 = ORIENTED_EDGE ( 'NONE', *, *, #5, .T. ) ;
#131 = PERSON_AND_ORGANIZATION_ROLE ( 'design_supplier' ) ;
#132 = AXIS2_PLACEMENT_3D ( 'NONE', #287, #139, #335 ) ;
#133 = DIRECTION ( 'NONE',  ( -0.000000000000000000, -0.000000000000000000, -1.000000000000000000 ) ) ;
#134 = APPROVAL_DATE_TIME ( #167, #253 ) ;
#135 = CIRCLE ( 'NONE', #369, 2.000000000000000000 ) ;
#136 = DIRECTION ( 'NONE',  ( 1.000000000000000000, 0.000000000000000000, 0.000000000000000000 ) ) ;
#137 = CIRCLE ( 'NONE', #77, 2.000000000000000000 ) ;
#138 = DATE_AND_TIME ( #367, #351 ) ;
#139 = DIRECTION ( 'NONE',  ( 1.224646799147353207E-16, 1.000000000000000000, -0.000000000000000000 ) ) ;
#140 = FACE_OUTER_BOUND ( 'NONE', #263, .T. ) ;
#141 = CARTESIAN_POINT ( 'NONE',  ( 4.000000000000000000, 4.898587196589412829E-16, 0.000000000000000000 ) ) ;
#142 = CC_DESIGN_PERSON_AND_ORGANIZATION_ASSIGNMENT ( #13, #131, ( #192 ) ) ;
#143 = LOCAL_TIME ( 17, 49, 21.00000000000000000, #186 ) ;
#144 = CARTESIAN_POINT ( 'NONE',  ( 0.000000000000000000, 0.000000000000000000, 353.0000000000000000 ) ) ;
#145 = DIRECTION ( 'NONE',  ( -0.000000000000000000, -0.000000000000000000, -1.000000000000000000 ) ) ;
#146 = DIRECTION ( 'NONE',  ( 0.000000000000000000, 0.000000000000000000, 1.000000000000000000 ) ) ;
#147 = AXIS2_PLACEMENT_3D ( 'NONE', #6, #208, #233 ) ;
#148 = COORDINATED_UNIVERSAL_TIME_OFFSET ( 1, 0, .AHEAD. ) ;
#149 = CARTESIAN_POINT ( 'NONE',  ( 1.100000000000000089, 1.347111479062088503E-16, 0.000000000000000000 ) ) ;
#150 = CC_DESIGN_PERSON_AND_ORGANIZATION_ASSIGNMENT ( #276, #165, ( #192 ) ) ;
#151 = VERTEX_POINT ( 'NONE', #109 ) ;
#152 = AXIS2_PLACEMENT_3D ( 'NONE', #377, #325, #322 ) ;
#153 = DIRECTION ( 'NONE',  ( -0.000000000000000000, -0.000000000000000000, -1.000000000000000000 ) ) ;
#154 = ORIENTED_EDGE ( 'NONE', *, *, #127, .F. ) ;
#155 = CARTESIAN_POINT ( 'NONE',  ( 0.000000000000000000, 0.000000000000000000, 0.000000000000000000 ) ) ;
#156 = ORIENTED_EDGE ( 'NONE', *, *, #5, .F. ) ;
#157 = CIRCLE ( 'NONE', #132, 0.2999999999999999334 ) ;
#158 = CIRCLE ( 'NONE', #283, 2.299999999999999822 ) ;
#159 = CLOSED_SHELL ( 'NONE', ( #179, #266, #44, #350, #88, #70, #194, #170, #63, #277, #308 ) ) ;
#160 = EDGE_LOOP ( 'NONE', ( #72, #122, #95, #348 ) ) ;
#161 = LOCAL_TIME ( 17, 49, 21.00000000000000000, #148 ) ;
#162 = PLANE ( 'NONE',  #246 ) ;
#163 = CARTESIAN_POINT ( 'NONE',  ( 0.000000000000000000, 0.000000000000000000, 3.000000000000000000 ) ) ;
#164 = CC_DESIGN_PERSON_AND_ORGANIZATION_ASSIGNMENT ( #355, #89, ( #3 ) ) ;
#165 = PERSON_AND_ORGANIZATION_ROLE ( 'creator' ) ;
#166 = EDGE_LOOP ( 'NONE', ( #329, #214, #61, #362 ) ) ;
#167 = DATE_AND_TIME ( #286, #143 ) ;
#168 = DIRECTION ( 'NONE',  ( -0.000000000000000000, -0.000000000000000000, -1.000000000000000000 ) ) ;
#169 = DIRECTION ( 'NONE',  ( 1.000000000000000000, 0.000000000000000000, 0.000000000000000000 ) ) ;
#170 = ADVANCED_FACE ( 'NONE', ( #81 ), #55, .T. ) ;
#171 = CARTESIAN_POINT ( 'NONE',  ( 0.000000000000000000, 0.000000000000000000, 3.300000000000025135 ) ) ;
#172 = AXIS2_PLACEMENT_3D ( 'NONE', #116, #265, #317 ) ;
#173 = VECTOR ( 'NONE', #345, 1000.000000000000000 ) ;
#174 = CARTESIAN_POINT ( 'NONE',  ( 0.000000000000000000, 0.000000000000000000, 353.0000000000000000 ) ) ;
#175 = DIRECTION ( 'NONE',  ( -1.000000000000000000, 0.000000000000000000, 0.000000000000000000 ) ) ;
#176 = ORIENTED_EDGE ( 'NONE', *, *, #51, .F. ) ;
#177 = PLANE ( 'NONE',  #98 ) ;
#178 = CARTESIAN_POINT ( 'NONE',  ( 0.000000000000000000, 0.000000000000000000, 3.000000000000000000 ) ) ;
#179 = ADVANCED_FACE ( 'NONE', ( #140 ), #352, .F. ) ;
#180 = ORIENTED_EDGE ( 'NONE', *, *, #220, .T. ) ;
#181 = DIRECTION ( 'NONE',  ( -0.000000000000000000, -0.000000000000000000, -1.000000000000000000 ) ) ;
#182 = VECTOR ( 'NONE', #196, 1000.000000000000000 ) ;
#183 = EDGE_LOOP ( 'NONE', ( #187, #226, #48, #66 ) ) ;
#184 = APPROVAL ( #310, 'NEURÈENÝ' ) ;
#185 = EDGE_LOOP ( 'NONE', ( #237, #234, #75, #154 ) ) ;
#186 = COORDINATED_UNIVERSAL_TIME_OFFSET ( 1, 0, .AHEAD. ) ;
#187 = ORIENTED_EDGE ( 'NONE', *, *, #215, .F. ) ;
#188 = FACE_OUTER_BOUND ( 'NONE', #323, .T. ) ;
#189 = PERSON_AND_ORGANIZATION_ROLE ( 'classification_officer' ) ;
#190 = CARTESIAN_POINT ( 'NONE',  ( 2.000000000000000000, 2.449293598294706414E-16, 353.0000000000000000 ) ) ;
#191 = DIRECTION ( 'NONE',  ( 1.000000000000000000, 0.000000000000000000, 0.000000000000000000 ) ) ;
#192 = PRODUCT_DEFINITION_FORMATION_WITH_SPECIFIED_SOURCE ( 'LIBOVOLNÝ', '', #3, .NOT_KNOWN. ) ;
#193 = PLANE ( 'NONE',  #32 ) ;
#194 = ADVANCED_FACE ( 'NONE', ( #201, #229 ), #177, .F. ) ;
#195 = DIRECTION ( 'NONE',  ( 0.000000000000000000, 0.000000000000000000, 1.000000000000000000 ) ) ;
#196 = DIRECTION ( 'NONE',  ( -0.000000000000000000, -0.000000000000000000, -1.000000000000000000 ) ) ;
#197 = TOROIDAL_SURFACE ( 'NONE', #349, 2.299999999999999822, 0.2999999999999999889 ) ;
#198 = CARTESIAN_POINT ( 'NONE',  ( 0.000000000000000000, 0.000000000000000000, 0.000000000000000000 ) ) ;
#199 = CC_DESIGN_APPROVAL ( #253, ( #192 ) ) ;
#200 = VERTEX_POINT ( 'NONE', #107 ) ;
#201 = FACE_BOUND ( 'NONE', #216, .T. ) ;
#202 = ORIENTED_EDGE ( 'NONE', *, *, #313, .T. ) ;
#203 = DIRECTION ( 'NONE',  ( -0.000000000000000000, -0.000000000000000000, -1.000000000000000000 ) ) ;
#204 = CIRCLE ( 'NONE', #19, 0.2999999999999999334 ) ;
#205 = CIRCLE ( 'NONE', #212, 1.100000000000000089 ) ;
#206 = CC_DESIGN_DATE_AND_TIME_ASSIGNMENT ( #62, #46, ( #344 ) ) ;
#207 = CALENDAR_DATE ( 2022, 8, 7 ) ;
#208 = DIRECTION ( 'NONE',  ( 0.000000000000000000, 0.000000000000000000, 1.000000000000000000 ) ) ;
#209 = VERTEX_POINT ( 'NONE', #227 ) ;
#210 = AXIS2_PLACEMENT_3D ( 'NONE', #144, #375, #175 ) ;
#211 = VERTEX_POINT ( 'NONE', #141 ) ;
#212 = AXIS2_PLACEMENT_3D ( 'NONE', #92, #331, #268 ) ;
#213 = CARTESIAN_POINT ( 'NONE',  ( 0.000000000000000000, 0.000000000000000000, 353.0000000000000000 ) ) ;
#214 = ORIENTED_EDGE ( 'NONE', *, *, #224, .F. ) ;
#215 = EDGE_CURVE ( 'NONE', #353, #338, #26, .T. ) ;
#216 = EDGE_LOOP ( 'NONE', ( #309, #93 ) ) ;
#217 = APPLICATION_CONTEXT ( 'configuration controlled 3d designs of mechanical parts and assemblies' ) ;
#218 = DIRECTION ( 'NONE',  ( -1.000000000000000000, 0.000000000000000000, 0.000000000000000000 ) ) ;
#219 = DIRECTION ( 'NONE',  ( 0.000000000000000000, 0.000000000000000000, 1.000000000000000000 ) ) ;
#220 = EDGE_CURVE ( 'NONE', #228, #49, #264, .T. ) ;
#221 = TOROIDAL_SURFACE ( 'NONE', #35, 2.299999999999999822, 0.2999999999999999889 ) ;
#222 = DIRECTION ( 'NONE',  ( 1.000000000000000000, 0.000000000000000000, 0.000000000000000000 ) ) ;
#223 = CARTESIAN_POINT ( 'NONE',  ( -2.000000000000000000, 0.000000000000000000, 353.0000000000000000 ) ) ;
#224 = EDGE_CURVE ( 'NONE', #272, #68, #100, .T. ) ;
#225 = LINE ( 'NONE', #24, #295 ) ;
#226 = ORIENTED_EDGE ( 'NONE', *, *, #357, .T. ) ;
#227 = CARTESIAN_POINT ( 'NONE',  ( 2.000000000000000000, 2.449293598294706414E-16, 3.300000000000025135 ) ) ;
#228 = VERTEX_POINT ( 'NONE', #347 ) ;
#229 = FACE_OUTER_BOUND ( 'NONE', #10, .T. ) ;
#230 = DIRECTION ( 'NONE',  ( 1.000000000000000000, 0.000000000000000000, 0.000000000000000000 ) ) ;
#231 = EDGE_CURVE ( 'NONE', #272, #96, #18, .T. ) ;
#232 = DATE_AND_TIME ( #267, #161 ) ;
#233 = DIRECTION ( 'NONE',  ( 1.000000000000000000, 0.000000000000000000, 0.000000000000000000 ) ) ;
#234 = ORIENTED_EDGE ( 'NONE', *, *, #51, .T. ) ;
#235 = EDGE_CURVE ( 'NONE', #11, #38, #249, .T. ) ;
#236 = PERSON_AND_ORGANIZATION ( #23, #102 ) ;
#237 = ORIENTED_EDGE ( 'NONE', *, *, #245, .F. ) ;
#238 = AXIS2_PLACEMENT_3D ( 'NONE', #213, #168, #242 ) ;
#239 = DIRECTION ( 'NONE',  ( 0.000000000000000000, 0.000000000000000000, 1.000000000000000000 ) ) ;
#240 = ORIENTED_EDGE ( 'NONE', *, *, #376, .F. ) ;
#241 = VECTOR ( 'NONE', #299, 1000.000000000000000 ) ;
#242 = DIRECTION ( 'NONE',  ( -1.000000000000000000, 0.000000000000000000, 0.000000000000000000 ) ) ;
#243 = APPROVAL_ROLE ( '' ) ;
#244 = CARTESIAN_POINT ( 'NONE',  ( 0.000000000000000000, 0.000000000000000000, 3.300000000000025135 ) ) ;
#245 = EDGE_CURVE ( 'NONE', #96, #209, #135, .T. ) ;
#246 = AXIS2_PLACEMENT_3D ( 'NONE', #128, #15, #103 ) ;
#247 = SECURITY_CLASSIFICATION_LEVEL ( 'unclassified' ) ;
#248 = FACE_OUTER_BOUND ( 'NONE', #54, .T. ) ;
#249 = CIRCLE ( 'NONE', #152, 2.299999999999999822 ) ;
#250 = CC_DESIGN_APPROVAL ( #184, ( #37 ) ) ;
#251 = PERSON_AND_ORGANIZATION ( #23, #102 ) ;
#252 = CARTESIAN_POINT ( 'NONE',  ( 2.299999999999999822, 0.000000000000000000, 3.000000000000012434 ) ) ;
#253 = APPROVAL ( #373, 'NEURÈENÝ' ) ;
#254 = CARTESIAN_POINT ( 'NONE',  ( 0.000000000000000000, 0.000000000000000000, 3.000000000000000000 ) ) ;
#255 = AXIS2_PLACEMENT_3D ( 'NONE', #280, #374, #341 ) ;
#256 = DIRECTION ( 'NONE',  ( 0.000000000000000000, 0.000000000000000000, -1.000000000000000000 ) ) ;
#257 = CC_DESIGN_APPROVAL ( #333, ( #344 ) ) ;
#258 = DIRECTION ( 'NONE',  ( 0.000000000000000000, 0.000000000000000000, 1.000000000000000000 ) ) ;
#259 = DIRECTION ( 'NONE',  ( 0.000000000000000000, 0.000000000000000000, 1.000000000000000000 ) ) ;
#260 = PRODUCT_DEFINITION_SHAPE ( 'NONE', 'NONE',  #344 ) ;
#261 = DIRECTION ( 'NONE',  ( 1.000000000000000000, 0.000000000000000000, 0.000000000000000000 ) ) ;
#262 = MANIFOLD_SOLID_BREP ( 'Odebrat vysunutím3', #159 ) ;
#263 = EDGE_LOOP ( 'NONE', ( #34, #84, #285, #301 ) ) ;
#264 = CIRCLE ( 'NONE', #269, 4.000000000000000000 ) ;
#265 = DIRECTION ( 'NONE',  ( -0.000000000000000000, -0.000000000000000000, -1.000000000000000000 ) ) ;
#266 = ADVANCED_FACE ( 'NONE', ( #289 ), #197, .F. ) ;
#267 = CALENDAR_DATE ( 2022, 8, 7 ) ;
#268 = DIRECTION ( 'NONE',  ( 1.000000000000000000, 0.000000000000000000, 0.000000000000000000 ) ) ;
#269 = AXIS2_PLACEMENT_3D ( 'NONE', #50, #146, #85 ) ;
#270 = DIRECTION ( 'NONE',  ( 1.000000000000000000, 0.000000000000000000, 0.000000000000000000 ) ) ;
#271 = ORIENTED_EDGE ( 'NONE', *, *, #127, .T. ) ;
#272 = VERTEX_POINT ( 'NONE', #223 ) ;
#273 = PERSON_AND_ORGANIZATION ( #23, #102 ) ;
#274 = ORIENTED_EDGE ( 'NONE', *, *, #235, .T. ) ;
#275 = CIRCLE ( 'NONE', #106, 1.100000000000000089 ) ;
#276 = PERSON_AND_ORGANIZATION ( #23, #102 ) ;
#277 = ADVANCED_FACE ( 'NONE', ( #79 ), #221, .F. ) ;
#278 = CYLINDRICAL_SURFACE ( 'NONE', #80, 4.000000000000000000 ) ;
#279 = DATE_AND_TIME ( #40, #363 ) ;
#280 = CARTESIAN_POINT ( 'NONE',  ( 0.000000000000000000, 0.000000000000000000, 0.000000000000000000 ) ) ;
#281 = AXIS2_PLACEMENT_3D ( 'NONE', #76, #316, #169 ) ;
#282 = CIRCLE ( 'NONE', #255, 1.100000000000000089 ) ;
#283 = AXIS2_PLACEMENT_3D ( 'NONE', #372, #315, #136 ) ;
#284 = COORDINATED_UNIVERSAL_TIME_OFFSET ( 1, 0, .AHEAD. ) ;
#285 = ORIENTED_EDGE ( 'NONE', *, *, #97, .T. ) ;
#286 = CALENDAR_DATE ( 2022, 8, 7 ) ;
#287 = CARTESIAN_POINT ( 'NONE',  ( -2.299999999999999822, 2.816687638038912056E-16, 3.300000000000025135 ) ) ;
#288 = LINE ( 'NONE', #14, #105 ) ;
#289 = FACE_OUTER_BOUND ( 'NONE', #185, .T. ) ;
#290 = DIRECTION ( 'NONE',  ( 0.000000000000000000, 0.000000000000000000, -1.000000000000000000 ) ) ;
#291 = PRODUCT_RELATED_PRODUCT_CATEGORY ( 'detail', '', ( #3 ) ) ;
#292 = CARTESIAN_POINT ( 'NONE',  ( 0.000000000000000000, 0.000000000000000000, 3.300000000000025135 ) ) ;
#293 = ORIENTED_EDGE ( 'NONE', *, *, #231, .F. ) ;
#294 = DIRECTION ( 'NONE',  ( 0.000000000000000000, -1.000000000000000000, 0.000000000000000000 ) ) ;
#295 = VECTOR ( 'NONE', #145, 1000.000000000000000 ) ;
#296 = FACE_OUTER_BOUND ( 'NONE', #82, .T. ) ;
#297 = DIRECTION ( 'NONE',  ( -1.000000000000000000, 0.000000000000000000, 0.000000000000000000 ) ) ;
#298 = DESIGN_CONTEXT ( 'detailed design', #217, 'design' ) ;
#299 = DIRECTION ( 'NONE',  ( 0.000000000000000000, 0.000000000000000000, -1.000000000000000000 ) ) ;
#300 = EDGE_CURVE ( 'NONE', #49, #359, #78, .T. ) ;
#301 = ORIENTED_EDGE ( 'NONE', *, *, #366, .F. ) ;
#302 = CARTESIAN_POINT ( 'NONE',  ( 1.100000000000000089, 1.347111479062088503E-16, 353.0000000000000000 ) ) ;
#303 = ORIENTED_EDGE ( 'NONE', *, *, #119, .T. ) ;
#304 = ADVANCED_BREP_SHAPE_REPRESENTATION ( '6227', ( #262, #336 ), #27 ) ;
#305 = CARTESIAN_POINT ( 'NONE',  ( -4.000000000000000000, 0.000000000000000000, 0.000000000000000000 ) ) ;
#306 = ORIENTED_EDGE ( 'NONE', *, *, #224, .T. ) ;
#307 = ORIENTED_EDGE ( 'NONE', *, *, #235, .F. ) ;
#308 = ADVANCED_FACE ( 'NONE', ( #319 ), #111, .F. ) ;
#309 = ORIENTED_EDGE ( 'NONE', *, *, #318, .F. ) ;
#310 = APPROVAL_STATUS ( 'not_yet_approved' ) ;
#311 = CARTESIAN_POINT ( 'NONE',  ( -2.000000000000000000, 0.000000000000000000, 3.300000000000025135 ) ) ;
#312 = FACE_BOUND ( 'NONE', #41, .T. ) ;
#313 = EDGE_CURVE ( 'NONE', #228, #211, #225, .T. ) ;
#314 = AXIS2_PLACEMENT_3D ( 'NONE', #163, #16, #365 ) ;
#315 = DIRECTION ( 'NONE',  ( -0.000000000000000000, -0.000000000000000000, -1.000000000000000000 ) ) ;
#316 = DIRECTION ( 'NONE',  ( 0.000000000000000000, 0.000000000000000000, 1.000000000000000000 ) ) ;
#317 = DIRECTION ( 'NONE',  ( -1.000000000000000000, 0.000000000000000000, 0.000000000000000000 ) ) ;
#318 = EDGE_CURVE ( 'NONE', #151, #338, #275, .T. ) ;
#319 = FACE_OUTER_BOUND ( 'NONE', #183, .T. ) ;
#320 = VECTOR ( 'NONE', #203, 1000.000000000000000 ) ;
#321 = APPROVAL_PERSON_ORGANIZATION ( #236, #333, #59 ) ;
#322 = DIRECTION ( 'NONE',  ( 1.000000000000000000, 0.000000000000000000, 0.000000000000000000 ) ) ;
#323 = EDGE_LOOP ( 'NONE', ( #306, #124 ) ) ;
#324 = DIRECTION ( 'NONE',  ( 0.000000000000000000, 0.000000000000000000, 1.000000000000000000 ) ) ;
#325 = DIRECTION ( 'NONE',  ( -0.000000000000000000, -0.000000000000000000, -1.000000000000000000 ) ) ;
#326 = AXIS2_PLACEMENT_3D ( 'NONE', #244, #219, #191 ) ;
#327 = COORDINATED_UNIVERSAL_TIME_OFFSET ( 1, 0, .AHEAD. ) ;
#328 = PERSON_AND_ORGANIZATION ( #23, #102 ) ;
#329 = ORIENTED_EDGE ( 'NONE', *, *, #119, .F. ) ;
#330 = DIRECTION ( 'NONE',  ( 1.000000000000000000, 0.000000000000000000, 0.000000000000000000 ) ) ;
#331 = DIRECTION ( 'NONE',  ( 0.000000000000000000, 0.000000000000000000, 1.000000000000000000 ) ) ;
#332 = ORIENTED_EDGE ( 'NONE', *, *, #379, .F. ) ;
#333 = APPROVAL ( #67, 'NEURÈENÝ' ) ;
#334 = DIRECTION ( 'NONE',  ( 0.000000000000000000, 0.000000000000000000, 1.000000000000000000 ) ) ;
#335 = DIRECTION ( 'NONE',  ( -1.000000000000000000, 1.224646799147353207E-16, 0.000000000000000000 ) ) ;
#336 = AXIS2_PLACEMENT_3D ( 'NONE', #155, #358, #330 ) ;
#337 = EDGE_CURVE ( 'NONE', #200, #353, #2, .T. ) ;
#338 = VERTEX_POINT ( 'NONE', #149 ) ;
#339 = PERSON_AND_ORGANIZATION ( #23, #102 ) ;
#340 = CARTESIAN_POINT ( 'NONE',  ( -4.000000000000000000, 0.000000000000000000, 3.000000000000000000 ) ) ;
#341 = DIRECTION ( 'NONE',  ( 1.000000000000000000, 0.000000000000000000, 0.000000000000000000 ) ) ;
#342 = AXIS2_PLACEMENT_3D ( 'NONE', #52, #258, #261 ) ;
#343 = CC_DESIGN_SECURITY_CLASSIFICATION ( #37, ( #192 ) ) ;
#344 = PRODUCT_DEFINITION ( 'NEZNÁMÝ', '', #192, #298 ) ;
#345 = DIRECTION ( 'NONE',  ( 0.000000000000000000, 0.000000000000000000, -1.000000000000000000 ) ) ;
#346 = CIRCLE ( 'NONE', #326, 2.000000000000000000 ) ;
#347 = CARTESIAN_POINT ( 'NONE',  ( 4.000000000000000000, 4.898587196589412829E-16, 3.000000000000000000 ) ) ;
#348 = ORIENTED_EDGE ( 'NONE', *, *, #110, .T. ) ;
#349 = AXIS2_PLACEMENT_3D ( 'NONE', #292, #324, #380 ) ;
#350 = ADVANCED_FACE ( 'NONE', ( #296 ), #65, .T. ) ;
#351 = LOCAL_TIME ( 17, 49, 21.00000000000000000, #284 ) ;
#352 = CYLINDRICAL_SURFACE ( 'NONE', #210, 1.100000000000000089 ) ;
#353 = VERTEX_POINT ( 'NONE', #302 ) ;
#354 = CARTESIAN_POINT ( 'NONE',  ( 1.100000000000000089, 1.347111479062088503E-16, 353.0000000000000000 ) ) ;
#355 = PERSON_AND_ORGANIZATION ( #23, #102 ) ;
#356 = APPROVAL_DATE_TIME ( #232, #333 ) ;
#357 = EDGE_CURVE ( 'NONE', #353, #200, #205, .T. ) ;
#358 = DIRECTION ( 'NONE',  ( 0.000000000000000000, 0.000000000000000000, 1.000000000000000000 ) ) ;
#359 = VERTEX_POINT ( 'NONE', #305 ) ;
#360 = APPLICATION_CONTEXT ( 'configuration controlled 3d designs of mechanical parts and assemblies' ) ;
#361 = CC_DESIGN_DATE_AND_TIME_ASSIGNMENT ( #138, #71, ( #37 ) ) ;
#362 = ORIENTED_EDGE ( 'NONE', *, *, #245, .T. ) ;
#363 = LOCAL_TIME ( 17, 49, 21.00000000000000000, #74 ) ;
#364 = CARTESIAN_POINT ( 'NONE',  ( 2.299999999999999822, 0.000000000000000000, 3.300000000000025135 ) ) ;
#365 = DIRECTION ( 'NONE',  ( 1.000000000000000000, 0.000000000000000000, 0.000000000000000000 ) ) ;
#366 = EDGE_CURVE ( 'NONE', #200, #151, #60, .T. ) ;
#367 = CALENDAR_DATE ( 2022, 8, 7 ) ;
#368 = DIRECTION ( 'NONE',  ( 1.000000000000000000, 0.000000000000000000, -0.000000000000000000 ) ) ;
#369 = AXIS2_PLACEMENT_3D ( 'NONE', #171, #56, #222 ) ;
#370 = CIRCLE ( 'NONE', #115, 4.000000000000000000 ) ;
#371 = APPROVAL_ROLE ( '' ) ;
#372 = CARTESIAN_POINT ( 'NONE',  ( 0.000000000000000000, 0.000000000000000000, 3.000000000000000000 ) ) ;
#373 = APPROVAL_STATUS ( 'not_yet_approved' ) ;
#374 = DIRECTION ( 'NONE',  ( -0.000000000000000000, -0.000000000000000000, -1.000000000000000000 ) ) ;
#375 = DIRECTION ( 'NONE',  ( 0.000000000000000000, 0.000000000000000000, -1.000000000000000000 ) ) ;
#376 = EDGE_CURVE ( 'NONE', #211, #359, #370, .T. ) ;
#377 = CARTESIAN_POINT ( 'NONE',  ( 0.000000000000000000, 0.000000000000000000, 3.000000000000000000 ) ) ;
#378 = CARTESIAN_POINT ( 'NONE',  ( -4.000000000000000000, 0.000000000000000000, 3.000000000000000000 ) ) ;
#379 = EDGE_CURVE ( 'NONE', #68, #272, #137, .T. ) ;
#380 = DIRECTION ( 'NONE',  ( 1.000000000000000000, 0.000000000000000000, 0.000000000000000000 ) ) ;
#381 = EDGE_LOOP ( 'NONE', ( #176, #156, #271, #307 ) ) ;
ENDSEC;
END-ISO-10303-21;
