ISO-10303-21;
HEADER;
FILE_DESCRIPTION (( 'STEP AP203' ),
    '1' );
FILE_NAME ('f194.STEP',
    '2022-07-08T15:08:03',
    ( '' ),
    ( '' ),
    'SwSTEP 2.0',
    'SolidWorks 2019',
    '' );
FILE_SCHEMA (( 'CONFIG_CONTROL_DESIGN' ));
ENDSEC;

DATA;
#1 = FACE_OUTER_BOUND ( 'NONE', #239, .T. ) ;
#2 = UNCERTAINTY_MEASURE_WITH_UNIT (LENGTH_MEASURE( 1.000000000000000082E-05 ), #3, 'distance_accuracy_value', 'NONE');
#3 =( LENGTH_UNIT ( ) NAMED_UNIT ( * ) SI_UNIT ( .MILLI., .METRE. ) );
#4 = EDGE_CURVE ( 'NONE', #172, #173, #61, .T. ) ;
#5 = CARTESIAN_POINT ( 'NONE',  ( 0.000000000000000000, 0.000000000000000000, 455.0000000000000000 ) ) ;
#6 = ORIENTED_EDGE ( 'NONE', *, *, #15, .F. ) ;
#7 = PERSON_AND_ORGANIZATION ( #12, #161 ) ;
#8 = CARTESIAN_POINT ( 'NONE',  ( 0.000000000000000000, 0.000000000000000000, 455.0000000000000000 ) ) ;
#9 = CALENDAR_DATE ( 2022, 8, 7 ) ;
#10 = CIRCLE ( 'NONE', #209, 0.5000000000000004441 ) ;
#11 = DIRECTION ( 'NONE',  ( 0.000000000000000000, 0.000000000000000000, 1.000000000000000000 ) ) ;
#12 = PERSON ( 'NEURÈENÝ', 'NEURÈENÝ', 'NEURÈENÝ', ('NEURÈENÝ'), ('NEURÈENÝ'), ('NEURÈENÝ') ) ;
#13 = DATE_AND_TIME ( #362, #44 ) ;
#14 = CARTESIAN_POINT ( 'NONE',  ( 4.000000000000000000, 4.898587196589412829E-16, 455.0000000000000000 ) ) ;
#15 = EDGE_CURVE ( 'NONE', #257, #67, #10, .T. ) ;
#16 = DIRECTION ( 'NONE',  ( 1.000000000000000000, 0.000000000000000000, 0.000000000000000000 ) ) ;
#17 = CIRCLE ( 'NONE', #232, 2.600000000000000089 ) ;
#18 = ADVANCED_FACE ( 'NONE', ( #1 ), #179, .T. ) ;
#19 = PERSON_AND_ORGANIZATION ( #12, #161 ) ;
#20 = CYLINDRICAL_SURFACE ( 'NONE', #285, 2.600000000000000089 ) ;
#21 = DIRECTION ( 'NONE',  ( -0.000000000000000000, -0.000000000000000000, -1.000000000000000000 ) ) ;
#22 = ADVANCED_FACE ( 'NONE', ( #153 ), #73, .F. ) ;
#23 = ORIENTED_EDGE ( 'NONE', *, *, #116, .F. ) ;
#24 = APPROVAL ( #93, 'NEURÈENÝ' ) ;
#25 = FACE_OUTER_BOUND ( 'NONE', #289, .T. ) ;
#26 = TOROIDAL_SURFACE ( 'NONE', #234, 4.500000000000000888, 0.5000000000000000000 ) ;
#27 = ORIENTED_EDGE ( 'NONE', *, *, #92, .T. ) ;
#28 = CARTESIAN_POINT ( 'NONE',  ( 4.000000000000000000, 4.898587196589412829E-16, 455.0000000000000000 ) ) ;
#29 = EDGE_LOOP ( 'NONE', ( #243, #194 ) ) ;
#30 = CARTESIAN_POINT ( 'NONE',  ( -2.600000000000000089, 0.000000000000000000, 0.000000000000000000 ) ) ;
#31 = AXIS2_PLACEMENT_3D ( 'NONE', #325, #58, #197 ) ;
#32 = ORIENTED_EDGE ( 'NONE', *, *, #180, .T. ) ;
#33 = DIRECTION ( 'NONE',  ( 0.000000000000000000, 0.000000000000000000, -1.000000000000000000 ) ) ;
#34 = CIRCLE ( 'NONE', #184, 4.500000000000000888 ) ;
#35 = CARTESIAN_POINT ( 'NONE',  ( -2.600000000000000089, 0.000000000000000000, 455.0000000000000000 ) ) ;
#36 = CC_DESIGN_APPROVAL ( #170, ( #255 ) ) ;
#37 = PERSON_AND_ORGANIZATION_ROLE ( 'design_owner' ) ;
#38 = ADVANCED_FACE ( 'NONE', ( #128 ), #100, .F. ) ;
#39 = DIRECTION ( 'NONE',  ( 1.000000000000000000, 0.000000000000000000, 0.000000000000000000 ) ) ;
#40 = DIRECTION ( 'NONE',  ( -0.000000000000000000, -0.000000000000000000, -1.000000000000000000 ) ) ;
#41 = ORIENTED_EDGE ( 'NONE', *, *, #379, .F. ) ;
#42 = AXIS2_PLACEMENT_3D ( 'NONE', #277, #159, #275 ) ;
#43 = AXIS2_PLACEMENT_3D ( 'NONE', #145, #350, #233 ) ;
#44 = LOCAL_TIME ( 17, 8, 3.000000000000000000, #279 ) ;
#45 = CARTESIAN_POINT ( 'NONE',  ( 2.600000000000000089, 3.184081677783117698E-16, 0.000000000000000000 ) ) ;
#46 = DATE_TIME_ROLE ( 'classification_date' ) ;
#47 = DIRECTION ( 'NONE',  ( 0.000000000000000000, 0.000000000000000000, 1.000000000000000000 ) ) ;
#48 = ORIENTED_EDGE ( 'NONE', *, *, #379, .T. ) ;
#49 = CC_DESIGN_PERSON_AND_ORGANIZATION_ASSIGNMENT ( #74, #78, ( #255 ) ) ;
#50 = CARTESIAN_POINT ( 'NONE',  ( -4.000000000000000000, 0.000000000000000000, 5.500000000000005329 ) ) ;
#51 = CARTESIAN_POINT ( 'NONE',  ( 0.000000000000000000, 0.000000000000000000, 0.000000000000000000 ) ) ;
#52 = CIRCLE ( 'NONE', #43, 7.000000000000000000 ) ;
#53 = DIRECTION ( 'NONE',  ( -0.000000000000000000, -0.000000000000000000, -1.000000000000000000 ) ) ;
#54 = ORIENTED_EDGE ( 'NONE', *, *, #366, .F. ) ;
#55 = ORIENTED_EDGE ( 'NONE', *, *, #92, .F. ) ;
#56 = CC_DESIGN_APPROVAL ( #24, ( #229 ) ) ;
#57 = EDGE_LOOP ( 'NONE', ( #55, #326 ) ) ;
#58 = DIRECTION ( 'NONE',  ( 0.000000000000000000, 0.000000000000000000, 1.000000000000000000 ) ) ;
#59 = PRODUCT ( 'f194', 'f194', '', ( #307 ) ) ;
#60 = ORIENTED_EDGE ( 'NONE', *, *, #245, .T. ) ;
#61 = CIRCLE ( 'NONE', #364, 4.000000000000000000 ) ;
#62 = EDGE_CURVE ( 'NONE', #320, #67, #34, .T. ) ;
#63 = DIRECTION ( 'NONE',  ( -0.000000000000000000, -0.000000000000000000, -1.000000000000000000 ) ) ;
#64 = DIRECTION ( 'NONE',  ( -0.000000000000000000, -0.000000000000000000, -1.000000000000000000 ) ) ;
#65 = LINE ( 'NONE', #262, #131 ) ;
#66 = CIRCLE ( 'NONE', #282, 2.600000000000000089 ) ;
#67 = VERTEX_POINT ( 'NONE', #363 ) ;
#68 = PERSON_AND_ORGANIZATION ( #12, #161 ) ;
#69 = CARTESIAN_POINT ( 'NONE',  ( 0.000000000000000000, 0.000000000000000000, 5.000000000000000000 ) ) ;
#70 = CIRCLE ( 'NONE', #251, 4.000000000000000000 ) ;
#71 = SHAPE_DEFINITION_REPRESENTATION ( #124, #293 ) ;
#72 = DIRECTION ( 'NONE',  ( -0.000000000000000000, -0.000000000000000000, -1.000000000000000000 ) ) ;
#73 = TOROIDAL_SURFACE ( 'NONE', #342, 4.500000000000000888, 0.5000000000000000000 ) ;
#74 = PERSON_AND_ORGANIZATION ( #12, #161 ) ;
#75 = EDGE_CURVE ( 'NONE', #160, #380, #17, .T. ) ;
#76 = CARTESIAN_POINT ( 'NONE',  ( 0.000000000000000000, 0.000000000000000000, 5.000000000000000000 ) ) ;
#77 = EDGE_LOOP ( 'NONE', ( #54, #105 ) ) ;
#78 = PERSON_AND_ORGANIZATION_ROLE ( 'design_supplier' ) ;
#79 = CARTESIAN_POINT ( 'NONE',  ( 0.000000000000000000, 0.000000000000000000, 5.500000000000005329 ) ) ;
#80 = FACE_BOUND ( 'NONE', #77, .T. ) ;
#81 = CLOSED_SHELL ( 'NONE', ( #214, #130, #359, #291, #18, #298, #149, #352, #334, #22, #38 ) ) ;
#82 = DIRECTION ( 'NONE',  ( 1.000000000000000000, 0.000000000000000000, 0.000000000000000000 ) ) ;
#83 = FACE_BOUND ( 'NONE', #29, .T. ) ;
#84 = AXIS2_PLACEMENT_3D ( 'NONE', #141, #168, #319 ) ;
#85 = FACE_BOUND ( 'NONE', #57, .T. ) ;
#86 = CARTESIAN_POINT ( 'NONE',  ( 0.000000000000000000, 0.000000000000000000, 5.000000000000000000 ) ) ;
#87 = ORIENTED_EDGE ( 'NONE', *, *, #62, .F. ) ;
#88 = DIRECTION ( 'NONE',  ( 1.000000000000000000, 0.000000000000000000, 0.000000000000000000 ) ) ;
#89 = EDGE_LOOP ( 'NONE', ( #196, #272 ) ) ;
#90 = FACE_OUTER_BOUND ( 'NONE', #330, .T. ) ;
#91 = ORIENTED_EDGE ( 'NONE', *, *, #210, .F. ) ;
#92 = EDGE_CURVE ( 'NONE', #369, #310, #66, .T. ) ;
#93 = APPROVAL_STATUS ( 'not_yet_approved' ) ;
#94 = EDGE_LOOP ( 'NONE', ( #27, #238, #258, #261 ) ) ;
#95 = DESIGN_CONTEXT ( 'detailed design', #371, 'design' ) ;
#96 = APPROVAL_ROLE ( '' ) ;
#97 = CC_DESIGN_APPROVAL ( #198, ( #175 ) ) ;
#98 = DIRECTION ( 'NONE',  ( 1.000000000000000000, 0.000000000000000000, 0.000000000000000000 ) ) ;
#99 = DATE_AND_TIME ( #123, #143 ) ;
#100 = CYLINDRICAL_SURFACE ( 'NONE', #305, 2.600000000000000089 ) ;
#101 = CARTESIAN_POINT ( 'NONE',  ( 0.000000000000000000, 0.000000000000000000, 0.000000000000000000 ) ) ;
#102 = AXIS2_PLACEMENT_3D ( 'NONE', #311, #281, #16 ) ;
#103 = CARTESIAN_POINT ( 'NONE',  ( -4.000000000000000000, 0.000000000000000000, 455.0000000000000000 ) ) ;
#104 = PLANE ( 'NONE',  #42 ) ;
#105 = ORIENTED_EDGE ( 'NONE', *, *, #75, .F. ) ;
#106 = LOCAL_TIME ( 17, 8, 3.000000000000000000, #273 ) ;
#107 = CC_DESIGN_DATE_AND_TIME_ASSIGNMENT ( #13, #46, ( #175 ) ) ;
#108 = DIRECTION ( 'NONE',  ( -1.000000000000000000, 1.224646799147351482E-16, 0.000000000000000000 ) ) ;
#109 = APPROVAL_DATE_TIME ( #283, #198 ) ;
#110 = LINE ( 'NONE', #220, #241 ) ;
#111 = EDGE_CURVE ( 'NONE', #257, #206, #336, .T. ) ;
#112 = CARTESIAN_POINT ( 'NONE',  ( 2.600000000000000089, 3.184081677783117698E-16, 455.0000000000000000 ) ) ;
#113 = ORIENTED_EDGE ( 'NONE', *, *, #111, .T. ) ;
#114 = DIRECTION ( 'NONE',  ( 0.000000000000000000, 0.000000000000000000, -1.000000000000000000 ) ) ;
#115 = VECTOR ( 'NONE', #114, 1000.000000000000000 ) ;
#116 = EDGE_CURVE ( 'NONE', #206, #257, #217, .T. ) ;
#117 = CYLINDRICAL_SURFACE ( 'NONE', #120, 4.000000000000000000 ) ;
#118 = CC_DESIGN_PERSON_AND_ORGANIZATION_ASSIGNMENT ( #370, #219, ( #255 ) ) ;
#119 = DIRECTION ( 'NONE',  ( -1.000000000000000000, 0.000000000000000000, 0.000000000000000000 ) ) ;
#120 = AXIS2_PLACEMENT_3D ( 'NONE', #357, #63, #270 ) ;
#121 = CARTESIAN_POINT ( 'NONE',  ( 0.000000000000000000, 0.000000000000000000, 0.000000000000000000 ) ) ;
#122 = CC_DESIGN_PERSON_AND_ORGANIZATION_ASSIGNMENT ( #7, #37, ( #59 ) ) ;
#123 = CALENDAR_DATE ( 2022, 8, 7 ) ;
#124 = PRODUCT_DEFINITION_SHAPE ( 'NONE', 'NONE',  #229 ) ;
#125 = DIRECTION ( 'NONE',  ( -0.000000000000000000, -0.000000000000000000, -1.000000000000000000 ) ) ;
#126 = LOCAL_TIME ( 17, 8, 3.000000000000000000, #208 ) ;
#127 = APPROVAL_DATE_TIME ( #181, #24 ) ;
#128 = FACE_OUTER_BOUND ( 'NONE', #361, .T. ) ;
#129 = DATE_AND_TIME ( #9, #106 ) ;
#130 = ADVANCED_FACE ( 'NONE', ( #246 ), #26, .F. ) ;
#131 = VECTOR ( 'NONE', #64, 1000.000000000000000 ) ;
#132 = CARTESIAN_POINT ( 'NONE',  ( 0.000000000000000000, 0.000000000000000000, 455.0000000000000000 ) ) ;
#133 = EDGE_CURVE ( 'NONE', #356, #151, #156, .T. ) ;
#134 = APPROVAL_ROLE ( '' ) ;
#135 = DIRECTION ( 'NONE',  ( 1.000000000000000000, 0.000000000000000000, 0.000000000000000000 ) ) ;
#136 = ORIENTED_EDGE ( 'NONE', *, *, #186, .T. ) ;
#137 = PRODUCT_RELATED_PRODUCT_CATEGORY ( 'detail', '', ( #59 ) ) ;
#138 = CARTESIAN_POINT ( 'NONE',  ( 0.000000000000000000, 0.000000000000000000, 5.500000000000005329 ) ) ;
#139 = AXIS2_PLACEMENT_3D ( 'NONE', #86, #348, #88 ) ;
#140 = DIRECTION ( 'NONE',  ( -0.000000000000000000, -0.000000000000000000, -1.000000000000000000 ) ) ;
#141 = CARTESIAN_POINT ( 'NONE',  ( 0.000000000000000000, 0.000000000000000000, 455.0000000000000000 ) ) ;
#142 = FACE_OUTER_BOUND ( 'NONE', #231, .T. ) ;
#143 = LOCAL_TIME ( 17, 8, 3.000000000000000000, #265 ) ;
#144 = EDGE_LOOP ( 'NONE', ( #147, #296, #113, #41 ) ) ;
#145 = CARTESIAN_POINT ( 'NONE',  ( 0.000000000000000000, 0.000000000000000000, 0.000000000000000000 ) ) ;
#146 = DIRECTION ( 'NONE',  ( 1.000000000000000000, 0.000000000000000000, 0.000000000000000000 ) ) ;
#147 = ORIENTED_EDGE ( 'NONE', *, *, #4, .F. ) ;
#148 = APPLICATION_PROTOCOL_DEFINITION ( 'international standard', 'config_control_design', 1994, #195 ) ;
#149 = ADVANCED_FACE ( 'NONE', ( #80, #343 ), #104, .F. ) ;
#150 = AXIS2_PLACEMENT_3D ( 'NONE', #377, #295, #146 ) ;
#151 = VERTEX_POINT ( 'NONE', #360 ) ;
#152 = EDGE_LOOP ( 'NONE', ( #23, #242, #91, #6 ) ) ;
#153 = FACE_OUTER_BOUND ( 'NONE', #207, .T. ) ;
#154 = DIRECTION ( 'NONE',  ( -1.000000000000000000, 0.000000000000000000, 0.000000000000000000 ) ) ;
#155 = ORIENTED_EDGE ( 'NONE', *, *, #327, .F. ) ;
#156 = CIRCLE ( 'NONE', #368, 7.000000000000000000 ) ;
#157 = CARTESIAN_POINT ( 'NONE',  ( 0.000000000000000000, 0.000000000000000000, 5.000000000000000000 ) ) ;
#158 = COORDINATED_UNIVERSAL_TIME_OFFSET ( 1, 0, .AHEAD. ) ;
#159 = DIRECTION ( 'NONE',  ( 0.000000000000000000, 0.000000000000000000, 1.000000000000000000 ) ) ;
#160 = VERTEX_POINT ( 'NONE', #45 ) ;
#161 = ORGANIZATION ( 'NEURÈENÝ', 'NEURÈENÝ', '' ) ;
#162 = DIRECTION ( 'NONE',  ( 0.000000000000000000, 0.000000000000000000, 1.000000000000000000 ) ) ;
#163 = EDGE_LOOP ( 'NONE', ( #264, #136, #365, #155 ) ) ;
#164 = AXIS2_PLACEMENT_3D ( 'NONE', #79, #250, #341 ) ;
#165 = PERSON_AND_ORGANIZATION ( #12, #161 ) ;
#166 = CARTESIAN_POINT ( 'NONE',  ( 0.000000000000000000, 0.000000000000000000, 5.000000000000000000 ) ) ;
#167 = AXIS2_PLACEMENT_3D ( 'NONE', #5, #303, #154 ) ;
#168 = DIRECTION ( 'NONE',  ( 0.000000000000000000, 0.000000000000000000, 1.000000000000000000 ) ) ;
#169 = PLANE ( 'NONE',  #31 ) ;
#170 = APPROVAL ( #216, 'NEURÈENÝ' ) ;
#171 = VECTOR ( 'NONE', #53, 1000.000000000000000 ) ;
#172 = VERTEX_POINT ( 'NONE', #14 ) ;
#173 = VERTEX_POINT ( 'NONE', #103 ) ;
#174 = FACE_OUTER_BOUND ( 'NONE', #144, .T. ) ;
#175 = SECURITY_CLASSIFICATION ( '', '', #340 ) ;
#176 = MANIFOLD_SOLID_BREP ( 'Odebrat vysunutím3', #81 ) ;
#177 = ORIENTED_EDGE ( 'NONE', *, *, #204, .T. ) ;
#178 = CC_DESIGN_PERSON_AND_ORGANIZATION_ASSIGNMENT ( #19, #313, ( #175 ) ) ;
#179 = CYLINDRICAL_SURFACE ( 'NONE', #226, 7.000000000000000000 ) ;
#180 = EDGE_CURVE ( 'NONE', #322, #349, #200, .T. ) ;
#181 = DATE_AND_TIME ( #335, #126 ) ;
#182 = DIRECTION ( 'NONE',  ( 0.000000000000000000, 0.000000000000000000, 1.000000000000000000 ) ) ;
#183 = CC_DESIGN_PERSON_AND_ORGANIZATION_ASSIGNMENT ( #355, #244, ( #229 ) ) ;
#184 = AXIS2_PLACEMENT_3D ( 'NONE', #69, #140, #187 ) ;
#185 = APPROVAL_ROLE ( '' ) ;
#186 = EDGE_CURVE ( 'NONE', #151, #349, #110, .T. ) ;
#187 = DIRECTION ( 'NONE',  ( 1.000000000000000000, 0.000000000000000000, 0.000000000000000000 ) ) ;
#188 = CARTESIAN_POINT ( 'NONE',  ( 0.000000000000000000, 0.000000000000000000, 0.000000000000000000 ) ) ;
#189 = DIRECTION ( 'NONE',  ( 0.000000000000000000, 0.000000000000000000, 1.000000000000000000 ) ) ;
#190 = DIRECTION ( 'NONE',  ( 0.000000000000000000, 0.000000000000000000, -1.000000000000000000 ) ) ;
#191 = CIRCLE ( 'NONE', #331, 0.5000000000000004441 ) ;
#192 = EDGE_CURVE ( 'NONE', #206, #320, #191, .T. ) ;
#193 = CARTESIAN_POINT ( 'NONE',  ( 7.000000000000000000, 8.572527594031473190E-16, 0.000000000000000000 ) ) ;
#194 = ORIENTED_EDGE ( 'NONE', *, *, #62, .T. ) ;
#195 = APPLICATION_CONTEXT ( 'configuration controlled 3d designs of mechanical parts and assemblies' ) ;
#196 = ORIENTED_EDGE ( 'NONE', *, *, #180, .F. ) ;
#197 = DIRECTION ( 'NONE',  ( 1.000000000000000000, 0.000000000000000000, -0.000000000000000000 ) ) ;
#198 = APPROVAL ( #276, 'NEURÈENÝ' ) ;
#199 = ORIENTED_EDGE ( 'NONE', *, *, #133, .T. ) ;
#200 = CIRCLE ( 'NONE', #318, 7.000000000000000000 ) ;
#201 = DIRECTION ( 'NONE',  ( -1.000000000000000000, 0.000000000000000000, 0.000000000000000000 ) ) ;
#202 = LOCAL_TIME ( 17, 8, 3.000000000000000000, #158 ) ;
#203 = ORIENTED_EDGE ( 'NONE', *, *, #116, .T. ) ;
#204 = EDGE_CURVE ( 'NONE', #173, #172, #70, .T. ) ;
#205 = CARTESIAN_POINT ( 'NONE',  ( 0.000000000000000000, 0.000000000000000000, 5.000000000000000000 ) ) ;
#206 = VERTEX_POINT ( 'NONE', #50 ) ;
#207 = EDGE_LOOP ( 'NONE', ( #302, #315, #332, #87 ) ) ;
#208 = COORDINATED_UNIVERSAL_TIME_OFFSET ( 1, 0, .AHEAD. ) ;
#209 = AXIS2_PLACEMENT_3D ( 'NONE', #266, #269, #33 ) ;
#210 = EDGE_CURVE ( 'NONE', #67, #320, #247, .T. ) ;
#211 = DIRECTION ( 'NONE',  ( 1.000000000000000000, 0.000000000000000000, 0.000000000000000000 ) ) ;
#212 = DIRECTION ( 'NONE',  ( -1.000000000000000000, 0.000000000000000000, 0.000000000000000000 ) ) ;
#213 = APPLICATION_PROTOCOL_DEFINITION ( 'international standard', 'config_control_design', 1994, #371 ) ;
#214 = ADVANCED_FACE ( 'NONE', ( #284 ), #20, .F. ) ;
#215 = CARTESIAN_POINT ( 'NONE',  ( 0.000000000000000000, 0.000000000000000000, 5.500000000000005329 ) ) ;
#216 = APPROVAL_STATUS ( 'not_yet_approved' ) ;
#217 = CIRCLE ( 'NONE', #102, 4.000000000000000000 ) ;
#218 = APPROVAL_PERSON_ORGANIZATION ( #333, #24, #96 ) ;
#219 = PERSON_AND_ORGANIZATION_ROLE ( 'creator' ) ;
#220 = CARTESIAN_POINT ( 'NONE',  ( 7.000000000000000000, 8.572527594031473190E-16, 5.000000000000000000 ) ) ;
#221 = DIRECTION ( 'NONE',  ( 1.000000000000000000, 0.000000000000000000, 0.000000000000000000 ) ) ;
#222 = ORIENTED_EDGE ( 'NONE', *, *, #4, .T. ) ;
#223 = VECTOR ( 'NONE', #323, 1000.000000000000000 ) ;
#224 = CARTESIAN_POINT ( 'NONE',  ( 0.000000000000000000, 0.000000000000000000, 455.0000000000000000 ) ) ;
#225 = DIRECTION ( 'NONE',  ( 1.000000000000000000, 0.000000000000000000, 0.000000000000000000 ) ) ;
#226 = AXIS2_PLACEMENT_3D ( 'NONE', #157, #274, #301 ) ;
#227 = DIRECTION ( 'NONE',  ( 0.000000000000000000, 0.000000000000000000, -1.000000000000000000 ) ) ;
#228 = ORIENTED_EDGE ( 'NONE', *, *, #346, .F. ) ;
#229 = PRODUCT_DEFINITION ( 'NEZNÁMÝ', '', #255, #95 ) ;
#230 = AXIS2_PLACEMENT_3D ( 'NONE', #121, #353, #98 ) ;
#231 = EDGE_LOOP ( 'NONE', ( #236, #297, #48, #203 ) ) ;
#232 = AXIS2_PLACEMENT_3D ( 'NONE', #51, #72, #135 ) ;
#233 = DIRECTION ( 'NONE',  ( 1.000000000000000000, 0.000000000000000000, 0.000000000000000000 ) ) ;
#234 = AXIS2_PLACEMENT_3D ( 'NONE', #138, #11, #82 ) ;
#235 = CARTESIAN_POINT ( 'NONE',  ( 2.600000000000000089, 3.184081677783117698E-16, 455.0000000000000000 ) ) ;
#236 = ORIENTED_EDGE ( 'NONE', *, *, #316, .F. ) ;
#237 = CYLINDRICAL_SURFACE ( 'NONE', #167, 4.000000000000000000 ) ;
#238 = ORIENTED_EDGE ( 'NONE', *, *, #346, .T. ) ;
#239 = EDGE_LOOP ( 'NONE', ( #263, #299, #376, #32 ) ) ;
#240 =( NAMED_UNIT ( * ) SI_UNIT ( $, .STERADIAN. ) SOLID_ANGLE_UNIT ( ) );
#241 = VECTOR ( 'NONE', #367, 1000.000000000000000 ) ;
#242 = ORIENTED_EDGE ( 'NONE', *, *, #192, .T. ) ;
#243 = ORIENTED_EDGE ( 'NONE', *, *, #210, .T. ) ;
#244 = PERSON_AND_ORGANIZATION_ROLE ( 'creator' ) ;
#245 = EDGE_CURVE ( 'NONE', #310, #369, #374, .T. ) ;
#246 = FACE_OUTER_BOUND ( 'NONE', #152, .T. ) ;
#247 = CIRCLE ( 'NONE', #254, 4.500000000000000888 ) ;
#248 = CC_DESIGN_SECURITY_CLASSIFICATION ( #175, ( #255 ) ) ;
#249 = APPROVAL_DATE_TIME ( #129, #170 ) ;
#250 = DIRECTION ( 'NONE',  ( 0.000000000000000000, 0.000000000000000000, 1.000000000000000000 ) ) ;
#251 = AXIS2_PLACEMENT_3D ( 'NONE', #224, #189, #314 ) ;
#252 = DIRECTION ( 'NONE',  ( 0.000000000000000000, 0.000000000000000000, 1.000000000000000000 ) ) ;
#253 = CYLINDRICAL_SURFACE ( 'NONE', #324, 7.000000000000000000 ) ;
#254 = AXIS2_PLACEMENT_3D ( 'NONE', #166, #40, #225 ) ;
#255 = PRODUCT_DEFINITION_FORMATION_WITH_SPECIFIED_SOURCE ( 'LIBOVOLNÝ', '', #59, .NOT_KNOWN. ) ;
#256 = PLANE ( 'NONE',  #84 ) ;
#257 = VERTEX_POINT ( 'NONE', #373 ) ;
#258 = ORIENTED_EDGE ( 'NONE', *, *, #75, .T. ) ;
#259 = EDGE_CURVE ( 'NONE', #369, #380, #287, .T. ) ;
#260 = LINE ( 'NONE', #375, #223 ) ;
#261 = ORIENTED_EDGE ( 'NONE', *, *, #259, .F. ) ;
#262 = CARTESIAN_POINT ( 'NONE',  ( -4.000000000000000000, 0.000000000000000000, 455.0000000000000000 ) ) ;
#263 = ORIENTED_EDGE ( 'NONE', *, *, #186, .F. ) ;
#264 = ORIENTED_EDGE ( 'NONE', *, *, #286, .F. ) ;
#265 = COORDINATED_UNIVERSAL_TIME_OFFSET ( 1, 0, .AHEAD. ) ;
#266 = CARTESIAN_POINT ( 'NONE',  ( 4.500000000000000888, 0.000000000000000000, 5.500000000000005329 ) ) ;
#267 = CC_DESIGN_DATE_AND_TIME_ASSIGNMENT ( #99, #328, ( #229 ) ) ;
#268 =( NAMED_UNIT ( * ) PLANE_ANGLE_UNIT ( ) SI_UNIT ( $, .RADIAN. ) );
#269 = DIRECTION ( 'NONE',  ( 0.000000000000000000, -1.000000000000000000, 0.000000000000000000 ) ) ;
#270 = DIRECTION ( 'NONE',  ( -1.000000000000000000, 0.000000000000000000, 0.000000000000000000 ) ) ;
#271 = APPROVAL_PERSON_ORGANIZATION ( #68, #170, #185 ) ;
#272 = ORIENTED_EDGE ( 'NONE', *, *, #278, .F. ) ;
#273 = COORDINATED_UNIVERSAL_TIME_OFFSET ( 1, 0, .AHEAD. ) ;
#274 = DIRECTION ( 'NONE',  ( -0.000000000000000000, -0.000000000000000000, -1.000000000000000000 ) ) ;
#275 = DIRECTION ( 'NONE',  ( 1.000000000000000000, 0.000000000000000000, -0.000000000000000000 ) ) ;
#276 = APPROVAL_STATUS ( 'not_yet_approved' ) ;
#277 = CARTESIAN_POINT ( 'NONE',  ( 0.000000000000000000, 0.000000000000000000, 0.000000000000000000 ) ) ;
#278 = EDGE_CURVE ( 'NONE', #349, #322, #52, .T. ) ;
#279 = COORDINATED_UNIVERSAL_TIME_OFFSET ( 1, 0, .AHEAD. ) ;
#280 = DIRECTION ( 'NONE',  ( 1.000000000000000000, 0.000000000000000000, 0.000000000000000000 ) ) ;
#281 = DIRECTION ( 'NONE',  ( 0.000000000000000000, 0.000000000000000000, 1.000000000000000000 ) ) ;
#282 = AXIS2_PLACEMENT_3D ( 'NONE', #132, #47, #221 ) ;
#283 = DATE_AND_TIME ( #338, #202 ) ;
#284 = FACE_OUTER_BOUND ( 'NONE', #94, .T. ) ;
#285 = AXIS2_PLACEMENT_3D ( 'NONE', #345, #190, #119 ) ;
#286 = EDGE_CURVE ( 'NONE', #151, #356, #308, .T. ) ;
#287 = LINE ( 'NONE', #347, #115 ) ;
#288 = FACE_OUTER_BOUND ( 'NONE', #163, .T. ) ;
#289 = EDGE_LOOP ( 'NONE', ( #177, #222 ) ) ;
#290 = LINE ( 'NONE', #28, #171 ) ;
#291 = ADVANCED_FACE ( 'NONE', ( #288 ), #253, .T. ) ;
#292 = VECTOR ( 'NONE', #227, 1000.000000000000000 ) ;
#293 = ADVANCED_BREP_SHAPE_REPRESENTATION ( 'f194', ( #176, #230 ), #344 ) ;
#294 = APPROVAL_PERSON_ORGANIZATION ( #165, #198, #134 ) ;
#295 = DIRECTION ( 'NONE',  ( 0.000000000000000000, 0.000000000000000000, 1.000000000000000000 ) ) ;
#296 = ORIENTED_EDGE ( 'NONE', *, *, #316, .T. ) ;
#297 = ORIENTED_EDGE ( 'NONE', *, *, #204, .F. ) ;
#298 = ADVANCED_FACE ( 'NONE', ( #83, #90 ), #169, .T. ) ;
#299 = ORIENTED_EDGE ( 'NONE', *, *, #133, .F. ) ;
#300 = AXIS2_PLACEMENT_3D ( 'NONE', #101, #125, #211 ) ;
#301 = DIRECTION ( 'NONE',  ( -1.000000000000000000, 0.000000000000000000, 0.000000000000000000 ) ) ;
#302 = ORIENTED_EDGE ( 'NONE', *, *, #192, .F. ) ;
#303 = DIRECTION ( 'NONE',  ( -0.000000000000000000, -0.000000000000000000, -1.000000000000000000 ) ) ;
#304 = CARTESIAN_POINT ( 'NONE',  ( -7.000000000000000000, 0.000000000000000000, 5.000000000000000000 ) ) ;
#305 = AXIS2_PLACEMENT_3D ( 'NONE', #337, #358, #212 ) ;
#306 = DIRECTION ( 'NONE',  ( 1.000000000000000000, 0.000000000000000000, 0.000000000000000000 ) ) ;
#307 = MECHANICAL_CONTEXT ( 'NONE', #195, 'mechanical' ) ;
#308 = CIRCLE ( 'NONE', #139, 7.000000000000000000 ) ;
#309 = DIRECTION ( 'NONE',  ( 1.224646799147353207E-16, 1.000000000000000000, -0.000000000000000000 ) ) ;
#310 = VERTEX_POINT ( 'NONE', #235 ) ;
#311 = CARTESIAN_POINT ( 'NONE',  ( 0.000000000000000000, 0.000000000000000000, 5.500000000000005329 ) ) ;
#312 = ORIENTED_EDGE ( 'NONE', *, *, #259, .T. ) ;
#313 = PERSON_AND_ORGANIZATION_ROLE ( 'classification_officer' ) ;
#314 = DIRECTION ( 'NONE',  ( 1.000000000000000000, 0.000000000000000000, 0.000000000000000000 ) ) ;
#315 = ORIENTED_EDGE ( 'NONE', *, *, #111, .F. ) ;
#316 = EDGE_CURVE ( 'NONE', #172, #257, #290, .T. ) ;
#317 = DIRECTION ( 'NONE',  ( 1.000000000000000000, 0.000000000000000000, 0.000000000000000000 ) ) ;
#318 = AXIS2_PLACEMENT_3D ( 'NONE', #188, #162, #280 ) ;
#319 = DIRECTION ( 'NONE',  ( 1.000000000000000000, 0.000000000000000000, -0.000000000000000000 ) ) ;
#320 = VERTEX_POINT ( 'NONE', #378 ) ;
#321 = CARTESIAN_POINT ( 'NONE',  ( -7.000000000000000000, 0.000000000000000000, 0.000000000000000000 ) ) ;
#322 = VERTEX_POINT ( 'NONE', #321 ) ;
#323 = DIRECTION ( 'NONE',  ( -0.000000000000000000, -0.000000000000000000, -1.000000000000000000 ) ) ;
#324 = AXIS2_PLACEMENT_3D ( 'NONE', #205, #21, #201 ) ;
#325 = CARTESIAN_POINT ( 'NONE',  ( 0.000000000000000000, 0.000000000000000000, 5.000000000000000000 ) ) ;
#326 = ORIENTED_EDGE ( 'NONE', *, *, #245, .F. ) ;
#327 = EDGE_CURVE ( 'NONE', #356, #322, #260, .T. ) ;
#328 = DATE_TIME_ROLE ( 'creation_date' ) ;
#329 = DIRECTION ( 'NONE',  ( 0.000000000000000000, 0.000000000000000000, 1.000000000000000000 ) ) ;
#330 = EDGE_LOOP ( 'NONE', ( #199, #351 ) ) ;
#331 = AXIS2_PLACEMENT_3D ( 'NONE', #339, #309, #108 ) ;
#332 = ORIENTED_EDGE ( 'NONE', *, *, #15, .T. ) ;
#333 = PERSON_AND_ORGANIZATION ( #12, #161 ) ;
#334 = ADVANCED_FACE ( 'NONE', ( #85, #25 ), #256, .T. ) ;
#335 = CALENDAR_DATE ( 2022, 8, 7 ) ;
#336 = CIRCLE ( 'NONE', #164, 4.000000000000000000 ) ;
#337 = CARTESIAN_POINT ( 'NONE',  ( 0.000000000000000000, 0.000000000000000000, 455.0000000000000000 ) ) ;
#338 = CALENDAR_DATE ( 2022, 8, 7 ) ;
#339 = CARTESIAN_POINT ( 'NONE',  ( -4.500000000000000888, 5.510910596163089556E-16, 5.500000000000005329 ) ) ;
#340 = SECURITY_CLASSIFICATION_LEVEL ( 'unclassified' ) ;
#341 = DIRECTION ( 'NONE',  ( 1.000000000000000000, 0.000000000000000000, 0.000000000000000000 ) ) ;
#342 = AXIS2_PLACEMENT_3D ( 'NONE', #215, #182, #306 ) ;
#343 = FACE_OUTER_BOUND ( 'NONE', #89, .T. ) ;
#344 =( GEOMETRIC_REPRESENTATION_CONTEXT ( 3 ) GLOBAL_UNCERTAINTY_ASSIGNED_CONTEXT ( ( #2 ) ) GLOBAL_UNIT_ASSIGNED_CONTEXT ( ( #3, #268, #240 ) ) REPRESENTATION_CONTEXT ( 'NONE', 'WORKASPACE' ) );
#345 = CARTESIAN_POINT ( 'NONE',  ( 0.000000000000000000, 0.000000000000000000, 455.0000000000000000 ) ) ;
#346 = EDGE_CURVE ( 'NONE', #310, #160, #372, .T. ) ;
#347 = CARTESIAN_POINT ( 'NONE',  ( -2.600000000000000089, 0.000000000000000000, 455.0000000000000000 ) ) ;
#348 = DIRECTION ( 'NONE',  ( 0.000000000000000000, 0.000000000000000000, 1.000000000000000000 ) ) ;
#349 = VERTEX_POINT ( 'NONE', #193 ) ;
#350 = DIRECTION ( 'NONE',  ( 0.000000000000000000, 0.000000000000000000, 1.000000000000000000 ) ) ;
#351 = ORIENTED_EDGE ( 'NONE', *, *, #286, .T. ) ;
#352 = ADVANCED_FACE ( 'NONE', ( #142 ), #117, .T. ) ;
#353 = DIRECTION ( 'NONE',  ( 0.000000000000000000, 0.000000000000000000, 1.000000000000000000 ) ) ;
#354 = ORIENTED_EDGE ( 'NONE', *, *, #366, .T. ) ;
#355 = PERSON_AND_ORGANIZATION ( #12, #161 ) ;
#356 = VERTEX_POINT ( 'NONE', #304 ) ;
#357 = CARTESIAN_POINT ( 'NONE',  ( 0.000000000000000000, 0.000000000000000000, 455.0000000000000000 ) ) ;
#358 = DIRECTION ( 'NONE',  ( 0.000000000000000000, 0.000000000000000000, -1.000000000000000000 ) ) ;
#359 = ADVANCED_FACE ( 'NONE', ( #174 ), #237, .T. ) ;
#360 = CARTESIAN_POINT ( 'NONE',  ( 7.000000000000000000, 8.572527594031473190E-16, 5.000000000000000000 ) ) ;
#361 = EDGE_LOOP ( 'NONE', ( #228, #60, #312, #354 ) ) ;
#362 = CALENDAR_DATE ( 2022, 8, 7 ) ;
#363 = CARTESIAN_POINT ( 'NONE',  ( 4.500000000000000888, 0.000000000000000000, 5.000000000000002665 ) ) ;
#364 = AXIS2_PLACEMENT_3D ( 'NONE', #8, #329, #39 ) ;
#365 = ORIENTED_EDGE ( 'NONE', *, *, #278, .T. ) ;
#366 = EDGE_CURVE ( 'NONE', #380, #160, #381, .T. ) ;
#367 = DIRECTION ( 'NONE',  ( -0.000000000000000000, -0.000000000000000000, -1.000000000000000000 ) ) ;
#368 = AXIS2_PLACEMENT_3D ( 'NONE', #76, #252, #317 ) ;
#369 = VERTEX_POINT ( 'NONE', #35 ) ;
#370 = PERSON_AND_ORGANIZATION ( #12, #161 ) ;
#371 = APPLICATION_CONTEXT ( 'configuration controlled 3d designs of mechanical parts and assemblies' ) ;
#372 = LINE ( 'NONE', #112, #292 ) ;
#373 = CARTESIAN_POINT ( 'NONE',  ( 4.000000000000000000, 4.898587196589412829E-16, 5.500000000000005329 ) ) ;
#374 = CIRCLE ( 'NONE', #150, 2.600000000000000089 ) ;
#375 = CARTESIAN_POINT ( 'NONE',  ( -7.000000000000000000, 0.000000000000000000, 5.000000000000000000 ) ) ;
#376 = ORIENTED_EDGE ( 'NONE', *, *, #327, .T. ) ;
#377 = CARTESIAN_POINT ( 'NONE',  ( 0.000000000000000000, 0.000000000000000000, 455.0000000000000000 ) ) ;
#378 = CARTESIAN_POINT ( 'NONE',  ( -4.500000000000000888, 5.510910596163088569E-16, 5.000000000000002665 ) ) ;
#379 = EDGE_CURVE ( 'NONE', #173, #206, #65, .T. ) ;
#380 = VERTEX_POINT ( 'NONE', #30 ) ;
#381 = CIRCLE ( 'NONE', #300, 2.600000000000000089 ) ;
ENDSEC;
END-ISO-10303-21;
