ISO-10303-21;
HEADER;
FILE_DESCRIPTION (( 'STEP AP203' ),
    '1' );
FILE_NAME ('bdcd.STEP',
    '2022-07-08T15:18:51',
    ( '' ),
    ( '' ),
    'SwSTEP 2.0',
    'SolidWorks 2019',
    '' );
FILE_SCHEMA (( 'CONFIG_CONTROL_DESIGN' ));
ENDSEC;

DATA;
#1 = CARTESIAN_POINT ( 'NONE',  ( 0.000000000000000000, 0.000000000000000000, 5.000000000000000000 ) ) ;
#2 = AXIS2_PLACEMENT_3D ( 'NONE', #230, #229, #204 ) ;
#3 = CARTESIAN_POINT ( 'NONE',  ( 0.000000000000000000, 0.000000000000000000, 5.000000000000000000 ) ) ;
#4 = PRODUCT_DEFINITION ( 'NEZNÁMÝ', '', #129, #70 ) ;
#5 = CARTESIAN_POINT ( 'NONE',  ( 7.000000000000000000, 8.572527594031473190E-16, 5.000000000000000000 ) ) ;
#6 = DIRECTION ( 'NONE',  ( -1.000000000000000000, 0.000000000000000000, 0.000000000000000000 ) ) ;
#7 = DATE_TIME_ROLE ( 'creation_date' ) ;
#8 =( NAMED_UNIT ( * ) PLANE_ANGLE_UNIT ( ) SI_UNIT ( $, .RADIAN. ) );
#9 = EDGE_CURVE ( 'NONE', #350, #130, #355, .T. ) ;
#10 = PERSON_AND_ORGANIZATION ( #114, #88 ) ;
#11 = CIRCLE ( 'NONE', #307, 4.000000000000000000 ) ;
#12 = VERTEX_POINT ( 'NONE', #356 ) ;
#13 = APPLICATION_PROTOCOL_DEFINITION ( 'international standard', 'config_control_design', 1994, #148 ) ;
#14 = EDGE_LOOP ( 'NONE', ( #286, #193, #217, #296 ) ) ;
#15 = DIRECTION ( 'NONE',  ( 1.000000000000000000, 0.000000000000000000, 0.000000000000000000 ) ) ;
#16 = APPROVAL ( #189, 'NEURÈENÝ' ) ;
#17 = ORIENTED_EDGE ( 'NONE', *, *, #100, .F. ) ;
#18 = PERSON_AND_ORGANIZATION ( #114, #88 ) ;
#19 = DIRECTION ( 'NONE',  ( 0.000000000000000000, 0.000000000000000000, 1.000000000000000000 ) ) ;
#20 = TOROIDAL_SURFACE ( 'NONE', #32, 4.500000000000000888, 0.5000000000000000000 ) ;
#21 = LOCAL_TIME ( 17, 18, 51.00000000000000000, #53 ) ;
#22 = SHAPE_DEFINITION_REPRESENTATION ( #328, #98 ) ;
#23 = DIRECTION ( 'NONE',  ( -0.000000000000000000, -0.000000000000000000, -1.000000000000000000 ) ) ;
#24 = CARTESIAN_POINT ( 'NONE',  ( 0.000000000000000000, 0.000000000000000000, 555.0000000000000000 ) ) ;
#25 = LINE ( 'NONE', #155, #320 ) ;
#26 = CIRCLE ( 'NONE', #46, 7.000000000000000000 ) ;
#27 = COORDINATED_UNIVERSAL_TIME_OFFSET ( 1, 0, .AHEAD. ) ;
#28 = CARTESIAN_POINT ( 'NONE',  ( 0.000000000000000000, 0.000000000000000000, 5.499999999999949374 ) ) ;
#29 = DIRECTION ( 'NONE',  ( 0.000000000000000000, 0.000000000000000000, 1.000000000000000000 ) ) ;
#30 = CC_DESIGN_DATE_AND_TIME_ASSIGNMENT ( #154, #121, ( #145 ) ) ;
#31 = PLANE ( 'NONE',  #95 ) ;
#32 = AXIS2_PLACEMENT_3D ( 'NONE', #289, #153, #157 ) ;
#33 = DIRECTION ( 'NONE',  ( 1.000000000000000000, 0.000000000000000000, 0.000000000000000000 ) ) ;
#34 = CARTESIAN_POINT ( 'NONE',  ( -2.500000000000000000, 0.000000000000000000, 555.0000000000000000 ) ) ;
#35 = ORIENTED_EDGE ( 'NONE', *, *, #163, .F. ) ;
#36 = CARTESIAN_POINT ( 'NONE',  ( 2.500000000000000000, 3.061616997868383141E-16, 555.0000000000000000 ) ) ;
#37 = AXIS2_PLACEMENT_3D ( 'NONE', #222, #112, #341 ) ;
#38 = AXIS2_PLACEMENT_3D ( 'NONE', #127, #122, #90 ) ;
#39 = AXIS2_PLACEMENT_3D ( 'NONE', #208, #97, #183 ) ;
#40 = CALENDAR_DATE ( 2022, 8, 7 ) ;
#41 = ORIENTED_EDGE ( 'NONE', *, *, #251, .F. ) ;
#42 = CARTESIAN_POINT ( 'NONE',  ( -4.000000000000000000, 0.000000000000000000, 5.499999999999949374 ) ) ;
#43 = CC_DESIGN_PERSON_AND_ORGANIZATION_ASSIGNMENT ( #368, #216, ( #4 ) ) ;
#44 = DIRECTION ( 'NONE',  ( 1.000000000000000000, 0.000000000000000000, 0.000000000000000000 ) ) ;
#45 = CARTESIAN_POINT ( 'NONE',  ( -4.500000000000000888, 5.510910596163089556E-16, 5.499999999999949374 ) ) ;
#46 = AXIS2_PLACEMENT_3D ( 'NONE', #99, #210, #277 ) ;
#47 = ORIENTED_EDGE ( 'NONE', *, *, #272, .T. ) ;
#48 = EDGE_CURVE ( 'NONE', #340, #344, #11, .T. ) ;
#49 = CARTESIAN_POINT ( 'NONE',  ( 0.000000000000000000, 0.000000000000000000, 5.000000000000000000 ) ) ;
#50 = ORIENTED_EDGE ( 'NONE', *, *, #301, .F. ) ;
#51 = VERTEX_POINT ( 'NONE', #264 ) ;
#52 = APPLICATION_CONTEXT ( 'configuration controlled 3d designs of mechanical parts and assemblies' ) ;
#53 = COORDINATED_UNIVERSAL_TIME_OFFSET ( 1, 0, .AHEAD. ) ;
#54 = AXIS2_PLACEMENT_3D ( 'NONE', #258, #311, #44 ) ;
#55 = CARTESIAN_POINT ( 'NONE',  ( 0.000000000000000000, 0.000000000000000000, 5.499999999999949374 ) ) ;
#56 = DIRECTION ( 'NONE',  ( 0.000000000000000000, 0.000000000000000000, 1.000000000000000000 ) ) ;
#57 = CC_DESIGN_PERSON_AND_ORGANIZATION_ASSIGNMENT ( #178, #267, ( #129 ) ) ;
#58 = APPROVAL_STATUS ( 'not_yet_approved' ) ;
#59 = CYLINDRICAL_SURFACE ( 'NONE', #137, 7.000000000000000000 ) ;
#60 = DIRECTION ( 'NONE',  ( -0.000000000000000000, -0.000000000000000000, -1.000000000000000000 ) ) ;
#61 = CIRCLE ( 'NONE', #205, 0.5000000000000004441 ) ;
#62 = AXIS2_PLACEMENT_3D ( 'NONE', #55, #56, #120 ) ;
#63 = LOCAL_TIME ( 17, 18, 51.00000000000000000, #203 ) ;
#64 = EDGE_CURVE ( 'NONE', #113, #344, #25, .T. ) ;
#65 = DIRECTION ( 'NONE',  ( 1.000000000000000000, 0.000000000000000000, 0.000000000000000000 ) ) ;
#66 = CARTESIAN_POINT ( 'NONE',  ( 7.000000000000000000, 8.572527594031473190E-16, 0.000000000000000000 ) ) ;
#67 = VERTEX_POINT ( 'NONE', #94 ) ;
#68 = CARTESIAN_POINT ( 'NONE',  ( 4.500000000000000888, 0.000000000000000000, 5.499999999999949374 ) ) ;
#69 = ORIENTED_EDGE ( 'NONE', *, *, #324, .T. ) ;
#70 = DESIGN_CONTEXT ( 'detailed design', #52, 'design' ) ;
#71 = CIRCLE ( 'NONE', #213, 2.500000000000000000 ) ;
#72 = DIRECTION ( 'NONE',  ( 0.000000000000000000, 0.000000000000000000, -1.000000000000000000 ) ) ;
#73 = VERTEX_POINT ( 'NONE', #181 ) ;
#74 = FACE_OUTER_BOUND ( 'NONE', #374, .T. ) ;
#75 = PERSON_AND_ORGANIZATION ( #114, #88 ) ;
#76 = LOCAL_TIME ( 17, 18, 51.00000000000000000, #27 ) ;
#77 = AXIS2_PLACEMENT_3D ( 'NONE', #287, #19, #263 ) ;
#78 = ADVANCED_FACE ( 'NONE', ( #352 ), #232, .F. ) ;
#79 = ORIENTED_EDGE ( 'NONE', *, *, #48, .F. ) ;
#80 =( LENGTH_UNIT ( ) NAMED_UNIT ( * ) SI_UNIT ( .MILLI., .METRE. ) );
#81 = ORIENTED_EDGE ( 'NONE', *, *, #233, .T. ) ;
#82 = DIRECTION ( 'NONE',  ( -0.000000000000000000, -0.000000000000000000, -1.000000000000000000 ) ) ;
#83 = EDGE_LOOP ( 'NONE', ( #192, #47, #312, #179 ) ) ;
#84 = ORIENTED_EDGE ( 'NONE', *, *, #375, .T. ) ;
#85 = ORIENTED_EDGE ( 'NONE', *, *, #251, .T. ) ;
#86 = PERSON_AND_ORGANIZATION_ROLE ( 'design_supplier' ) ;
#87 = DIRECTION ( 'NONE',  ( -0.000000000000000000, -0.000000000000000000, -1.000000000000000000 ) ) ;
#88 = ORGANIZATION ( 'NEURÈENÝ', 'NEURÈENÝ', '' ) ;
#89 = EDGE_CURVE ( 'NONE', #67, #73, #71, .T. ) ;
#90 = DIRECTION ( 'NONE',  ( -1.000000000000000000, 0.000000000000000000, 0.000000000000000000 ) ) ;
#91 = DIRECTION ( 'NONE',  ( -1.000000000000000000, 0.000000000000000000, 0.000000000000000000 ) ) ;
#92 = UNCERTAINTY_MEASURE_WITH_UNIT (LENGTH_MEASURE( 1.000000000000000082E-05 ), #80, 'distance_accuracy_value', 'NONE');
#93 = SECURITY_CLASSIFICATION_LEVEL ( 'unclassified' ) ;
#94 = CARTESIAN_POINT ( 'NONE',  ( 2.500000000000000000, 3.061616997868383141E-16, 555.0000000000000000 ) ) ;
#95 = AXIS2_PLACEMENT_3D ( 'NONE', #131, #182, #297 ) ;
#96 = PLANE ( 'NONE',  #39 ) ;
#97 = DIRECTION ( 'NONE',  ( 0.000000000000000000, 0.000000000000000000, 1.000000000000000000 ) ) ;
#98 = ADVANCED_BREP_SHAPE_REPRESENTATION ( 'bdcd', ( #335, #54 ), #253 ) ;
#99 = CARTESIAN_POINT ( 'NONE',  ( 0.000000000000000000, 0.000000000000000000, 0.000000000000000000 ) ) ;
#100 = EDGE_CURVE ( 'NONE', #51, #285, #161, .T. ) ;
#101 = ORIENTED_EDGE ( 'NONE', *, *, #239, .T. ) ;
#102 = AXIS2_PLACEMENT_3D ( 'NONE', #209, #359, #245 ) ;
#103 = CARTESIAN_POINT ( 'NONE',  ( -2.500000000000000000, 0.000000000000000000, 0.000000000000000000 ) ) ;
#104 = CARTESIAN_POINT ( 'NONE',  ( 0.000000000000000000, 0.000000000000000000, 555.0000000000000000 ) ) ;
#105 = ADVANCED_FACE ( 'NONE', ( #321 ), #20, .F. ) ;
#106 = APPROVAL_STATUS ( 'not_yet_approved' ) ;
#107 = ORIENTED_EDGE ( 'NONE', *, *, #281, .F. ) ;
#108 = APPROVAL_PERSON_ORGANIZATION ( #249, #361, #316 ) ;
#109 = AXIS2_PLACEMENT_3D ( 'NONE', #68, #248, #72 ) ;
#110 = DIRECTION ( 'NONE',  ( -0.000000000000000000, -0.000000000000000000, -1.000000000000000000 ) ) ;
#111 = EDGE_LOOP ( 'NONE', ( #370, #243, #257, #372 ) ) ;
#112 = DIRECTION ( 'NONE',  ( 0.000000000000000000, 0.000000000000000000, -1.000000000000000000 ) ) ;
#113 = VERTEX_POINT ( 'NONE', #292 ) ;
#114 = PERSON ( 'NEURÈENÝ', 'NEURÈENÝ', 'NEURÈENÝ', ('NEURÈENÝ'), ('NEURÈENÝ'), ('NEURÈENÝ') ) ;
#115 = CARTESIAN_POINT ( 'NONE',  ( 4.000000000000000000, 4.898587196589412829E-16, 5.499999999999949374 ) ) ;
#116 = VECTOR ( 'NONE', #159, 1000.000000000000000 ) ;
#117 = ORIENTED_EDGE ( 'NONE', *, *, #89, .T. ) ;
#118 = CARTESIAN_POINT ( 'NONE',  ( 4.000000000000000000, 4.898587196589412829E-16, 555.0000000000000000 ) ) ;
#119 = ADVANCED_FACE ( 'NONE', ( #271 ), #59, .T. ) ;
#120 = DIRECTION ( 'NONE',  ( 1.000000000000000000, 0.000000000000000000, 0.000000000000000000 ) ) ;
#121 = DATE_TIME_ROLE ( 'classification_date' ) ;
#122 = DIRECTION ( 'NONE',  ( 0.000000000000000000, 0.000000000000000000, -1.000000000000000000 ) ) ;
#123 = CIRCLE ( 'NONE', #288, 2.500000000000000000 ) ;
#124 = DIRECTION ( 'NONE',  ( 1.000000000000000000, 0.000000000000000000, 0.000000000000000000 ) ) ;
#125 = ADVANCED_FACE ( 'NONE', ( #237, #156 ), #378, .T. ) ;
#126 = CALENDAR_DATE ( 2022, 8, 7 ) ;
#127 = CARTESIAN_POINT ( 'NONE',  ( 0.000000000000000000, 0.000000000000000000, 555.0000000000000000 ) ) ;
#128 = CARTESIAN_POINT ( 'NONE',  ( 0.000000000000000000, 0.000000000000000000, 555.0000000000000000 ) ) ;
#129 = PRODUCT_DEFINITION_FORMATION_WITH_SPECIFIED_SOURCE ( 'LIBOVOLNÝ', '', #238, .NOT_KNOWN. ) ;
#130 = VERTEX_POINT ( 'NONE', #353 ) ;
#131 = CARTESIAN_POINT ( 'NONE',  ( 0.000000000000000000, 0.000000000000000000, 5.000000000000000000 ) ) ;
#132 = ADVANCED_FACE ( 'NONE', ( #234 ), #206, .F. ) ;
#133 = DIRECTION ( 'NONE',  ( 1.000000000000000000, 0.000000000000000000, 0.000000000000000000 ) ) ;
#134 = ORIENTED_EDGE ( 'NONE', *, *, #9, .T. ) ;
#135 = DIRECTION ( 'NONE',  ( -1.000000000000000000, 0.000000000000000000, 0.000000000000000000 ) ) ;
#136 = CIRCLE ( 'NONE', #346, 4.500000000000000888 ) ;
#137 = AXIS2_PLACEMENT_3D ( 'NONE', #266, #269, #91 ) ;
#138 = AXIS2_PLACEMENT_3D ( 'NONE', #151, #327, #357 ) ;
#139 = CARTESIAN_POINT ( 'NONE',  ( 0.000000000000000000, 0.000000000000000000, 555.0000000000000000 ) ) ;
#140 = PRODUCT_RELATED_PRODUCT_CATEGORY ( 'detail', '', ( #238 ) ) ;
#141 = APPROVAL_ROLE ( '' ) ;
#142 = ORIENTED_EDGE ( 'NONE', *, *, #375, .F. ) ;
#143 = APPLICATION_PROTOCOL_DEFINITION ( 'international standard', 'config_control_design', 1994, #52 ) ;
#144 = ORIENTED_EDGE ( 'NONE', *, *, #197, .T. ) ;
#145 = SECURITY_CLASSIFICATION ( '', '', #93 ) ;
#146 = EDGE_LOOP ( 'NONE', ( #173, #117, #228, #172 ) ) ;
#147 = ORIENTED_EDGE ( 'NONE', *, *, #365, .T. ) ;
#148 = APPLICATION_CONTEXT ( 'configuration controlled 3d designs of mechanical parts and assemblies' ) ;
#149 = VERTEX_POINT ( 'NONE', #202 ) ;
#150 = PERSON_AND_ORGANIZATION_ROLE ( 'classification_officer' ) ;
#151 = CARTESIAN_POINT ( 'NONE',  ( 0.000000000000000000, 0.000000000000000000, 5.000000000000000000 ) ) ;
#152 = APPROVAL ( #58, 'NEURÈENÝ' ) ;
#153 = DIRECTION ( 'NONE',  ( 0.000000000000000000, 0.000000000000000000, 1.000000000000000000 ) ) ;
#154 = DATE_AND_TIME ( #231, #76 ) ;
#155 = CARTESIAN_POINT ( 'NONE',  ( -4.000000000000000000, 0.000000000000000000, 555.0000000000000000 ) ) ;
#156 = FACE_OUTER_BOUND ( 'NONE', #196, .T. ) ;
#157 = DIRECTION ( 'NONE',  ( 1.000000000000000000, 0.000000000000000000, 0.000000000000000000 ) ) ;
#158 = FACE_BOUND ( 'NONE', #310, .T. ) ;
#159 = DIRECTION ( 'NONE',  ( -0.000000000000000000, -0.000000000000000000, -1.000000000000000000 ) ) ;
#160 = AXIS2_PLACEMENT_3D ( 'NONE', #300, #29, #33 ) ;
#161 = CIRCLE ( 'NONE', #279, 2.500000000000000000 ) ;
#162 = FACE_OUTER_BOUND ( 'NONE', #315, .T. ) ;
#163 = EDGE_CURVE ( 'NONE', #285, #51, #123, .T. ) ;
#164 = DIRECTION ( 'NONE',  ( 1.000000000000000000, 0.000000000000000000, 0.000000000000000000 ) ) ;
#165 = AXIS2_PLACEMENT_3D ( 'NONE', #336, #363, #164 ) ;
#166 = DATE_AND_TIME ( #40, #304 ) ;
#167 = EDGE_LOOP ( 'NONE', ( #84, #101 ) ) ;
#168 = ORIENTED_EDGE ( 'NONE', *, *, #233, .F. ) ;
#169 = EDGE_CURVE ( 'NONE', #344, #340, #240, .T. ) ;
#170 = CIRCLE ( 'NONE', #379, 4.500000000000000888 ) ;
#171 =( NAMED_UNIT ( * ) SI_UNIT ( $, .STERADIAN. ) SOLID_ANGLE_UNIT ( ) );
#172 = ORIENTED_EDGE ( 'NONE', *, *, #163, .T. ) ;
#173 = ORIENTED_EDGE ( 'NONE', *, *, #272, .F. ) ;
#174 = EDGE_CURVE ( 'NONE', #12, #340, #376, .T. ) ;
#175 = EDGE_LOOP ( 'NONE', ( #134, #69 ) ) ;
#176 = PERSON_AND_ORGANIZATION ( #114, #88 ) ;
#177 = AXIS2_PLACEMENT_3D ( 'NONE', #128, #215, #135 ) ;
#178 = PERSON_AND_ORGANIZATION ( #114, #88 ) ;
#179 = ORIENTED_EDGE ( 'NONE', *, *, #187, .F. ) ;
#180 = CC_DESIGN_APPROVAL ( #16, ( #4 ) ) ;
#181 = CARTESIAN_POINT ( 'NONE',  ( -2.500000000000000000, 0.000000000000000000, 555.0000000000000000 ) ) ;
#182 = DIRECTION ( 'NONE',  ( 0.000000000000000000, 0.000000000000000000, 1.000000000000000000 ) ) ;
#183 = DIRECTION ( 'NONE',  ( 1.000000000000000000, 0.000000000000000000, -0.000000000000000000 ) ) ;
#184 = ADVANCED_FACE ( 'NONE', ( #200 ), #318, .T. ) ;
#185 = CYLINDRICAL_SURFACE ( 'NONE', #299, 4.000000000000000000 ) ;
#186 = DIRECTION ( 'NONE',  ( 0.000000000000000000, 0.000000000000000000, 1.000000000000000000 ) ) ;
#187 = EDGE_CURVE ( 'NONE', #73, #285, #298, .T. ) ;
#188 = FACE_BOUND ( 'NONE', #167, .T. ) ;
#189 = APPROVAL_STATUS ( 'not_yet_approved' ) ;
#190 = CC_DESIGN_SECURITY_CLASSIFICATION ( #145, ( #129 ) ) ;
#191 = CIRCLE ( 'NONE', #160, 7.000000000000000000 ) ;
#192 = ORIENTED_EDGE ( 'NONE', *, *, #281, .T. ) ;
#193 = ORIENTED_EDGE ( 'NONE', *, *, #174, .T. ) ;
#194 = ORIENTED_EDGE ( 'NONE', *, *, #169, .F. ) ;
#195 = VECTOR ( 'NONE', #278, 1000.000000000000000 ) ;
#196 = EDGE_LOOP ( 'NONE', ( #259, #144 ) ) ;
#197 = EDGE_CURVE ( 'NONE', #12, #113, #262, .T. ) ;
#198 = EDGE_LOOP ( 'NONE', ( #284, #79, #81, #254 ) ) ;
#199 = CALENDAR_DATE ( 2022, 8, 7 ) ;
#200 = FACE_OUTER_BOUND ( 'NONE', #14, .T. ) ;
#201 = DIRECTION ( 'NONE',  ( 1.000000000000000000, 0.000000000000000000, 0.000000000000000000 ) ) ;
#202 = CARTESIAN_POINT ( 'NONE',  ( 4.500000000000000888, 0.000000000000000000, 4.999999999999975131 ) ) ;
#203 = COORDINATED_UNIVERSAL_TIME_OFFSET ( 1, 0, .AHEAD. ) ;
#204 = DIRECTION ( 'NONE',  ( 1.000000000000000000, 0.000000000000000000, -0.000000000000000000 ) ) ;
#205 = AXIS2_PLACEMENT_3D ( 'NONE', #45, #309, #280 ) ;
#206 = CYLINDRICAL_SURFACE ( 'NONE', #38, 2.500000000000000000 ) ;
#207 = EDGE_CURVE ( 'NONE', #283, #360, #26, .T. ) ;
#208 = CARTESIAN_POINT ( 'NONE',  ( 0.000000000000000000, 0.000000000000000000, 0.000000000000000000 ) ) ;
#209 = CARTESIAN_POINT ( 'NONE',  ( 0.000000000000000000, 0.000000000000000000, 0.000000000000000000 ) ) ;
#210 = DIRECTION ( 'NONE',  ( 0.000000000000000000, 0.000000000000000000, 1.000000000000000000 ) ) ;
#211 = EDGE_LOOP ( 'NONE', ( #194, #147, #142, #168 ) ) ;
#212 = EDGE_CURVE ( 'NONE', #350, #360, #246, .T. ) ;
#213 = AXIS2_PLACEMENT_3D ( 'NONE', #24, #236, #201 ) ;
#214 = DIRECTION ( 'NONE',  ( -0.000000000000000000, -0.000000000000000000, -1.000000000000000000 ) ) ;
#215 = DIRECTION ( 'NONE',  ( -0.000000000000000000, -0.000000000000000000, -1.000000000000000000 ) ) ;
#216 = PERSON_AND_ORGANIZATION_ROLE ( 'creator' ) ;
#217 = ORIENTED_EDGE ( 'NONE', *, *, #48, .T. ) ;
#218 = AXIS2_PLACEMENT_3D ( 'NONE', #330, #244, #133 ) ;
#219 = CC_DESIGN_PERSON_AND_ORGANIZATION_ASSIGNMENT ( #18, #150, ( #145 ) ) ;
#220 = FACE_OUTER_BOUND ( 'NONE', #83, .T. ) ;
#221 = ORIENTED_EDGE ( 'NONE', *, *, #295, .F. ) ;
#222 = CARTESIAN_POINT ( 'NONE',  ( 0.000000000000000000, 0.000000000000000000, 555.0000000000000000 ) ) ;
#223 = ORIENTED_EDGE ( 'NONE', *, *, #89, .F. ) ;
#224 = DATE_AND_TIME ( #306, #319 ) ;
#225 = EDGE_LOOP ( 'NONE', ( #41, #347 ) ) ;
#226 = CC_DESIGN_PERSON_AND_ORGANIZATION_ASSIGNMENT ( #10, #373, ( #238 ) ) ;
#227 = CLOSED_SHELL ( 'NONE', ( #351, #78, #184, #119, #337, #317, #331, #305, #125, #105, #132 ) ) ;
#228 = ORIENTED_EDGE ( 'NONE', *, *, #187, .T. ) ;
#229 = DIRECTION ( 'NONE',  ( 0.000000000000000000, 0.000000000000000000, 1.000000000000000000 ) ) ;
#230 = CARTESIAN_POINT ( 'NONE',  ( 0.000000000000000000, 0.000000000000000000, 555.0000000000000000 ) ) ;
#231 = CALENDAR_DATE ( 2022, 8, 7 ) ;
#232 = TOROIDAL_SURFACE ( 'NONE', #62, 4.500000000000000888, 0.5000000000000000000 ) ;
#233 = EDGE_CURVE ( 'NONE', #340, #149, #255, .T. ) ;
#234 = FACE_OUTER_BOUND ( 'NONE', #146, .T. ) ;
#235 = APPROVAL_DATE_TIME ( #322, #361 ) ;
#236 = DIRECTION ( 'NONE',  ( 0.000000000000000000, 0.000000000000000000, 1.000000000000000000 ) ) ;
#237 = FACE_BOUND ( 'NONE', #380, .T. ) ;
#238 = PRODUCT ( 'bdcd', 'bdcd', '', ( #371 ) ) ;
#239 = EDGE_CURVE ( 'NONE', #260, #149, #170, .T. ) ;
#240 = CIRCLE ( 'NONE', #77, 4.000000000000000000 ) ;
#241 = FACE_OUTER_BOUND ( 'NONE', #225, .T. ) ;
#242 = CC_DESIGN_APPROVAL ( #361, ( #129 ) ) ;
#243 = ORIENTED_EDGE ( 'NONE', *, *, #295, .T. ) ;
#244 = DIRECTION ( 'NONE',  ( 0.000000000000000000, 0.000000000000000000, 1.000000000000000000 ) ) ;
#245 = DIRECTION ( 'NONE',  ( 1.000000000000000000, 0.000000000000000000, 0.000000000000000000 ) ) ;
#246 = LINE ( 'NONE', #362, #333 ) ;
#247 = CIRCLE ( 'NONE', #294, 2.500000000000000000 ) ;
#248 = DIRECTION ( 'NONE',  ( 0.000000000000000000, -1.000000000000000000, 0.000000000000000000 ) ) ;
#249 = PERSON_AND_ORGANIZATION ( #114, #88 ) ;
#250 = ORIENTED_EDGE ( 'NONE', *, *, #9, .F. ) ;
#251 = EDGE_CURVE ( 'NONE', #360, #283, #268, .T. ) ;
#252 = APPROVAL_DATE_TIME ( #224, #16 ) ;
#253 =( GEOMETRIC_REPRESENTATION_CONTEXT ( 3 ) GLOBAL_UNCERTAINTY_ASSIGNED_CONTEXT ( ( #92 ) ) GLOBAL_UNIT_ASSIGNED_CONTEXT ( ( #80, #8, #171 ) ) REPRESENTATION_CONTEXT ( 'NONE', 'WORKASPACE' ) );
#254 = ORIENTED_EDGE ( 'NONE', *, *, #239, .F. ) ;
#255 = CIRCLE ( 'NONE', #109, 0.5000000000000004441 ) ;
#256 = COORDINATED_UNIVERSAL_TIME_OFFSET ( 1, 0, .AHEAD. ) ;
#257 = ORIENTED_EDGE ( 'NONE', *, *, #207, .T. ) ;
#258 = CARTESIAN_POINT ( 'NONE',  ( 0.000000000000000000, 0.000000000000000000, 0.000000000000000000 ) ) ;
#259 = ORIENTED_EDGE ( 'NONE', *, *, #301, .T. ) ;
#260 = VERTEX_POINT ( 'NONE', #334 ) ;
#261 = APPROVAL_PERSON_ORGANIZATION ( #75, #16, #141 ) ;
#262 = CIRCLE ( 'NONE', #218, 4.000000000000000000 ) ;
#263 = DIRECTION ( 'NONE',  ( 1.000000000000000000, 0.000000000000000000, 0.000000000000000000 ) ) ;
#264 = CARTESIAN_POINT ( 'NONE',  ( 2.500000000000000000, 3.061616997868383141E-16, 0.000000000000000000 ) ) ;
#265 = APPROVAL_ROLE ( '' ) ;
#266 = CARTESIAN_POINT ( 'NONE',  ( 0.000000000000000000, 0.000000000000000000, 5.000000000000000000 ) ) ;
#267 = PERSON_AND_ORGANIZATION_ROLE ( 'creator' ) ;
#268 = CIRCLE ( 'NONE', #102, 7.000000000000000000 ) ;
#269 = DIRECTION ( 'NONE',  ( -0.000000000000000000, -0.000000000000000000, -1.000000000000000000 ) ) ;
#270 = APPROVAL_DATE_TIME ( #349, #152 ) ;
#271 = FACE_OUTER_BOUND ( 'NONE', #111, .T. ) ;
#272 = EDGE_CURVE ( 'NONE', #67, #51, #274, .T. ) ;
#273 = DIRECTION ( 'NONE',  ( 0.000000000000000000, 0.000000000000000000, -1.000000000000000000 ) ) ;
#274 = LINE ( 'NONE', #36, #195 ) ;
#275 = CYLINDRICAL_SURFACE ( 'NONE', #308, 7.000000000000000000 ) ;
#276 = CC_DESIGN_DATE_AND_TIME_ASSIGNMENT ( #166, #7, ( #4 ) ) ;
#277 = DIRECTION ( 'NONE',  ( 1.000000000000000000, 0.000000000000000000, 0.000000000000000000 ) ) ;
#278 = DIRECTION ( 'NONE',  ( 0.000000000000000000, 0.000000000000000000, -1.000000000000000000 ) ) ;
#279 = AXIS2_PLACEMENT_3D ( 'NONE', #323, #293, #381 ) ;
#280 = DIRECTION ( 'NONE',  ( -1.000000000000000000, 1.224646799147351482E-16, 0.000000000000000000 ) ) ;
#281 = EDGE_CURVE ( 'NONE', #73, #67, #247, .T. ) ;
#282 = CARTESIAN_POINT ( 'NONE',  ( -7.000000000000000000, 0.000000000000000000, 5.000000000000000000 ) ) ;
#283 = VERTEX_POINT ( 'NONE', #66 ) ;
#284 = ORIENTED_EDGE ( 'NONE', *, *, #365, .F. ) ;
#285 = VERTEX_POINT ( 'NONE', #103 ) ;
#286 = ORIENTED_EDGE ( 'NONE', *, *, #197, .F. ) ;
#287 = CARTESIAN_POINT ( 'NONE',  ( 0.000000000000000000, 0.000000000000000000, 5.499999999999949374 ) ) ;
#288 = AXIS2_PLACEMENT_3D ( 'NONE', #325, #60, #65 ) ;
#289 = CARTESIAN_POINT ( 'NONE',  ( 0.000000000000000000, 0.000000000000000000, 5.499999999999949374 ) ) ;
#290 = CC_DESIGN_PERSON_AND_ORGANIZATION_ASSIGNMENT ( #291, #86, ( #129 ) ) ;
#291 = PERSON_AND_ORGANIZATION ( #114, #88 ) ;
#292 = CARTESIAN_POINT ( 'NONE',  ( -4.000000000000000000, 0.000000000000000000, 555.0000000000000000 ) ) ;
#293 = DIRECTION ( 'NONE',  ( -0.000000000000000000, -0.000000000000000000, -1.000000000000000000 ) ) ;
#294 = AXIS2_PLACEMENT_3D ( 'NONE', #139, #186, #366 ) ;
#295 = EDGE_CURVE ( 'NONE', #130, #283, #364, .T. ) ;
#296 = ORIENTED_EDGE ( 'NONE', *, *, #64, .F. ) ;
#297 = DIRECTION ( 'NONE',  ( 1.000000000000000000, 0.000000000000000000, -0.000000000000000000 ) ) ;
#298 = LINE ( 'NONE', #34, #339 ) ;
#299 = AXIS2_PLACEMENT_3D ( 'NONE', #104, #338, #6 ) ;
#300 = CARTESIAN_POINT ( 'NONE',  ( 0.000000000000000000, 0.000000000000000000, 5.000000000000000000 ) ) ;
#301 = EDGE_CURVE ( 'NONE', #113, #12, #326, .T. ) ;
#302 = DIRECTION ( 'NONE',  ( -0.000000000000000000, -0.000000000000000000, -1.000000000000000000 ) ) ;
#303 = FACE_OUTER_BOUND ( 'NONE', #175, .T. ) ;
#304 = LOCAL_TIME ( 17, 18, 51.00000000000000000, #345 ) ;
#305 = ADVANCED_FACE ( 'NONE', ( #74 ), #185, .T. ) ;
#306 = CALENDAR_DATE ( 2022, 8, 7 ) ;
#307 = AXIS2_PLACEMENT_3D ( 'NONE', #28, #377, #124 ) ;
#308 = AXIS2_PLACEMENT_3D ( 'NONE', #3, #110, #314 ) ;
#309 = DIRECTION ( 'NONE',  ( 1.224646799147353207E-16, 1.000000000000000000, -0.000000000000000000 ) ) ;
#310 = EDGE_LOOP ( 'NONE', ( #35, #17 ) ) ;
#311 = DIRECTION ( 'NONE',  ( 0.000000000000000000, 0.000000000000000000, 1.000000000000000000 ) ) ;
#312 = ORIENTED_EDGE ( 'NONE', *, *, #100, .T. ) ;
#313 = ORIENTED_EDGE ( 'NONE', *, *, #64, .T. ) ;
#314 = DIRECTION ( 'NONE',  ( -1.000000000000000000, 0.000000000000000000, 0.000000000000000000 ) ) ;
#315 = EDGE_LOOP ( 'NONE', ( #221, #250, #342, #85 ) ) ;
#316 = APPROVAL_ROLE ( '' ) ;
#317 = ADVANCED_FACE ( 'NONE', ( #188, #303 ), #31, .T. ) ;
#318 = CYLINDRICAL_SURFACE ( 'NONE', #177, 4.000000000000000000 ) ;
#319 = LOCAL_TIME ( 17, 18, 51.00000000000000000, #256 ) ;
#320 = VECTOR ( 'NONE', #23, 1000.000000000000000 ) ;
#321 = FACE_OUTER_BOUND ( 'NONE', #198, .T. ) ;
#322 = DATE_AND_TIME ( #126, #21 ) ;
#323 = CARTESIAN_POINT ( 'NONE',  ( 0.000000000000000000, 0.000000000000000000, 0.000000000000000000 ) ) ;
#324 = EDGE_CURVE ( 'NONE', #130, #350, #191, .T. ) ;
#325 = CARTESIAN_POINT ( 'NONE',  ( 0.000000000000000000, 0.000000000000000000, 0.000000000000000000 ) ) ;
#326 = CIRCLE ( 'NONE', #165, 4.000000000000000000 ) ;
#327 = DIRECTION ( 'NONE',  ( 0.000000000000000000, 0.000000000000000000, 1.000000000000000000 ) ) ;
#328 = PRODUCT_DEFINITION_SHAPE ( 'NONE', 'NONE',  #4 ) ;
#329 = DIRECTION ( 'NONE',  ( 1.000000000000000000, 0.000000000000000000, 0.000000000000000000 ) ) ;
#330 = CARTESIAN_POINT ( 'NONE',  ( 0.000000000000000000, 0.000000000000000000, 555.0000000000000000 ) ) ;
#331 = ADVANCED_FACE ( 'NONE', ( #158, #241 ), #96, .F. ) ;
#332 = ORIENTED_EDGE ( 'NONE', *, *, #174, .F. ) ;
#333 = VECTOR ( 'NONE', #214, 1000.000000000000000 ) ;
#334 = CARTESIAN_POINT ( 'NONE',  ( -4.500000000000000888, 5.510910596163088569E-16, 4.999999999999975131 ) ) ;
#335 = MANIFOLD_SOLID_BREP ( 'Odebrat vysunutím3', #227 ) ;
#336 = CARTESIAN_POINT ( 'NONE',  ( 0.000000000000000000, 0.000000000000000000, 555.0000000000000000 ) ) ;
#337 = ADVANCED_FACE ( 'NONE', ( #162 ), #275, .T. ) ;
#338 = DIRECTION ( 'NONE',  ( -0.000000000000000000, -0.000000000000000000, -1.000000000000000000 ) ) ;
#339 = VECTOR ( 'NONE', #273, 1000.000000000000000 ) ;
#340 = VERTEX_POINT ( 'NONE', #115 ) ;
#341 = DIRECTION ( 'NONE',  ( -1.000000000000000000, 0.000000000000000000, 0.000000000000000000 ) ) ;
#342 = ORIENTED_EDGE ( 'NONE', *, *, #212, .T. ) ;
#343 = CYLINDRICAL_SURFACE ( 'NONE', #37, 2.500000000000000000 ) ;
#344 = VERTEX_POINT ( 'NONE', #42 ) ;
#345 = COORDINATED_UNIVERSAL_TIME_OFFSET ( 1, 0, .AHEAD. ) ;
#346 = AXIS2_PLACEMENT_3D ( 'NONE', #49, #82, #15 ) ;
#347 = ORIENTED_EDGE ( 'NONE', *, *, #207, .F. ) ;
#348 = VECTOR ( 'NONE', #87, 1000.000000000000000 ) ;
#349 = DATE_AND_TIME ( #199, #63 ) ;
#350 = VERTEX_POINT ( 'NONE', #282 ) ;
#351 = ADVANCED_FACE ( 'NONE', ( #220 ), #343, .F. ) ;
#352 = FACE_OUTER_BOUND ( 'NONE', #211, .T. ) ;
#353 = CARTESIAN_POINT ( 'NONE',  ( 7.000000000000000000, 8.572527594031473190E-16, 5.000000000000000000 ) ) ;
#354 = APPROVAL_PERSON_ORGANIZATION ( #176, #152, #265 ) ;
#355 = CIRCLE ( 'NONE', #138, 7.000000000000000000 ) ;
#356 = CARTESIAN_POINT ( 'NONE',  ( 4.000000000000000000, 4.898587196589412829E-16, 555.0000000000000000 ) ) ;
#357 = DIRECTION ( 'NONE',  ( 1.000000000000000000, 0.000000000000000000, 0.000000000000000000 ) ) ;
#358 = CC_DESIGN_APPROVAL ( #152, ( #145 ) ) ;
#359 = DIRECTION ( 'NONE',  ( 0.000000000000000000, 0.000000000000000000, 1.000000000000000000 ) ) ;
#360 = VERTEX_POINT ( 'NONE', #369 ) ;
#361 = APPROVAL ( #106, 'NEURÈENÝ' ) ;
#362 = CARTESIAN_POINT ( 'NONE',  ( -7.000000000000000000, 0.000000000000000000, 5.000000000000000000 ) ) ;
#363 = DIRECTION ( 'NONE',  ( 0.000000000000000000, 0.000000000000000000, 1.000000000000000000 ) ) ;
#364 = LINE ( 'NONE', #5, #116 ) ;
#365 = EDGE_CURVE ( 'NONE', #344, #260, #61, .T. ) ;
#366 = DIRECTION ( 'NONE',  ( 1.000000000000000000, 0.000000000000000000, 0.000000000000000000 ) ) ;
#367 = ORIENTED_EDGE ( 'NONE', *, *, #169, .T. ) ;
#368 = PERSON_AND_ORGANIZATION ( #114, #88 ) ;
#369 = CARTESIAN_POINT ( 'NONE',  ( -7.000000000000000000, 0.000000000000000000, 0.000000000000000000 ) ) ;
#370 = ORIENTED_EDGE ( 'NONE', *, *, #324, .F. ) ;
#371 = MECHANICAL_CONTEXT ( 'NONE', #148, 'mechanical' ) ;
#372 = ORIENTED_EDGE ( 'NONE', *, *, #212, .F. ) ;
#373 = PERSON_AND_ORGANIZATION_ROLE ( 'design_owner' ) ;
#374 = EDGE_LOOP ( 'NONE', ( #332, #50, #313, #367 ) ) ;
#375 = EDGE_CURVE ( 'NONE', #149, #260, #136, .T. ) ;
#376 = LINE ( 'NONE', #118, #348 ) ;
#377 = DIRECTION ( 'NONE',  ( 0.000000000000000000, 0.000000000000000000, 1.000000000000000000 ) ) ;
#378 = PLANE ( 'NONE',  #2 ) ;
#379 = AXIS2_PLACEMENT_3D ( 'NONE', #1, #302, #329 ) ;
#380 = EDGE_LOOP ( 'NONE', ( #107, #223 ) ) ;
#381 = DIRECTION ( 'NONE',  ( 1.000000000000000000, 0.000000000000000000, 0.000000000000000000 ) ) ;
ENDSEC;
END-ISO-10303-21;
