ISO-10303-21;
HEADER;
FILE_DESCRIPTION (( 'STEP AP203' ),
    '1' );
FILE_NAME ('0d19.STEP',
    '2022-07-08T15:50:51',
    ( '' ),
    ( '' ),
    'SwSTEP 2.0',
    'SolidWorks 2019',
    '' );
FILE_SCHEMA (( 'CONFIG_CONTROL_DESIGN' ));
ENDSEC;

DATA;
#1 = FACE_BOUND ( 'NONE', #348, .T. ) ;
#2 = CC_DESIGN_PERSON_AND_ORGANIZATION_ASSIGNMENT ( #148, #295, ( #75 ) ) ;
#3 = PERSON_AND_ORGANIZATION ( #339, #31 ) ;
#4 = DIRECTION ( 'NONE',  ( 0.000000000000000000, 0.000000000000000000, -1.000000000000000000 ) ) ;
#5 = AXIS2_PLACEMENT_3D ( 'NONE', #353, #73, #379 ) ;
#6 = CARTESIAN_POINT ( 'NONE',  ( 0.000000000000000000, 0.000000000000000000, 128.0000000000000000 ) ) ;
#7 = EDGE_CURVE ( 'NONE', #342, #358, #141, .T. ) ;
#8 = DIRECTION ( 'NONE',  ( 1.000000000000000000, 0.000000000000000000, 0.000000000000000000 ) ) ;
#9 = FACE_OUTER_BOUND ( 'NONE', #319, .T. ) ;
#10 = CALENDAR_DATE ( 2022, 8, 7 ) ;
#11 = FACE_BOUND ( 'NONE', #324, .T. ) ;
#12 = ORIENTED_EDGE ( 'NONE', *, *, #153, .T. ) ;
#13 = SECURITY_CLASSIFICATION ( '', '', #124 ) ;
#14 = LINE ( 'NONE', #138, #328 ) ;
#15 = EDGE_CURVE ( 'NONE', #285, #142, #188, .T. ) ;
#16 = TOROIDAL_SURFACE ( 'NONE', #32, 2.299999999999999822, 0.2999999999999999889 ) ;
#17 = CARTESIAN_POINT ( 'NONE',  ( -1.100000000000000089, 0.000000000000000000, 0.000000000000000000 ) ) ;
#18 = ORIENTED_EDGE ( 'NONE', *, *, #274, .T. ) ;
#19 =( LENGTH_UNIT ( ) NAMED_UNIT ( * ) SI_UNIT ( .MILLI., .METRE. ) );
#20 = AXIS2_PLACEMENT_3D ( 'NONE', #159, #74, #278 ) ;
#21 = ORIENTED_EDGE ( 'NONE', *, *, #108, .T. ) ;
#22 = PRODUCT ( '0d19', '0d19', '', ( #354 ) ) ;
#23 = ORIENTED_EDGE ( 'NONE', *, *, #238, .F. ) ;
#24 = CC_DESIGN_DATE_AND_TIME_ASSIGNMENT ( #71, #378, ( #13 ) ) ;
#25 = PERSON_AND_ORGANIZATION ( #339, #31 ) ;
#26 = EDGE_LOOP ( 'NONE', ( #23, #308, #261, #181 ) ) ;
#27 = CIRCLE ( 'NONE', #246, 2.000000000000000000 ) ;
#28 = APPROVAL_DATE_TIME ( #91, #113 ) ;
#29 = EDGE_CURVE ( 'NONE', #208, #210, #232, .T. ) ;
#30 = VERTEX_POINT ( 'NONE', #150 ) ;
#31 = ORGANIZATION ( 'NEURÈENÝ', 'NEURÈENÝ', '' ) ;
#32 = AXIS2_PLACEMENT_3D ( 'NONE', #260, #344, #86 ) ;
#33 = APPROVAL_STATUS ( 'not_yet_approved' ) ;
#34 = CARTESIAN_POINT ( 'NONE',  ( -2.000000000000000000, 0.000000000000000000, 128.0000000000000000 ) ) ;
#35 = CC_DESIGN_DATE_AND_TIME_ASSIGNMENT ( #356, #37, ( #160 ) ) ;
#36 = CARTESIAN_POINT ( 'NONE',  ( -2.299999999999999822, 2.816687638038912056E-16, 3.299999999999997158 ) ) ;
#37 = DATE_TIME_ROLE ( 'creation_date' ) ;
#38 = CARTESIAN_POINT ( 'NONE',  ( 2.000000000000000000, 2.449293598294706414E-16, 128.0000000000000000 ) ) ;
#39 = APPROVAL_STATUS ( 'not_yet_approved' ) ;
#40 = DIRECTION ( 'NONE',  ( 1.000000000000000000, 0.000000000000000000, 0.000000000000000000 ) ) ;
#41 = APPROVAL_PERSON_ORGANIZATION ( #218, #113, #291 ) ;
#42 = EDGE_CURVE ( 'NONE', #375, #208, #283, .T. ) ;
#43 = APPROVAL_DATE_TIME ( #48, #139 ) ;
#44 = AXIS2_PLACEMENT_3D ( 'NONE', #101, #325, #78 ) ;
#45 = CARTESIAN_POINT ( 'NONE',  ( -4.000000000000000000, 0.000000000000000000, 0.000000000000000000 ) ) ;
#46 = DIRECTION ( 'NONE',  ( 1.000000000000000000, 0.000000000000000000, -0.000000000000000000 ) ) ;
#47 = CYLINDRICAL_SURFACE ( 'NONE', #49, 4.000000000000000000 ) ;
#48 = DATE_AND_TIME ( #10, #213 ) ;
#49 = AXIS2_PLACEMENT_3D ( 'NONE', #167, #361, #281 ) ;
#50 = EDGE_LOOP ( 'NONE', ( #12, #21 ) ) ;
#51 = DIRECTION ( 'NONE',  ( -0.000000000000000000, -0.000000000000000000, -1.000000000000000000 ) ) ;
#52 = DIRECTION ( 'NONE',  ( 0.000000000000000000, 0.000000000000000000, 1.000000000000000000 ) ) ;
#53 = AXIS2_PLACEMENT_3D ( 'NONE', #276, #299, #294 ) ;
#54 = EDGE_CURVE ( 'NONE', #64, #321, #332, .T. ) ;
#55 = FACE_OUTER_BOUND ( 'NONE', #26, .T. ) ;
#56 = CIRCLE ( 'NONE', #214, 2.000000000000000000 ) ;
#57 = LINE ( 'NONE', #207, #137 ) ;
#58 = ORIENTED_EDGE ( 'NONE', *, *, #15, .F. ) ;
#59 = DIRECTION ( 'NONE',  ( -0.000000000000000000, -0.000000000000000000, -1.000000000000000000 ) ) ;
#60 = ORIENTED_EDGE ( 'NONE', *, *, #105, .F. ) ;
#61 = DIRECTION ( 'NONE',  ( 0.000000000000000000, 0.000000000000000000, -1.000000000000000000 ) ) ;
#62 = VERTEX_POINT ( 'NONE', #38 ) ;
#63 = PERSON_AND_ORGANIZATION_ROLE ( 'classification_officer' ) ;
#64 = VERTEX_POINT ( 'NONE', #184 ) ;
#65 = DIRECTION ( 'NONE',  ( 0.000000000000000000, 0.000000000000000000, 1.000000000000000000 ) ) ;
#66 = DIRECTION ( 'NONE',  ( 1.000000000000000000, 0.000000000000000000, 0.000000000000000000 ) ) ;
#67 = AXIS2_PLACEMENT_3D ( 'NONE', #343, #118, #80 ) ;
#68 = AXIS2_PLACEMENT_3D ( 'NONE', #297, #72, #219 ) ;
#69 = DIRECTION ( 'NONE',  ( 1.000000000000000000, 0.000000000000000000, 0.000000000000000000 ) ) ;
#70 = DIRECTION ( 'NONE',  ( 0.000000000000000000, 0.000000000000000000, 1.000000000000000000 ) ) ;
#71 = DATE_AND_TIME ( #126, #314 ) ;
#72 = DIRECTION ( 'NONE',  ( 0.000000000000000000, 0.000000000000000000, -1.000000000000000000 ) ) ;
#73 = DIRECTION ( 'NONE',  ( 0.000000000000000000, 0.000000000000000000, 1.000000000000000000 ) ) ;
#74 = DIRECTION ( 'NONE',  ( 0.000000000000000000, 0.000000000000000000, 1.000000000000000000 ) ) ;
#75 = PRODUCT_DEFINITION_FORMATION_WITH_SPECIFIED_SOURCE ( 'LIBOVOLNÝ', '', #22, .NOT_KNOWN. ) ;
#76 = ORIENTED_EDGE ( 'NONE', *, *, #42, .F. ) ;
#77 = DIRECTION ( 'NONE',  ( 1.000000000000000000, 0.000000000000000000, 0.000000000000000000 ) ) ;
#78 = DIRECTION ( 'NONE',  ( 1.000000000000000000, 0.000000000000000000, 0.000000000000000000 ) ) ;
#79 = DIRECTION ( 'NONE',  ( 0.000000000000000000, 0.000000000000000000, 1.000000000000000000 ) ) ;
#80 = DIRECTION ( 'NONE',  ( 1.000000000000000000, 0.000000000000000000, 0.000000000000000000 ) ) ;
#81 = VECTOR ( 'NONE', #151, 1000.000000000000000 ) ;
#82 = CARTESIAN_POINT ( 'NONE',  ( -1.100000000000000089, 0.000000000000000000, 128.0000000000000000 ) ) ;
#83 = ADVANCED_FACE ( 'NONE', ( #1, #240 ), #273, .F. ) ;
#84 = ORIENTED_EDGE ( 'NONE', *, *, #7, .F. ) ;
#85 = CARTESIAN_POINT ( 'NONE',  ( 0.000000000000000000, 0.000000000000000000, 128.0000000000000000 ) ) ;
#86 = DIRECTION ( 'NONE',  ( 1.000000000000000000, 0.000000000000000000, 0.000000000000000000 ) ) ;
#87 = ORIENTED_EDGE ( 'NONE', *, *, #367, .T. ) ;
#88 = LOCAL_TIME ( 17, 50, 51.00000000000000000, #326 ) ;
#89 = EDGE_LOOP ( 'NONE', ( #157, #143 ) ) ;
#90 = AXIS2_PLACEMENT_3D ( 'NONE', #311, #365, #106 ) ;
#91 = DATE_AND_TIME ( #381, #370 ) ;
#92 = ORIENTED_EDGE ( 'NONE', *, *, #180, .T. ) ;
#93 = CALENDAR_DATE ( 2022, 8, 7 ) ;
#94 = DIRECTION ( 'NONE',  ( -0.000000000000000000, -0.000000000000000000, -1.000000000000000000 ) ) ;
#95 = APPROVAL_PERSON_ORGANIZATION ( #241, #139, #96 ) ;
#96 = APPROVAL_ROLE ( '' ) ;
#97 = CARTESIAN_POINT ( 'NONE',  ( 0.000000000000000000, 0.000000000000000000, 0.000000000000000000 ) ) ;
#98 = APPLICATION_PROTOCOL_DEFINITION ( 'international standard', 'config_control_design', 1994, #134 ) ;
#99 = CC_DESIGN_PERSON_AND_ORGANIZATION_ASSIGNMENT ( #239, #244, ( #22 ) ) ;
#100 = DIRECTION ( 'NONE',  ( 1.224646799147353207E-16, 1.000000000000000000, -0.000000000000000000 ) ) ;
#101 = CARTESIAN_POINT ( 'NONE',  ( 0.000000000000000000, 0.000000000000000000, 3.000000000000000000 ) ) ;
#102 = AXIS2_PLACEMENT_3D ( 'NONE', #187, #355, #217 ) ;
#103 = PLANE ( 'NONE',  #199 ) ;
#104 = ORIENTED_EDGE ( 'NONE', *, *, #105, .T. ) ;
#105 = EDGE_CURVE ( 'NONE', #375, #351, #193, .T. ) ;
#106 = DIRECTION ( 'NONE',  ( 1.000000000000000000, 0.000000000000000000, 0.000000000000000000 ) ) ;
#107 = DIRECTION ( 'NONE',  ( 1.000000000000000000, 0.000000000000000000, 0.000000000000000000 ) ) ;
#108 = EDGE_CURVE ( 'NONE', #62, #30, #27, .T. ) ;
#109 = CIRCLE ( 'NONE', #67, 1.100000000000000089 ) ;
#110 = CARTESIAN_POINT ( 'NONE',  ( 0.000000000000000000, 0.000000000000000000, 128.0000000000000000 ) ) ;
#111 = AXIS2_PLACEMENT_3D ( 'NONE', #364, #166, #77 ) ;
#112 = ORIENTED_EDGE ( 'NONE', *, *, #300, .F. ) ;
#113 = APPROVAL ( #33, 'NEURÈENÝ' ) ;
#114 = DIRECTION ( 'NONE',  ( -0.000000000000000000, -0.000000000000000000, -1.000000000000000000 ) ) ;
#115 = ADVANCED_BREP_SHAPE_REPRESENTATION ( '0d19', ( #312, #172 ), #133 ) ;
#116 = UNCERTAINTY_MEASURE_WITH_UNIT (LENGTH_MEASURE( 1.000000000000000082E-05 ), #19, 'distance_accuracy_value', 'NONE');
#117 = ORIENTED_EDGE ( 'NONE', *, *, #180, .F. ) ;
#118 = DIRECTION ( 'NONE',  ( -0.000000000000000000, -0.000000000000000000, -1.000000000000000000 ) ) ;
#119 = ORIENTED_EDGE ( 'NONE', *, *, #29, .F. ) ;
#120 = CIRCLE ( 'NONE', #5, 4.000000000000000000 ) ;
#121 = ADVANCED_FACE ( 'NONE', ( #128 ), #242, .T. ) ;
#122 = EDGE_LOOP ( 'NONE', ( #179, #202 ) ) ;
#123 = DIRECTION ( 'NONE',  ( 0.000000000000000000, 0.000000000000000000, -1.000000000000000000 ) ) ;
#124 = SECURITY_CLASSIFICATION_LEVEL ( 'unclassified' ) ;
#125 = ADVANCED_FACE ( 'NONE', ( #331 ), #271, .F. ) ;
#126 = CALENDAR_DATE ( 2022, 8, 7 ) ;
#127 = DIRECTION ( 'NONE',  ( 0.000000000000000000, 0.000000000000000000, 1.000000000000000000 ) ) ;
#128 = FACE_OUTER_BOUND ( 'NONE', #287, .T. ) ;
#129 = FACE_OUTER_BOUND ( 'NONE', #205, .T. ) ;
#130 = ORIENTED_EDGE ( 'NONE', *, *, #7, .T. ) ;
#131 = CARTESIAN_POINT ( 'NONE',  ( 0.000000000000000000, 0.000000000000000000, 3.299999999999997158 ) ) ;
#132 = APPROVAL ( #39, 'NEURÈENÝ' ) ;
#133 =( GEOMETRIC_REPRESENTATION_CONTEXT ( 3 ) GLOBAL_UNCERTAINTY_ASSIGNED_CONTEXT ( ( #116 ) ) GLOBAL_UNIT_ASSIGNED_CONTEXT ( ( #19, #347, #323 ) ) REPRESENTATION_CONTEXT ( 'NONE', 'WORKASPACE' ) );
#134 = APPLICATION_CONTEXT ( 'configuration controlled 3d designs of mechanical parts and assemblies' ) ;
#135 = ORIENTED_EDGE ( 'NONE', *, *, #146, .F. ) ;
#136 = AXIS2_PLACEMENT_3D ( 'NONE', #330, #65, #66 ) ;
#137 = VECTOR ( 'NONE', #61, 1000.000000000000000 ) ;
#138 = CARTESIAN_POINT ( 'NONE',  ( -4.000000000000000000, 0.000000000000000000, 3.000000000000000000 ) ) ;
#139 = APPROVAL ( #212, 'NEURÈENÝ' ) ;
#140 = EDGE_CURVE ( 'NONE', #290, #147, #120, .T. ) ;
#141 = CIRCLE ( 'NONE', #136, 4.000000000000000000 ) ;
#142 = VERTEX_POINT ( 'NONE', #189 ) ;
#143 = ORIENTED_EDGE ( 'NONE', *, *, #54, .F. ) ;
#144 = DIRECTION ( 'NONE',  ( -0.000000000000000000, -0.000000000000000000, -1.000000000000000000 ) ) ;
#145 = ORIENTED_EDGE ( 'NONE', *, *, #367, .F. ) ;
#146 = EDGE_CURVE ( 'NONE', #64, #142, #304, .T. ) ;
#147 = VERTEX_POINT ( 'NONE', #45 ) ;
#148 = PERSON_AND_ORGANIZATION ( #339, #31 ) ;
#149 = AXIS2_PLACEMENT_3D ( 'NONE', #85, #198, #315 ) ;
#150 = CARTESIAN_POINT ( 'NONE',  ( -2.000000000000000000, 0.000000000000000000, 128.0000000000000000 ) ) ;
#151 = DIRECTION ( 'NONE',  ( -0.000000000000000000, -0.000000000000000000, -1.000000000000000000 ) ) ;
#152 = CARTESIAN_POINT ( 'NONE',  ( 2.299999999999999822, 0.000000000000000000, 3.299999999999997158 ) ) ;
#153 = EDGE_CURVE ( 'NONE', #30, #62, #56, .T. ) ;
#154 = DIRECTION ( 'NONE',  ( -0.000000000000000000, -0.000000000000000000, -1.000000000000000000 ) ) ;
#155 = APPROVAL_PERSON_ORGANIZATION ( #298, #132, #376 ) ;
#156 = CARTESIAN_POINT ( 'NONE',  ( 0.000000000000000000, 0.000000000000000000, 3.299999999999997158 ) ) ;
#157 = ORIENTED_EDGE ( 'NONE', *, *, #380, .F. ) ;
#158 = DIRECTION ( 'NONE',  ( 0.000000000000000000, 0.000000000000000000, 1.000000000000000000 ) ) ;
#159 = CARTESIAN_POINT ( 'NONE',  ( 0.000000000000000000, 0.000000000000000000, 128.0000000000000000 ) ) ;
#160 = PRODUCT_DEFINITION ( 'NEZNÁMÝ', '', #75, #201 ) ;
#161 = DIRECTION ( 'NONE',  ( -0.000000000000000000, -0.000000000000000000, -1.000000000000000000 ) ) ;
#162 = AXIS2_PLACEMENT_3D ( 'NONE', #156, #70, #40 ) ;
#163 = PLANE ( 'NONE',  #20 ) ;
#164 = CARTESIAN_POINT ( 'NONE',  ( 2.000000000000000000, 2.449293598294706414E-16, 3.299999999999997158 ) ) ;
#165 = LOCAL_TIME ( 17, 50, 51.00000000000000000, #268 ) ;
#166 = DIRECTION ( 'NONE',  ( 0.000000000000000000, 0.000000000000000000, 1.000000000000000000 ) ) ;
#167 = CARTESIAN_POINT ( 'NONE',  ( 0.000000000000000000, 0.000000000000000000, 3.000000000000000000 ) ) ;
#168 = ORIENTED_EDGE ( 'NONE', *, *, #204, .F. ) ;
#169 = FACE_OUTER_BOUND ( 'NONE', #176, .T. ) ;
#170 = CIRCLE ( 'NONE', #234, 2.000000000000000000 ) ;
#171 = CYLINDRICAL_SURFACE ( 'NONE', #322, 2.000000000000000000 ) ;
#172 = AXIS2_PLACEMENT_3D ( 'NONE', #270, #216, #69 ) ;
#173 = ADVANCED_FACE ( 'NONE', ( #129 ), #277, .T. ) ;
#174 = ORIENTED_EDGE ( 'NONE', *, *, #300, .T. ) ;
#175 = CARTESIAN_POINT ( 'NONE',  ( 0.000000000000000000, 0.000000000000000000, 128.0000000000000000 ) ) ;
#176 = EDGE_LOOP ( 'NONE', ( #130, #233 ) ) ;
#177 = CARTESIAN_POINT ( 'NONE',  ( -2.000000000000000000, 0.000000000000000000, 3.299999999999997158 ) ) ;
#178 = LINE ( 'NONE', #34, #81 ) ;
#179 = ORIENTED_EDGE ( 'NONE', *, *, #259, .F. ) ;
#180 = EDGE_CURVE ( 'NONE', #351, #210, #227, .T. ) ;
#181 = ORIENTED_EDGE ( 'NONE', *, *, #42, .T. ) ;
#182 = DATE_AND_TIME ( #293, #88 ) ;
#183 = PERSON_AND_ORGANIZATION_ROLE ( 'creator' ) ;
#184 = CARTESIAN_POINT ( 'NONE',  ( 1.100000000000000089, 1.347111479062088503E-16, 128.0000000000000000 ) ) ;
#185 = APPROVAL_DATE_TIME ( #182, #132 ) ;
#186 = DIRECTION ( 'NONE',  ( 1.000000000000000000, 0.000000000000000000, 0.000000000000000000 ) ) ;
#187 = CARTESIAN_POINT ( 'NONE',  ( 0.000000000000000000, 0.000000000000000000, 3.000000000000000000 ) ) ;
#188 = CIRCLE ( 'NONE', #220, 1.100000000000000089 ) ;
#189 = CARTESIAN_POINT ( 'NONE',  ( 1.100000000000000089, 1.347111479062088503E-16, 0.000000000000000000 ) ) ;
#190 = VECTOR ( 'NONE', #161, 1000.000000000000000 ) ;
#191 = ADVANCED_FACE ( 'NONE', ( #338 ), #47, .T. ) ;
#192 = SHAPE_DEFINITION_REPRESENTATION ( #296, #115 ) ;
#193 = CIRCLE ( 'NONE', #221, 0.2999999999999999334 ) ;
#194 = CARTESIAN_POINT ( 'NONE',  ( 4.000000000000000000, 4.898587196589412829E-16, 3.000000000000000000 ) ) ;
#195 = LINE ( 'NONE', #307, #190 ) ;
#196 = FACE_OUTER_BOUND ( 'NONE', #222, .T. ) ;
#197 = AXIS2_PLACEMENT_3D ( 'NONE', #152, #357, #4 ) ;
#198 = DIRECTION ( 'NONE',  ( 0.000000000000000000, 0.000000000000000000, 1.000000000000000000 ) ) ;
#199 = AXIS2_PLACEMENT_3D ( 'NONE', #225, #335, #46 ) ;
#200 = CARTESIAN_POINT ( 'NONE',  ( 0.000000000000000000, 0.000000000000000000, 3.299999999999997158 ) ) ;
#201 = DESIGN_CONTEXT ( 'detailed design', #134, 'design' ) ;
#202 = ORIENTED_EDGE ( 'NONE', *, *, #140, .F. ) ;
#203 = ORIENTED_EDGE ( 'NONE', *, *, #29, .T. ) ;
#204 = EDGE_CURVE ( 'NONE', #358, #342, #253, .T. ) ;
#205 = EDGE_LOOP ( 'NONE', ( #231, #371, #87, #237 ) ) ;
#206 = VECTOR ( 'NONE', #51, 1000.000000000000000 ) ;
#207 = CARTESIAN_POINT ( 'NONE',  ( -1.100000000000000089, 0.000000000000000000, 128.0000000000000000 ) ) ;
#208 = VERTEX_POINT ( 'NONE', #164 ) ;
#209 = ADVANCED_FACE ( 'NONE', ( #11, #169 ), #103, .T. ) ;
#210 = VERTEX_POINT ( 'NONE', #366 ) ;
#211 = CARTESIAN_POINT ( 'NONE',  ( 0.000000000000000000, 0.000000000000000000, 128.0000000000000000 ) ) ;
#212 = APPROVAL_STATUS ( 'not_yet_approved' ) ;
#213 = LOCAL_TIME ( 17, 50, 51.00000000000000000, #337 ) ;
#214 = AXIS2_PLACEMENT_3D ( 'NONE', #211, #158, #215 ) ;
#215 = DIRECTION ( 'NONE',  ( 1.000000000000000000, 0.000000000000000000, 0.000000000000000000 ) ) ;
#216 = DIRECTION ( 'NONE',  ( 0.000000000000000000, 0.000000000000000000, 1.000000000000000000 ) ) ;
#217 = DIRECTION ( 'NONE',  ( -1.000000000000000000, 0.000000000000000000, 0.000000000000000000 ) ) ;
#218 = PERSON_AND_ORGANIZATION ( #339, #31 ) ;
#219 = DIRECTION ( 'NONE',  ( -1.000000000000000000, 0.000000000000000000, 0.000000000000000000 ) ) ;
#220 = AXIS2_PLACEMENT_3D ( 'NONE', #333, #154, #186 ) ;
#221 = AXIS2_PLACEMENT_3D ( 'NONE', #36, #100, #269 ) ;
#222 = EDGE_LOOP ( 'NONE', ( #76, #104, #112, #119 ) ) ;
#223 = AXIS2_PLACEMENT_3D ( 'NONE', #131, #52, #280 ) ;
#224 = CIRCLE ( 'NONE', #149, 1.100000000000000089 ) ;
#225 = CARTESIAN_POINT ( 'NONE',  ( 0.000000000000000000, 0.000000000000000000, 3.000000000000000000 ) ) ;
#226 = ORIENTED_EDGE ( 'NONE', *, *, #340, .T. ) ;
#227 = CIRCLE ( 'NONE', #44, 2.299999999999999822 ) ;
#228 = CYLINDRICAL_SURFACE ( 'NONE', #303, 1.100000000000000089 ) ;
#229 = CARTESIAN_POINT ( 'NONE',  ( -2.299999999999999822, 2.816687638038912056E-16, 2.999999999999998668 ) ) ;
#230 = ORIENTED_EDGE ( 'NONE', *, *, #368, .T. ) ;
#231 = ORIENTED_EDGE ( 'NONE', *, *, #108, .F. ) ;
#232 = CIRCLE ( 'NONE', #197, 0.2999999999999999334 ) ;
#233 = ORIENTED_EDGE ( 'NONE', *, *, #204, .T. ) ;
#234 = AXIS2_PLACEMENT_3D ( 'NONE', #200, #79, #317 ) ;
#235 = PERSON_AND_ORGANIZATION_ROLE ( 'design_supplier' ) ;
#236 = CIRCLE ( 'NONE', #111, 4.000000000000000000 ) ;
#237 = ORIENTED_EDGE ( 'NONE', *, *, #254, .F. ) ;
#238 = EDGE_CURVE ( 'NONE', #62, #208, #195, .T. ) ;
#239 = PERSON_AND_ORGANIZATION ( #339, #31 ) ;
#240 = FACE_OUTER_BOUND ( 'NONE', #122, .T. ) ;
#241 = PERSON_AND_ORGANIZATION ( #339, #31 ) ;
#242 = CYLINDRICAL_SURFACE ( 'NONE', #102, 4.000000000000000000 ) ;
#243 = DIRECTION ( 'NONE',  ( 1.000000000000000000, 0.000000000000000000, -0.000000000000000000 ) ) ;
#244 = PERSON_AND_ORGANIZATION_ROLE ( 'design_owner' ) ;
#245 = CARTESIAN_POINT ( 'NONE',  ( 0.000000000000000000, 0.000000000000000000, 128.0000000000000000 ) ) ;
#246 = AXIS2_PLACEMENT_3D ( 'NONE', #6, #127, #8 ) ;
#247 = CIRCLE ( 'NONE', #258, 2.299999999999999822 ) ;
#248 = ADVANCED_FACE ( 'NONE', ( #9 ), #16, .F. ) ;
#249 = PRODUCT_RELATED_PRODUCT_CATEGORY ( 'detail', '', ( #22 ) ) ;
#250 = LINE ( 'NONE', #194, #206 ) ;
#251 = ORIENTED_EDGE ( 'NONE', *, *, #15, .T. ) ;
#252 = CC_DESIGN_SECURITY_CLASSIFICATION ( #13, ( #75 ) ) ;
#253 = CIRCLE ( 'NONE', #90, 4.000000000000000000 ) ;
#254 = EDGE_CURVE ( 'NONE', #30, #375, #178, .T. ) ;
#255 = CARTESIAN_POINT ( 'NONE',  ( 4.000000000000000000, 4.898587196589412829E-16, 0.000000000000000000 ) ) ;
#256 = FACE_OUTER_BOUND ( 'NONE', #377, .T. ) ;
#257 = ORIENTED_EDGE ( 'NONE', *, *, #274, .F. ) ;
#258 = AXIS2_PLACEMENT_3D ( 'NONE', #313, #59, #107 ) ;
#259 = EDGE_CURVE ( 'NONE', #147, #290, #236, .T. ) ;
#260 = CARTESIAN_POINT ( 'NONE',  ( 0.000000000000000000, 0.000000000000000000, 3.299999999999997158 ) ) ;
#261 = ORIENTED_EDGE ( 'NONE', *, *, #254, .T. ) ;
#262 = ORIENTED_EDGE ( 'NONE', *, *, #54, .T. ) ;
#263 = APPLICATION_PROTOCOL_DEFINITION ( 'international standard', 'config_control_design', 1994, #352 ) ;
#264 = AXIS2_PLACEMENT_3D ( 'NONE', #97, #301, #243 ) ;
#265 = ADVANCED_FACE ( 'NONE', ( #196 ), #279, .F. ) ;
#266 = ORIENTED_EDGE ( 'NONE', *, *, #140, .T. ) ;
#267 = CC_DESIGN_APPROVAL ( #113, ( #75 ) ) ;
#268 = COORDINATED_UNIVERSAL_TIME_OFFSET ( 1, 0, .AHEAD. ) ;
#269 = DIRECTION ( 'NONE',  ( -1.000000000000000000, 1.224646799147353207E-16, 0.000000000000000000 ) ) ;
#270 = CARTESIAN_POINT ( 'NONE',  ( 0.000000000000000000, 0.000000000000000000, 0.000000000000000000 ) ) ;
#271 = CYLINDRICAL_SURFACE ( 'NONE', #68, 1.100000000000000089 ) ;
#272 = COORDINATED_UNIVERSAL_TIME_OFFSET ( 1, 0, .AHEAD. ) ;
#273 = PLANE ( 'NONE',  #264 ) ;
#274 = EDGE_CURVE ( 'NONE', #358, #290, #250, .T. ) ;
#275 = PERSON_AND_ORGANIZATION ( #339, #31 ) ;
#276 = CARTESIAN_POINT ( 'NONE',  ( 0.000000000000000000, 0.000000000000000000, 128.0000000000000000 ) ) ;
#277 = CYLINDRICAL_SURFACE ( 'NONE', #349, 2.000000000000000000 ) ;
#278 = DIRECTION ( 'NONE',  ( 1.000000000000000000, 0.000000000000000000, -0.000000000000000000 ) ) ;
#279 = TOROIDAL_SURFACE ( 'NONE', #223, 2.299999999999999822, 0.2999999999999999889 ) ;
#280 = DIRECTION ( 'NONE',  ( 1.000000000000000000, 0.000000000000000000, 0.000000000000000000 ) ) ;
#281 = DIRECTION ( 'NONE',  ( -1.000000000000000000, 0.000000000000000000, 0.000000000000000000 ) ) ;
#282 = EDGE_LOOP ( 'NONE', ( #135, #262, #230, #251 ) ) ;
#283 = CIRCLE ( 'NONE', #162, 2.000000000000000000 ) ;
#284 = ADVANCED_FACE ( 'NONE', ( #336, #309 ), #163, .T. ) ;
#285 = VERTEX_POINT ( 'NONE', #17 ) ;
#286 = DIRECTION ( 'NONE',  ( -1.000000000000000000, 0.000000000000000000, 0.000000000000000000 ) ) ;
#287 = EDGE_LOOP ( 'NONE', ( #168, #18, #266, #341 ) ) ;
#288 = CC_DESIGN_APPROVAL ( #139, ( #13 ) ) ;
#289 = CARTESIAN_POINT ( 'NONE',  ( 4.000000000000000000, 4.898587196589412829E-16, 3.000000000000000000 ) ) ;
#290 = VERTEX_POINT ( 'NONE', #255 ) ;
#291 = APPROVAL_ROLE ( '' ) ;
#292 = ORIENTED_EDGE ( 'NONE', *, *, #340, .F. ) ;
#293 = CALENDAR_DATE ( 2022, 8, 7 ) ;
#294 = DIRECTION ( 'NONE',  ( 1.000000000000000000, 0.000000000000000000, 0.000000000000000000 ) ) ;
#295 = PERSON_AND_ORGANIZATION_ROLE ( 'creator' ) ;
#296 = PRODUCT_DEFINITION_SHAPE ( 'NONE', 'NONE',  #160 ) ;
#297 = CARTESIAN_POINT ( 'NONE',  ( 0.000000000000000000, 0.000000000000000000, 128.0000000000000000 ) ) ;
#298 = PERSON_AND_ORGANIZATION ( #339, #31 ) ;
#299 = DIRECTION ( 'NONE',  ( 0.000000000000000000, 0.000000000000000000, 1.000000000000000000 ) ) ;
#300 = EDGE_CURVE ( 'NONE', #210, #351, #247, .T. ) ;
#301 = DIRECTION ( 'NONE',  ( 0.000000000000000000, 0.000000000000000000, 1.000000000000000000 ) ) ;
#302 = CC_DESIGN_PERSON_AND_ORGANIZATION_ASSIGNMENT ( #3, #235, ( #75 ) ) ;
#303 = AXIS2_PLACEMENT_3D ( 'NONE', #175, #320, #373 ) ;
#304 = LINE ( 'NONE', #327, #372 ) ;
#305 = ORIENTED_EDGE ( 'NONE', *, *, #368, .F. ) ;
#306 = EDGE_CURVE ( 'NONE', #342, #147, #14, .T. ) ;
#307 = CARTESIAN_POINT ( 'NONE',  ( 2.000000000000000000, 2.449293598294706414E-16, 128.0000000000000000 ) ) ;
#308 = ORIENTED_EDGE ( 'NONE', *, *, #153, .F. ) ;
#309 = FACE_OUTER_BOUND ( 'NONE', #50, .T. ) ;
#310 = CC_DESIGN_PERSON_AND_ORGANIZATION_ASSIGNMENT ( #275, #183, ( #160 ) ) ;
#311 = CARTESIAN_POINT ( 'NONE',  ( 0.000000000000000000, 0.000000000000000000, 3.000000000000000000 ) ) ;
#312 = MANIFOLD_SOLID_BREP ( 'Odebrat vysunutím3', #346 ) ;
#313 = CARTESIAN_POINT ( 'NONE',  ( 0.000000000000000000, 0.000000000000000000, 3.000000000000000000 ) ) ;
#314 = LOCAL_TIME ( 17, 50, 51.00000000000000000, #350 ) ;
#315 = DIRECTION ( 'NONE',  ( 1.000000000000000000, 0.000000000000000000, 0.000000000000000000 ) ) ;
#316 = ORIENTED_EDGE ( 'NONE', *, *, #259, .T. ) ;
#317 = DIRECTION ( 'NONE',  ( 1.000000000000000000, 0.000000000000000000, 0.000000000000000000 ) ) ;
#318 = CC_DESIGN_PERSON_AND_ORGANIZATION_ASSIGNMENT ( #25, #63, ( #13 ) ) ;
#319 = EDGE_LOOP ( 'NONE', ( #60, #145, #203, #117 ) ) ;
#320 = DIRECTION ( 'NONE',  ( 0.000000000000000000, 0.000000000000000000, -1.000000000000000000 ) ) ;
#321 = VERTEX_POINT ( 'NONE', #82 ) ;
#322 = AXIS2_PLACEMENT_3D ( 'NONE', #110, #114, #286 ) ;
#323 =( NAMED_UNIT ( * ) SI_UNIT ( $, .STERADIAN. ) SOLID_ANGLE_UNIT ( ) );
#324 = EDGE_LOOP ( 'NONE', ( #174, #92 ) ) ;
#325 = DIRECTION ( 'NONE',  ( -0.000000000000000000, -0.000000000000000000, -1.000000000000000000 ) ) ;
#326 = COORDINATED_UNIVERSAL_TIME_OFFSET ( 1, 0, .AHEAD. ) ;
#327 = CARTESIAN_POINT ( 'NONE',  ( 1.100000000000000089, 1.347111479062088503E-16, 128.0000000000000000 ) ) ;
#328 = VECTOR ( 'NONE', #144, 1000.000000000000000 ) ;
#329 = ADVANCED_FACE ( 'NONE', ( #256 ), #228, .F. ) ;
#330 = CARTESIAN_POINT ( 'NONE',  ( 0.000000000000000000, 0.000000000000000000, 3.000000000000000000 ) ) ;
#331 = FACE_OUTER_BOUND ( 'NONE', #282, .T. ) ;
#332 = CIRCLE ( 'NONE', #53, 1.100000000000000089 ) ;
#333 = CARTESIAN_POINT ( 'NONE',  ( 0.000000000000000000, 0.000000000000000000, 0.000000000000000000 ) ) ;
#334 = ADVANCED_FACE ( 'NONE', ( #55 ), #171, .T. ) ;
#335 = DIRECTION ( 'NONE',  ( 0.000000000000000000, 0.000000000000000000, 1.000000000000000000 ) ) ;
#336 = FACE_BOUND ( 'NONE', #89, .T. ) ;
#337 = COORDINATED_UNIVERSAL_TIME_OFFSET ( 1, 0, .AHEAD. ) ;
#338 = FACE_OUTER_BOUND ( 'NONE', #359, .T. ) ;
#339 = PERSON ( 'NEURÈENÝ', 'NEURÈENÝ', 'NEURÈENÝ', ('NEURÈENÝ'), ('NEURÈENÝ'), ('NEURÈENÝ') ) ;
#340 = EDGE_CURVE ( 'NONE', #142, #285, #109, .T. ) ;
#341 = ORIENTED_EDGE ( 'NONE', *, *, #306, .F. ) ;
#342 = VERTEX_POINT ( 'NONE', #369 ) ;
#343 = CARTESIAN_POINT ( 'NONE',  ( 0.000000000000000000, 0.000000000000000000, 0.000000000000000000 ) ) ;
#344 = DIRECTION ( 'NONE',  ( 0.000000000000000000, 0.000000000000000000, 1.000000000000000000 ) ) ;
#345 = ORIENTED_EDGE ( 'NONE', *, *, #146, .T. ) ;
#346 = CLOSED_SHELL ( 'NONE', ( #329, #265, #173, #121, #191, #209, #83, #334, #284, #248, #125 ) ) ;
#347 =( NAMED_UNIT ( * ) PLANE_ANGLE_UNIT ( ) SI_UNIT ( $, .RADIAN. ) );
#348 = EDGE_LOOP ( 'NONE', ( #58, #292 ) ) ;
#349 = AXIS2_PLACEMENT_3D ( 'NONE', #245, #94, #360 ) ;
#350 = COORDINATED_UNIVERSAL_TIME_OFFSET ( 1, 0, .AHEAD. ) ;
#351 = VERTEX_POINT ( 'NONE', #229 ) ;
#352 = APPLICATION_CONTEXT ( 'configuration controlled 3d designs of mechanical parts and assemblies' ) ;
#353 = CARTESIAN_POINT ( 'NONE',  ( 0.000000000000000000, 0.000000000000000000, 0.000000000000000000 ) ) ;
#354 = MECHANICAL_CONTEXT ( 'NONE', #352, 'mechanical' ) ;
#355 = DIRECTION ( 'NONE',  ( -0.000000000000000000, -0.000000000000000000, -1.000000000000000000 ) ) ;
#356 = DATE_AND_TIME ( #93, #165 ) ;
#357 = DIRECTION ( 'NONE',  ( 0.000000000000000000, -1.000000000000000000, 0.000000000000000000 ) ) ;
#358 = VERTEX_POINT ( 'NONE', #289 ) ;
#359 = EDGE_LOOP ( 'NONE', ( #257, #84, #374, #316 ) ) ;
#360 = DIRECTION ( 'NONE',  ( -1.000000000000000000, 0.000000000000000000, 0.000000000000000000 ) ) ;
#361 = DIRECTION ( 'NONE',  ( -0.000000000000000000, -0.000000000000000000, -1.000000000000000000 ) ) ;
#362 = ORIENTED_EDGE ( 'NONE', *, *, #380, .T. ) ;
#363 = CC_DESIGN_APPROVAL ( #132, ( #160 ) ) ;
#364 = CARTESIAN_POINT ( 'NONE',  ( 0.000000000000000000, 0.000000000000000000, 0.000000000000000000 ) ) ;
#365 = DIRECTION ( 'NONE',  ( 0.000000000000000000, 0.000000000000000000, 1.000000000000000000 ) ) ;
#366 = CARTESIAN_POINT ( 'NONE',  ( 2.299999999999999822, 0.000000000000000000, 2.999999999999998668 ) ) ;
#367 = EDGE_CURVE ( 'NONE', #208, #375, #170, .T. ) ;
#368 = EDGE_CURVE ( 'NONE', #321, #285, #57, .T. ) ;
#369 = CARTESIAN_POINT ( 'NONE',  ( -4.000000000000000000, 0.000000000000000000, 3.000000000000000000 ) ) ;
#370 = LOCAL_TIME ( 17, 50, 51.00000000000000000, #272 ) ;
#371 = ORIENTED_EDGE ( 'NONE', *, *, #238, .T. ) ;
#372 = VECTOR ( 'NONE', #123, 1000.000000000000000 ) ;
#373 = DIRECTION ( 'NONE',  ( -1.000000000000000000, 0.000000000000000000, 0.000000000000000000 ) ) ;
#374 = ORIENTED_EDGE ( 'NONE', *, *, #306, .T. ) ;
#375 = VERTEX_POINT ( 'NONE', #177 ) ;
#376 = APPROVAL_ROLE ( '' ) ;
#377 = EDGE_LOOP ( 'NONE', ( #362, #345, #226, #305 ) ) ;
#378 = DATE_TIME_ROLE ( 'classification_date' ) ;
#379 = DIRECTION ( 'NONE',  ( 1.000000000000000000, 0.000000000000000000, 0.000000000000000000 ) ) ;
#380 = EDGE_CURVE ( 'NONE', #321, #64, #224, .T. ) ;
#381 = CALENDAR_DATE ( 2022, 8, 7 ) ;
ENDSEC;
END-ISO-10303-21;
