ISO-10303-21;
HEADER;
FILE_DESCRIPTION (( 'STEP AP203' ),
    '1' );
FILE_NAME ('e2f4.STEP',
    '2022-07-08T15:12:34',
    ( '' ),
    ( '' ),
    'SwSTEP 2.0',
    'SolidWorks 2019',
    '' );
FILE_SCHEMA (( 'CONFIG_CONTROL_DESIGN' ));
ENDSEC;

DATA;
#1 = CARTESIAN_POINT ( 'NONE',  ( 0.000000000000000000, 0.000000000000000000, 7.500000000000007105 ) ) ;
#2 = CARTESIAN_POINT ( 'NONE',  ( 10.00000000000000000, 1.224646799147353256E-15, 7.000000000000000000 ) ) ;
#3 = AXIS2_PLACEMENT_3D ( 'NONE', #119, #242, #204 ) ;
#4 = CC_DESIGN_PERSON_AND_ORGANIZATION_ASSIGNMENT ( #29, #118, ( #298 ) ) ;
#5 = AXIS2_PLACEMENT_3D ( 'NONE', #377, #16, #135 ) ;
#6 = DIRECTION ( 'NONE',  ( -1.000000000000000000, 0.000000000000000000, 0.000000000000000000 ) ) ;
#7 = ORIENTED_EDGE ( 'NONE', *, *, #199, .F. ) ;
#8 = EDGE_LOOP ( 'NONE', ( #254, #286 ) ) ;
#9 = DESIGN_CONTEXT ( 'detailed design', #206, 'design' ) ;
#10 = CC_DESIGN_APPROVAL ( #334, ( #79 ) ) ;
#11 = CARTESIAN_POINT ( 'NONE',  ( 6.500000000000000888, 0.000000000000000000, 7.000000000000002665 ) ) ;
#12 = VERTEX_POINT ( 'NONE', #2 ) ;
#13 = DIRECTION ( 'NONE',  ( -0.000000000000000000, -0.000000000000000000, -1.000000000000000000 ) ) ;
#14 = AXIS2_PLACEMENT_3D ( 'NONE', #241, #294, #61 ) ;
#15 = EDGE_CURVE ( 'NONE', #340, #52, #363, .T. ) ;
#16 = DIRECTION ( 'NONE',  ( -0.000000000000000000, -0.000000000000000000, -1.000000000000000000 ) ) ;
#17 = LOCAL_TIME ( 17, 12, 34.00000000000000000, #320 ) ;
#18 = CARTESIAN_POINT ( 'NONE',  ( 0.000000000000000000, 0.000000000000000000, 0.000000000000000000 ) ) ;
#19 = ORIENTED_EDGE ( 'NONE', *, *, #178, .F. ) ;
#20 =( LENGTH_UNIT ( ) NAMED_UNIT ( * ) SI_UNIT ( .MILLI., .METRE. ) );
#21 = EDGE_CURVE ( 'NONE', #83, #65, #274, .T. ) ;
#22 = ORIENTED_EDGE ( 'NONE', *, *, #283, .F. ) ;
#23 = PERSON_AND_ORGANIZATION ( #263, #104 ) ;
#24 = EDGE_LOOP ( 'NONE', ( #27, #158 ) ) ;
#25 = AXIS2_PLACEMENT_3D ( 'NONE', #335, #62, #6 ) ;
#26 = DIRECTION ( 'NONE',  ( 1.000000000000000000, 0.000000000000000000, 0.000000000000000000 ) ) ;
#27 = ORIENTED_EDGE ( 'NONE', *, *, #231, .F. ) ;
#28 = ADVANCED_FACE ( 'NONE', ( #355 ), #272, .T. ) ;
#29 = PERSON_AND_ORGANIZATION ( #263, #104 ) ;
#30 = LOCAL_TIME ( 17, 12, 34.00000000000000000, #375 ) ;
#31 = CARTESIAN_POINT ( 'NONE',  ( 0.000000000000000000, 0.000000000000000000, 257.0000000000000000 ) ) ;
#32 = DIRECTION ( 'NONE',  ( 1.000000000000000000, 0.000000000000000000, 0.000000000000000000 ) ) ;
#33 = DIRECTION ( 'NONE',  ( 1.000000000000000000, 0.000000000000000000, 0.000000000000000000 ) ) ;
#34 = CARTESIAN_POINT ( 'NONE',  ( -2.500000000000000000, 0.000000000000000000, 0.000000000000000000 ) ) ;
#35 = EDGE_LOOP ( 'NONE', ( #108, #146, #45, #236 ) ) ;
#36 = DIRECTION ( 'NONE',  ( 1.000000000000000000, 0.000000000000000000, 0.000000000000000000 ) ) ;
#37 = VERTEX_POINT ( 'NONE', #93 ) ;
#38 = CARTESIAN_POINT ( 'NONE',  ( 0.000000000000000000, 0.000000000000000000, 7.000000000000000000 ) ) ;
#39 = AXIS2_PLACEMENT_3D ( 'NONE', #131, #250, #367 ) ;
#40 = ADVANCED_FACE ( 'NONE', ( #212 ), #296, .T. ) ;
#41 = FACE_OUTER_BOUND ( 'NONE', #376, .T. ) ;
#42 = ORIENTED_EDGE ( 'NONE', *, *, #178, .T. ) ;
#43 = CARTESIAN_POINT ( 'NONE',  ( -2.500000000000000000, 0.000000000000000000, 257.0000000000000000 ) ) ;
#44 = LOCAL_TIME ( 17, 12, 34.00000000000000000, #373 ) ;
#45 = ORIENTED_EDGE ( 'NONE', *, *, #140, .F. ) ;
#46 = CIRCLE ( 'NONE', #152, 6.500000000000000888 ) ;
#47 = PERSON_AND_ORGANIZATION ( #263, #104 ) ;
#48 = EDGE_CURVE ( 'NONE', #12, #80, #154, .T. ) ;
#49 = PLANE ( 'NONE',  #138 ) ;
#50 = EDGE_LOOP ( 'NONE', ( #166, #171, #76, #290 ) ) ;
#51 = DIRECTION ( 'NONE',  ( 0.000000000000000000, 0.000000000000000000, -1.000000000000000000 ) ) ;
#52 = VERTEX_POINT ( 'NONE', #91 ) ;
#53 = EDGE_LOOP ( 'NONE', ( #7, #316, #192, #160 ) ) ;
#54 = AXIS2_PLACEMENT_3D ( 'NONE', #128, #100, #218 ) ;
#55 = DIRECTION ( 'NONE',  ( -0.000000000000000000, -0.000000000000000000, -1.000000000000000000 ) ) ;
#56 = AXIS2_PLACEMENT_3D ( 'NONE', #176, #153, #327 ) ;
#57 = PERSON_AND_ORGANIZATION_ROLE ( 'creator' ) ;
#58 = DIRECTION ( 'NONE',  ( 1.224646799147353207E-16, 1.000000000000000000, -0.000000000000000000 ) ) ;
#59 = CIRCLE ( 'NONE', #358, 2.500000000000000000 ) ;
#60 = FACE_OUTER_BOUND ( 'NONE', #35, .T. ) ;
#61 = DIRECTION ( 'NONE',  ( 1.000000000000000000, 0.000000000000000000, 0.000000000000000000 ) ) ;
#62 = DIRECTION ( 'NONE',  ( 0.000000000000000000, 0.000000000000000000, -1.000000000000000000 ) ) ;
#63 = CC_DESIGN_APPROVAL ( #66, ( #148 ) ) ;
#64 = FACE_OUTER_BOUND ( 'NONE', #257, .T. ) ;
#65 = VERTEX_POINT ( 'NONE', #175 ) ;
#66 = APPROVAL ( #209, 'NEURÈENÝ' ) ;
#67 = FACE_BOUND ( 'NONE', #8, .T. ) ;
#68 = CARTESIAN_POINT ( 'NONE',  ( -6.500000000000000888, 7.960204194457796463E-16, 7.000000000000002665 ) ) ;
#69 = COORDINATED_UNIVERSAL_TIME_OFFSET ( 1, 0, .AHEAD. ) ;
#70 = AXIS2_PLACEMENT_3D ( 'NONE', #324, #58, #179 ) ;
#71 = EDGE_CURVE ( 'NONE', #310, #12, #318, .T. ) ;
#72 = APPROVAL_STATUS ( 'not_yet_approved' ) ;
#73 = ORIENTED_EDGE ( 'NONE', *, *, #366, .T. ) ;
#74 = APPROVAL_STATUS ( 'not_yet_approved' ) ;
#75 = CYLINDRICAL_SURFACE ( 'NONE', #203, 2.500000000000000000 ) ;
#76 = ORIENTED_EDGE ( 'NONE', *, *, #288, .T. ) ;
#77 = EDGE_CURVE ( 'NONE', #136, #194, #301, .T. ) ;
#78 = DIRECTION ( 'NONE',  ( 1.000000000000000000, 0.000000000000000000, 0.000000000000000000 ) ) ;
#79 = SECURITY_CLASSIFICATION ( '', '', #223 ) ;
#80 = VERTEX_POINT ( 'NONE', #268 ) ;
#81 = APPROVAL_DATE_TIME ( #195, #273 ) ;
#82 = FACE_BOUND ( 'NONE', #314, .T. ) ;
#83 = VERTEX_POINT ( 'NONE', #322 ) ;
#84 = ADVANCED_FACE ( 'NONE', ( #60 ), #155, .F. ) ;
#85 = CARTESIAN_POINT ( 'NONE',  ( 0.000000000000000000, 0.000000000000000000, 7.500000000000007105 ) ) ;
#86 = DIRECTION ( 'NONE',  ( 1.000000000000000000, 0.000000000000000000, 0.000000000000000000 ) ) ;
#87 = APPROVAL_DATE_TIME ( #122, #66 ) ;
#88 = DIRECTION ( 'NONE',  ( 0.000000000000000000, 0.000000000000000000, -1.000000000000000000 ) ) ;
#89 = EDGE_CURVE ( 'NONE', #214, #238, #183, .T. ) ;
#90 = CLOSED_SHELL ( 'NONE', ( #342, #84, #279, #28, #374, #217, #319, #40, #205, #129, #253 ) ) ;
#91 = CARTESIAN_POINT ( 'NONE',  ( 6.000000000000000888, 7.347880794884120722E-16, 7.500000000000007105 ) ) ;
#92 = CIRCLE ( 'NONE', #54, 2.500000000000000000 ) ;
#93 = CARTESIAN_POINT ( 'NONE',  ( -2.500000000000000000, 0.000000000000000000, 257.0000000000000000 ) ) ;
#94 = CARTESIAN_POINT ( 'NONE',  ( 0.000000000000000000, 0.000000000000000000, 0.000000000000000000 ) ) ;
#95 = DIRECTION ( 'NONE',  ( 0.000000000000000000, 0.000000000000000000, 1.000000000000000000 ) ) ;
#96 = EDGE_CURVE ( 'NONE', #52, #194, #215, .T. ) ;
#97 = ORIENTED_EDGE ( 'NONE', *, *, #21, .T. ) ;
#98 = CC_DESIGN_APPROVAL ( #273, ( #222 ) ) ;
#99 = EDGE_LOOP ( 'NONE', ( #251, #278 ) ) ;
#100 = DIRECTION ( 'NONE',  ( 0.000000000000000000, 0.000000000000000000, 1.000000000000000000 ) ) ;
#101 = EDGE_CURVE ( 'NONE', #340, #136, #147, .T. ) ;
#102 = APPROVAL_ROLE ( '' ) ;
#103 = DIRECTION ( 'NONE',  ( 0.000000000000000000, 0.000000000000000000, -1.000000000000000000 ) ) ;
#104 = ORGANIZATION ( 'NEURÈENÝ', 'NEURÈENÝ', '' ) ;
#105 = CARTESIAN_POINT ( 'NONE',  ( 0.000000000000000000, 0.000000000000000000, 257.0000000000000000 ) ) ;
#106 = ORIENTED_EDGE ( 'NONE', *, *, #259, .T. ) ;
#107 = DIRECTION ( 'NONE',  ( 1.000000000000000000, 0.000000000000000000, 0.000000000000000000 ) ) ;
#108 = ORIENTED_EDGE ( 'NONE', *, *, #15, .F. ) ;
#109 = DATE_AND_TIME ( #368, #44 ) ;
#110 = DIRECTION ( 'NONE',  ( -0.000000000000000000, -0.000000000000000000, -1.000000000000000000 ) ) ;
#111 = ORIENTED_EDGE ( 'NONE', *, *, #71, .T. ) ;
#112 = PERSON_AND_ORGANIZATION ( #263, #104 ) ;
#113 = VECTOR ( 'NONE', #364, 1000.000000000000000 ) ;
#114 = ORIENTED_EDGE ( 'NONE', *, *, #182, .T. ) ;
#115 =( NAMED_UNIT ( * ) SI_UNIT ( $, .STERADIAN. ) SOLID_ANGLE_UNIT ( ) );
#116 = ORIENTED_EDGE ( 'NONE', *, *, #101, .F. ) ;
#117 = EDGE_CURVE ( 'NONE', #306, #37, #326, .T. ) ;
#118 = PERSON_AND_ORGANIZATION_ROLE ( 'design_owner' ) ;
#119 = CARTESIAN_POINT ( 'NONE',  ( 0.000000000000000000, 0.000000000000000000, 7.000000000000000000 ) ) ;
#120 = DIRECTION ( 'NONE',  ( 0.000000000000000000, 0.000000000000000000, 1.000000000000000000 ) ) ;
#121 = APPROVAL_PERSON_ORGANIZATION ( #239, #66, #354 ) ;
#122 = DATE_AND_TIME ( #270, #17 ) ;
#123 = EDGE_CURVE ( 'NONE', #80, #167, #172, .T. ) ;
#124 = DIRECTION ( 'NONE',  ( 1.000000000000000000, 0.000000000000000000, 0.000000000000000000 ) ) ;
#125 = VECTOR ( 'NONE', #55, 1000.000000000000000 ) ;
#126 = VECTOR ( 'NONE', #235, 1000.000000000000000 ) ;
#127 = APPROVAL_PERSON_ORGANIZATION ( #23, #334, #197 ) ;
#128 = CARTESIAN_POINT ( 'NONE',  ( 0.000000000000000000, 0.000000000000000000, 257.0000000000000000 ) ) ;
#129 = ADVANCED_FACE ( 'NONE', ( #64 ), #311, .F. ) ;
#130 = DIRECTION ( 'NONE',  ( 1.000000000000000000, 0.000000000000000000, -0.000000000000000000 ) ) ;
#131 = CARTESIAN_POINT ( 'NONE',  ( 0.000000000000000000, 0.000000000000000000, 7.000000000000000000 ) ) ;
#132 = CC_DESIGN_PERSON_AND_ORGANIZATION_ASSIGNMENT ( #112, #348, ( #222 ) ) ;
#133 = DIRECTION ( 'NONE',  ( 1.000000000000000000, 0.000000000000000000, 0.000000000000000000 ) ) ;
#134 = ORIENTED_EDGE ( 'NONE', *, *, #48, .F. ) ;
#135 = DIRECTION ( 'NONE',  ( -1.000000000000000000, 0.000000000000000000, 0.000000000000000000 ) ) ;
#136 = VERTEX_POINT ( 'NONE', #68 ) ;
#137 = DATE_TIME_ROLE ( 'creation_date' ) ;
#138 = AXIS2_PLACEMENT_3D ( 'NONE', #226, #200, #341 ) ;
#139 = CARTESIAN_POINT ( 'NONE',  ( -10.00000000000000000, 0.000000000000000000, 7.000000000000000000 ) ) ;
#140 = EDGE_CURVE ( 'NONE', #194, #136, #46, .T. ) ;
#141 = CARTESIAN_POINT ( 'NONE',  ( -6.000000000000000888, 0.000000000000000000, 7.500000000000007105 ) ) ;
#142 = ORIENTED_EDGE ( 'NONE', *, *, #96, .T. ) ;
#143 = AXIS2_PLACEMENT_3D ( 'NONE', #356, #299, #149 ) ;
#144 =( NAMED_UNIT ( * ) PLANE_ANGLE_UNIT ( ) SI_UNIT ( $, .RADIAN. ) );
#145 = LOCAL_TIME ( 17, 12, 34.00000000000000000, #69 ) ;
#146 = ORIENTED_EDGE ( 'NONE', *, *, #101, .T. ) ;
#147 = CIRCLE ( 'NONE', #70, 0.5000000000000004441 ) ;
#148 = PRODUCT_DEFINITION ( 'NEZNÁMÝ', '', #222, #9 ) ;
#149 = DIRECTION ( 'NONE',  ( 1.000000000000000000, 0.000000000000000000, 0.000000000000000000 ) ) ;
#150 = APPLICATION_PROTOCOL_DEFINITION ( 'international standard', 'config_control_design', 1994, #206 ) ;
#151 = DIRECTION ( 'NONE',  ( 0.000000000000000000, 0.000000000000000000, 1.000000000000000000 ) ) ;
#152 = AXIS2_PLACEMENT_3D ( 'NONE', #38, #13, #133 ) ;
#153 = DIRECTION ( 'NONE',  ( -0.000000000000000000, -0.000000000000000000, -1.000000000000000000 ) ) ;
#154 = LINE ( 'NONE', #321, #125 ) ;
#155 = TOROIDAL_SURFACE ( 'NONE', #353, 6.500000000000000888, 0.5000000000000000000 ) ;
#156 = CARTESIAN_POINT ( 'NONE',  ( 0.000000000000000000, 0.000000000000000000, 257.0000000000000000 ) ) ;
#157 = DIRECTION ( 'NONE',  ( 0.000000000000000000, 0.000000000000000000, 1.000000000000000000 ) ) ;
#158 = ORIENTED_EDGE ( 'NONE', *, *, #117, .F. ) ;
#159 = DIRECTION ( 'NONE',  ( 1.000000000000000000, 0.000000000000000000, 0.000000000000000000 ) ) ;
#160 = ORIENTED_EDGE ( 'NONE', *, *, #89, .T. ) ;
#161 = UNCERTAINTY_MEASURE_WITH_UNIT (LENGTH_MEASURE( 1.000000000000000082E-05 ), #20, 'distance_accuracy_value', 'NONE');
#162 = CC_DESIGN_PERSON_AND_ORGANIZATION_ASSIGNMENT ( #193, #307, ( #79 ) ) ;
#163 = FACE_OUTER_BOUND ( 'NONE', #201, .T. ) ;
#164 = VECTOR ( 'NONE', #103, 1000.000000000000000 ) ;
#165 = FACE_OUTER_BOUND ( 'NONE', #99, .T. ) ;
#166 = ORIENTED_EDGE ( 'NONE', *, *, #182, .F. ) ;
#167 = VERTEX_POINT ( 'NONE', #337 ) ;
#168 = COORDINATED_UNIVERSAL_TIME_OFFSET ( 1, 0, .AHEAD. ) ;
#169 = FACE_OUTER_BOUND ( 'NONE', #292, .T. ) ;
#170 = DIRECTION ( 'NONE',  ( -1.000000000000000000, 0.000000000000000000, 0.000000000000000000 ) ) ;
#171 = ORIENTED_EDGE ( 'NONE', *, *, #21, .F. ) ;
#172 = CIRCLE ( 'NONE', #346, 10.00000000000000000 ) ;
#173 = ORIENTED_EDGE ( 'NONE', *, *, #89, .F. ) ;
#174 = APPLICATION_CONTEXT ( 'configuration controlled 3d designs of mechanical parts and assemblies' ) ;
#175 = CARTESIAN_POINT ( 'NONE',  ( 6.000000000000000888, 7.347880794884120722E-16, 257.0000000000000000 ) ) ;
#176 = CARTESIAN_POINT ( 'NONE',  ( 0.000000000000000000, 0.000000000000000000, 257.0000000000000000 ) ) ;
#177 = AXIS2_PLACEMENT_3D ( 'NONE', #85, #211, #86 ) ;
#178 = EDGE_CURVE ( 'NONE', #238, #214, #59, .T. ) ;
#179 = DIRECTION ( 'NONE',  ( -1.000000000000000000, 1.224646799147351482E-16, 0.000000000000000000 ) ) ;
#180 = AXIS2_PLACEMENT_3D ( 'NONE', #198, #313, #170 ) ;
#181 = CARTESIAN_POINT ( 'NONE',  ( 0.000000000000000000, 0.000000000000000000, 0.000000000000000000 ) ) ;
#182 = EDGE_CURVE ( 'NONE', #65, #52, #280, .T. ) ;
#183 = CIRCLE ( 'NONE', #240, 2.500000000000000000 ) ;
#184 = DIRECTION ( 'NONE',  ( 0.000000000000000000, 0.000000000000000000, 1.000000000000000000 ) ) ;
#185 = ORIENTED_EDGE ( 'NONE', *, *, #199, .T. ) ;
#186 = EDGE_CURVE ( 'NONE', #65, #83, #365, .T. ) ;
#187 = DIRECTION ( 'NONE',  ( 0.000000000000000000, 0.000000000000000000, 1.000000000000000000 ) ) ;
#188 = ORIENTED_EDGE ( 'NONE', *, *, #259, .F. ) ;
#189 = DIRECTION ( 'NONE',  ( -0.000000000000000000, -0.000000000000000000, -1.000000000000000000 ) ) ;
#190 = SHAPE_DEFINITION_REPRESENTATION ( #237, #228 ) ;
#191 = PLANE ( 'NONE',  #210 ) ;
#192 = ORIENTED_EDGE ( 'NONE', *, *, #360, .T. ) ;
#193 = PERSON_AND_ORGANIZATION ( #263, #104 ) ;
#194 = VERTEX_POINT ( 'NONE', #11 ) ;
#195 = DATE_AND_TIME ( #233, #30 ) ;
#196 = DIRECTION ( 'NONE',  ( -1.000000000000000000, 0.000000000000000000, 0.000000000000000000 ) ) ;
#197 = APPROVAL_ROLE ( '' ) ;
#198 = CARTESIAN_POINT ( 'NONE',  ( 0.000000000000000000, 0.000000000000000000, 7.000000000000000000 ) ) ;
#199 = EDGE_CURVE ( 'NONE', #306, #238, #247, .T. ) ;
#200 = DIRECTION ( 'NONE',  ( 0.000000000000000000, 0.000000000000000000, 1.000000000000000000 ) ) ;
#201 = EDGE_LOOP ( 'NONE', ( #97, #308 ) ) ;
#202 = ORIENTED_EDGE ( 'NONE', *, *, #302, .T. ) ;
#203 = AXIS2_PLACEMENT_3D ( 'NONE', #105, #51, #196 ) ;
#204 = DIRECTION ( 'NONE',  ( -1.000000000000000000, 0.000000000000000000, 0.000000000000000000 ) ) ;
#205 = ADVANCED_FACE ( 'NONE', ( #220, #163 ), #191, .T. ) ;
#206 = APPLICATION_CONTEXT ( 'configuration controlled 3d designs of mechanical parts and assemblies' ) ;
#207 = PERSON_AND_ORGANIZATION ( #263, #104 ) ;
#208 = ORIENTED_EDGE ( 'NONE', *, *, #231, .T. ) ;
#209 = APPROVAL_STATUS ( 'not_yet_approved' ) ;
#210 = AXIS2_PLACEMENT_3D ( 'NONE', #156, #332, #130 ) ;
#211 = DIRECTION ( 'NONE',  ( 0.000000000000000000, 0.000000000000000000, 1.000000000000000000 ) ) ;
#212 = FACE_OUTER_BOUND ( 'NONE', #50, .T. ) ;
#213 = CARTESIAN_POINT ( 'NONE',  ( 0.000000000000000000, 0.000000000000000000, 0.000000000000000000 ) ) ;
#214 = VERTEX_POINT ( 'NONE', #34 ) ;
#215 = CIRCLE ( 'NONE', #269, 0.5000000000000004441 ) ;
#216 = CARTESIAN_POINT ( 'NONE',  ( 2.500000000000000000, 3.061616997868383141E-16, 257.0000000000000000 ) ) ;
#217 = ADVANCED_FACE ( 'NONE', ( #67, #331 ), #304, .T. ) ;
#218 = DIRECTION ( 'NONE',  ( 1.000000000000000000, 0.000000000000000000, 0.000000000000000000 ) ) ;
#219 = DATE_AND_TIME ( #370, #330 ) ;
#220 = FACE_BOUND ( 'NONE', #24, .T. ) ;
#221 = CIRCLE ( 'NONE', #249, 10.00000000000000000 ) ;
#222 = PRODUCT_DEFINITION_FORMATION_WITH_SPECIFIED_SOURCE ( 'LIBOVOLNÝ', '', #298, .NOT_KNOWN. ) ;
#223 = SECURITY_CLASSIFICATION_LEVEL ( 'unclassified' ) ;
#224 = CC_DESIGN_PERSON_AND_ORGANIZATION_ASSIGNMENT ( #207, #57, ( #148 ) ) ;
#225 = DIRECTION ( 'NONE',  ( 0.000000000000000000, 0.000000000000000000, -1.000000000000000000 ) ) ;
#226 = CARTESIAN_POINT ( 'NONE',  ( 0.000000000000000000, 0.000000000000000000, 0.000000000000000000 ) ) ;
#227 = DATE_TIME_ROLE ( 'classification_date' ) ;
#228 = ADVANCED_BREP_SHAPE_REPRESENTATION ( 'e2f4', ( #266, #255 ), #287 ) ;
#229 = CARTESIAN_POINT ( 'NONE',  ( 2.500000000000000000, 3.061616997868383141E-16, 257.0000000000000000 ) ) ;
#230 = ORIENTED_EDGE ( 'NONE', *, *, #123, .T. ) ;
#231 = EDGE_CURVE ( 'NONE', #37, #306, #92, .T. ) ;
#232 = AXIS2_PLACEMENT_3D ( 'NONE', #244, #95, #303 ) ;
#233 = CALENDAR_DATE ( 2022, 8, 7 ) ;
#234 = CC_DESIGN_SECURITY_CLASSIFICATION ( #79, ( #222 ) ) ;
#235 = DIRECTION ( 'NONE',  ( -0.000000000000000000, -0.000000000000000000, -1.000000000000000000 ) ) ;
#236 = ORIENTED_EDGE ( 'NONE', *, *, #96, .F. ) ;
#237 = PRODUCT_DEFINITION_SHAPE ( 'NONE', 'NONE',  #148 ) ;
#238 = VERTEX_POINT ( 'NONE', #361 ) ;
#239 = PERSON_AND_ORGANIZATION ( #263, #104 ) ;
#240 = AXIS2_PLACEMENT_3D ( 'NONE', #181, #300, #271 ) ;
#241 = CARTESIAN_POINT ( 'NONE',  ( 0.000000000000000000, 0.000000000000000000, 7.000000000000000000 ) ) ;
#242 = DIRECTION ( 'NONE',  ( -0.000000000000000000, -0.000000000000000000, -1.000000000000000000 ) ) ;
#243 = AXIS2_PLACEMENT_3D ( 'NONE', #245, #305, #256 ) ;
#244 = CARTESIAN_POINT ( 'NONE',  ( 0.000000000000000000, 0.000000000000000000, 7.500000000000007105 ) ) ;
#245 = CARTESIAN_POINT ( 'NONE',  ( 0.000000000000000000, 0.000000000000000000, 7.000000000000000000 ) ) ;
#246 = EDGE_LOOP ( 'NONE', ( #188, #282, #230, #22 ) ) ;
#247 = LINE ( 'NONE', #216, #164 ) ;
#248 = VECTOR ( 'NONE', #225, 1000.000000000000000 ) ;
#249 = AXIS2_PLACEMENT_3D ( 'NONE', #18, #258, #107 ) ;
#250 = DIRECTION ( 'NONE',  ( 0.000000000000000000, 0.000000000000000000, 1.000000000000000000 ) ) ;
#251 = ORIENTED_EDGE ( 'NONE', *, *, #302, .F. ) ;
#252 = ORIENTED_EDGE ( 'NONE', *, *, #71, .F. ) ;
#253 = ADVANCED_FACE ( 'NONE', ( #328 ), #277, .F. ) ;
#254 = ORIENTED_EDGE ( 'NONE', *, *, #140, .T. ) ;
#255 = AXIS2_PLACEMENT_3D ( 'NONE', #317, #120, #26 ) ;
#256 = DIRECTION ( 'NONE',  ( 1.000000000000000000, 0.000000000000000000, 0.000000000000000000 ) ) ;
#257 = EDGE_LOOP ( 'NONE', ( #116, #345, #142, #350 ) ) ;
#258 = DIRECTION ( 'NONE',  ( 0.000000000000000000, 0.000000000000000000, 1.000000000000000000 ) ) ;
#259 = EDGE_CURVE ( 'NONE', #12, #310, #297, .T. ) ;
#260 = EDGE_LOOP ( 'NONE', ( #111, #106 ) ) ;
#261 = DATE_AND_TIME ( #312, #145 ) ;
#262 = ORIENTED_EDGE ( 'NONE', *, *, #360, .F. ) ;
#263 = PERSON ( 'NEURÈENÝ', 'NEURÈENÝ', 'NEURÈENÝ', ('NEURÈENÝ'), ('NEURÈENÝ'), ('NEURÈENÝ') ) ;
#264 = AXIS2_PLACEMENT_3D ( 'NONE', #31, #184, #33 ) ;
#265 = EDGE_LOOP ( 'NONE', ( #208, #185, #42, #262 ) ) ;
#266 = MANIFOLD_SOLID_BREP ( 'Odebrat vysunutím3', #90 ) ;
#267 = APPLICATION_PROTOCOL_DEFINITION ( 'international standard', 'config_control_design', 1994, #174 ) ;
#268 = CARTESIAN_POINT ( 'NONE',  ( 10.00000000000000000, 1.224646799147353256E-15, 0.000000000000000000 ) ) ;
#269 = AXIS2_PLACEMENT_3D ( 'NONE', #381, #357, #88 ) ;
#270 = CALENDAR_DATE ( 2022, 8, 7 ) ;
#271 = DIRECTION ( 'NONE',  ( 1.000000000000000000, 0.000000000000000000, 0.000000000000000000 ) ) ;
#272 = CYLINDRICAL_SURFACE ( 'NONE', #3, 10.00000000000000000 ) ;
#273 = APPROVAL ( #72, 'NEURÈENÝ' ) ;
#274 = CIRCLE ( 'NONE', #378, 6.000000000000000888 ) ;
#275 = CIRCLE ( 'NONE', #347, 6.000000000000000888 ) ;
#276 = CARTESIAN_POINT ( 'NONE',  ( 0.000000000000000000, 0.000000000000000000, 257.0000000000000000 ) ) ;
#277 = CYLINDRICAL_SURFACE ( 'NONE', #25, 2.500000000000000000 ) ;
#278 = ORIENTED_EDGE ( 'NONE', *, *, #123, .F. ) ;
#279 = ADVANCED_FACE ( 'NONE', ( #41 ), #309, .T. ) ;
#280 = LINE ( 'NONE', #369, #113 ) ;
#281 = DIRECTION ( 'NONE',  ( 1.000000000000000000, 0.000000000000000000, 0.000000000000000000 ) ) ;
#282 = ORIENTED_EDGE ( 'NONE', *, *, #48, .T. ) ;
#283 = EDGE_CURVE ( 'NONE', #310, #167, #285, .T. ) ;
#284 = CARTESIAN_POINT ( 'NONE',  ( 0.000000000000000000, 0.000000000000000000, 7.500000000000007105 ) ) ;
#285 = LINE ( 'NONE', #139, #291 ) ;
#286 = ORIENTED_EDGE ( 'NONE', *, *, #77, .T. ) ;
#287 =( GEOMETRIC_REPRESENTATION_CONTEXT ( 3 ) GLOBAL_UNCERTAINTY_ASSIGNED_CONTEXT ( ( #161 ) ) GLOBAL_UNIT_ASSIGNED_CONTEXT ( ( #20, #144, #115 ) ) REPRESENTATION_CONTEXT ( 'NONE', 'WORKASPACE' ) );
#288 = EDGE_CURVE ( 'NONE', #83, #340, #351, .T. ) ;
#289 = LINE ( 'NONE', #43, #248 ) ;
#290 = ORIENTED_EDGE ( 'NONE', *, *, #15, .T. ) ;
#291 = VECTOR ( 'NONE', #110, 1000.000000000000000 ) ;
#292 = EDGE_LOOP ( 'NONE', ( #134, #252, #352, #202 ) ) ;
#293 = CC_DESIGN_PERSON_AND_ORGANIZATION_ASSIGNMENT ( #343, #338, ( #222 ) ) ;
#294 = DIRECTION ( 'NONE',  ( 0.000000000000000000, 0.000000000000000000, 1.000000000000000000 ) ) ;
#295 = CC_DESIGN_DATE_AND_TIME_ASSIGNMENT ( #219, #137, ( #148 ) ) ;
#296 = CYLINDRICAL_SURFACE ( 'NONE', #56, 6.000000000000000888 ) ;
#297 = CIRCLE ( 'NONE', #243, 10.00000000000000000 ) ;
#298 = PRODUCT ( 'e2f4', 'e2f4', '', ( #323 ) ) ;
#299 = DIRECTION ( 'NONE',  ( -0.000000000000000000, -0.000000000000000000, -1.000000000000000000 ) ) ;
#300 = DIRECTION ( 'NONE',  ( -0.000000000000000000, -0.000000000000000000, -1.000000000000000000 ) ) ;
#301 = CIRCLE ( 'NONE', #143, 6.500000000000000888 ) ;
#302 = EDGE_CURVE ( 'NONE', #167, #80, #221, .T. ) ;
#303 = DIRECTION ( 'NONE',  ( 1.000000000000000000, 0.000000000000000000, 0.000000000000000000 ) ) ;
#304 = PLANE ( 'NONE',  #39 ) ;
#305 = DIRECTION ( 'NONE',  ( 0.000000000000000000, 0.000000000000000000, 1.000000000000000000 ) ) ;
#306 = VERTEX_POINT ( 'NONE', #229 ) ;
#307 = PERSON_AND_ORGANIZATION_ROLE ( 'classification_officer' ) ;
#308 = ORIENTED_EDGE ( 'NONE', *, *, #186, .T. ) ;
#309 = CYLINDRICAL_SURFACE ( 'NONE', #5, 6.000000000000000888 ) ;
#310 = VERTEX_POINT ( 'NONE', #371 ) ;
#311 = TOROIDAL_SURFACE ( 'NONE', #232, 6.500000000000000888, 0.5000000000000000000 ) ;
#312 = CALENDAR_DATE ( 2022, 8, 7 ) ;
#313 = DIRECTION ( 'NONE',  ( -0.000000000000000000, -0.000000000000000000, -1.000000000000000000 ) ) ;
#314 = EDGE_LOOP ( 'NONE', ( #173, #19 ) ) ;
#315 = FACE_OUTER_BOUND ( 'NONE', #265, .T. ) ;
#316 = ORIENTED_EDGE ( 'NONE', *, *, #117, .T. ) ;
#317 = CARTESIAN_POINT ( 'NONE',  ( 0.000000000000000000, 0.000000000000000000, 0.000000000000000000 ) ) ;
#318 = CIRCLE ( 'NONE', #14, 10.00000000000000000 ) ;
#319 = ADVANCED_FACE ( 'NONE', ( #82, #165 ), #49, .F. ) ;
#320 = COORDINATED_UNIVERSAL_TIME_OFFSET ( 1, 0, .AHEAD. ) ;
#321 = CARTESIAN_POINT ( 'NONE',  ( 10.00000000000000000, 1.224646799147353256E-15, 7.000000000000000000 ) ) ;
#322 = CARTESIAN_POINT ( 'NONE',  ( -6.000000000000000888, 0.000000000000000000, 257.0000000000000000 ) ) ;
#323 = MECHANICAL_CONTEXT ( 'NONE', #174, 'mechanical' ) ;
#324 = CARTESIAN_POINT ( 'NONE',  ( -6.500000000000000888, 7.960204194457796463E-16, 7.500000000000007105 ) ) ;
#325 = AXIS2_PLACEMENT_3D ( 'NONE', #276, #157, #281 ) ;
#326 = CIRCLE ( 'NONE', #264, 2.500000000000000000 ) ;
#327 = DIRECTION ( 'NONE',  ( -1.000000000000000000, 0.000000000000000000, 0.000000000000000000 ) ) ;
#328 = FACE_OUTER_BOUND ( 'NONE', #53, .T. ) ;
#329 = PRODUCT_RELATED_PRODUCT_CATEGORY ( 'detail', '', ( #298 ) ) ;
#330 = LOCAL_TIME ( 17, 12, 34.00000000000000000, #168 ) ;
#331 = FACE_OUTER_BOUND ( 'NONE', #260, .T. ) ;
#332 = DIRECTION ( 'NONE',  ( 0.000000000000000000, 0.000000000000000000, 1.000000000000000000 ) ) ;
#333 = ORIENTED_EDGE ( 'NONE', *, *, #288, .F. ) ;
#334 = APPROVAL ( #74, 'NEURÈENÝ' ) ;
#335 = CARTESIAN_POINT ( 'NONE',  ( 0.000000000000000000, 0.000000000000000000, 257.0000000000000000 ) ) ;
#336 = APPROVAL_DATE_TIME ( #261, #334 ) ;
#337 = CARTESIAN_POINT ( 'NONE',  ( -10.00000000000000000, 0.000000000000000000, 0.000000000000000000 ) ) ;
#338 = PERSON_AND_ORGANIZATION_ROLE ( 'creator' ) ;
#339 = CYLINDRICAL_SURFACE ( 'NONE', #180, 10.00000000000000000 ) ;
#340 = VERTEX_POINT ( 'NONE', #141 ) ;
#341 = DIRECTION ( 'NONE',  ( 1.000000000000000000, 0.000000000000000000, -0.000000000000000000 ) ) ;
#342 = ADVANCED_FACE ( 'NONE', ( #315 ), #75, .F. ) ;
#343 = PERSON_AND_ORGANIZATION ( #263, #104 ) ;
#344 = DIRECTION ( 'NONE',  ( 0.000000000000000000, 0.000000000000000000, 1.000000000000000000 ) ) ;
#345 = ORIENTED_EDGE ( 'NONE', *, *, #366, .F. ) ;
#346 = AXIS2_PLACEMENT_3D ( 'NONE', #94, #187, #36 ) ;
#347 = AXIS2_PLACEMENT_3D ( 'NONE', #284, #344, #78 ) ;
#348 = PERSON_AND_ORGANIZATION_ROLE ( 'design_supplier' ) ;
#349 = CARTESIAN_POINT ( 'NONE',  ( -6.000000000000000888, 0.000000000000000000, 257.0000000000000000 ) ) ;
#350 = ORIENTED_EDGE ( 'NONE', *, *, #77, .F. ) ;
#351 = LINE ( 'NONE', #349, #126 ) ;
#352 = ORIENTED_EDGE ( 'NONE', *, *, #283, .T. ) ;
#353 = AXIS2_PLACEMENT_3D ( 'NONE', #1, #151, #32 ) ;
#354 = APPROVAL_ROLE ( '' ) ;
#355 = FACE_OUTER_BOUND ( 'NONE', #246, .T. ) ;
#356 = CARTESIAN_POINT ( 'NONE',  ( 0.000000000000000000, 0.000000000000000000, 7.000000000000000000 ) ) ;
#357 = DIRECTION ( 'NONE',  ( 0.000000000000000000, -1.000000000000000000, 0.000000000000000000 ) ) ;
#358 = AXIS2_PLACEMENT_3D ( 'NONE', #213, #189, #159 ) ;
#359 = CARTESIAN_POINT ( 'NONE',  ( 0.000000000000000000, 0.000000000000000000, 257.0000000000000000 ) ) ;
#360 = EDGE_CURVE ( 'NONE', #37, #214, #289, .T. ) ;
#361 = CARTESIAN_POINT ( 'NONE',  ( 2.500000000000000000, 3.061616997868383141E-16, 0.000000000000000000 ) ) ;
#362 = ORIENTED_EDGE ( 'NONE', *, *, #186, .F. ) ;
#363 = CIRCLE ( 'NONE', #177, 6.000000000000000888 ) ;
#364 = DIRECTION ( 'NONE',  ( -0.000000000000000000, -0.000000000000000000, -1.000000000000000000 ) ) ;
#365 = CIRCLE ( 'NONE', #325, 6.000000000000000888 ) ;
#366 = EDGE_CURVE ( 'NONE', #52, #340, #275, .T. ) ;
#367 = DIRECTION ( 'NONE',  ( 1.000000000000000000, 0.000000000000000000, -0.000000000000000000 ) ) ;
#368 = CALENDAR_DATE ( 2022, 8, 7 ) ;
#369 = CARTESIAN_POINT ( 'NONE',  ( 6.000000000000000888, 7.347880794884120722E-16, 257.0000000000000000 ) ) ;
#370 = CALENDAR_DATE ( 2022, 8, 7 ) ;
#371 = CARTESIAN_POINT ( 'NONE',  ( -10.00000000000000000, 0.000000000000000000, 7.000000000000000000 ) ) ;
#372 = APPROVAL_PERSON_ORGANIZATION ( #47, #273, #102 ) ;
#373 = COORDINATED_UNIVERSAL_TIME_OFFSET ( 1, 0, .AHEAD. ) ;
#374 = ADVANCED_FACE ( 'NONE', ( #169 ), #339, .T. ) ;
#375 = COORDINATED_UNIVERSAL_TIME_OFFSET ( 1, 0, .AHEAD. ) ;
#376 = EDGE_LOOP ( 'NONE', ( #362, #114, #73, #333 ) ) ;
#377 = CARTESIAN_POINT ( 'NONE',  ( 0.000000000000000000, 0.000000000000000000, 257.0000000000000000 ) ) ;
#378 = AXIS2_PLACEMENT_3D ( 'NONE', #359, #379, #124 ) ;
#379 = DIRECTION ( 'NONE',  ( 0.000000000000000000, 0.000000000000000000, 1.000000000000000000 ) ) ;
#380 = CC_DESIGN_DATE_AND_TIME_ASSIGNMENT ( #109, #227, ( #79 ) ) ;
#381 = CARTESIAN_POINT ( 'NONE',  ( 6.500000000000000888, 0.000000000000000000, 7.500000000000007105 ) ) ;
ENDSEC;
END-ISO-10303-21;
