ISO-10303-21;
HEADER;
FILE_DESCRIPTION (( 'STEP AP203' ),
    '1' );
FILE_NAME ('3847.STEP',
    '2022-07-08T14:33:32',
    ( '' ),
    ( '' ),
    'SwSTEP 2.0',
    'SolidWorks 2019',
    '' );
FILE_SCHEMA (( 'CONFIG_CONTROL_DESIGN' ));
ENDSEC;

DATA;
#1 = ORIENTED_EDGE ( 'NONE', *, *, #166, .F. ) ;
#2 = DATE_TIME_ROLE ( 'creation_date' ) ;
#3 = DATE_AND_TIME ( #63, #183 ) ;
#4 = LOCAL_TIME ( 16, 33, 32.00000000000000000, #131 ) ;
#5 = DIRECTION ( 'NONE',  ( 0.000000000000000000, 0.000000000000000000, 1.000000000000000000 ) ) ;
#6 = DIRECTION ( 'NONE',  ( 1.000000000000000000, 0.000000000000000000, 0.000000000000000000 ) ) ;
#7 = ORIENTED_EDGE ( 'NONE', *, *, #202, .T. ) ;
#8 = ORIENTED_EDGE ( 'NONE', *, *, #195, .F. ) ;
#9 = CALENDAR_DATE ( 2022, 8, 7 ) ;
#10 = CC_DESIGN_APPROVAL ( #109, ( #297 ) ) ;
#11 = FACE_OUTER_BOUND ( 'NONE', #21, .T. ) ;
#12 = PERSON_AND_ORGANIZATION_ROLE ( 'creator' ) ;
#13 = CARTESIAN_POINT ( 'NONE',  ( 10.00000000000000000, 1.224646799147353256E-15, 0.000000000000000000 ) ) ;
#14 = EDGE_CURVE ( 'NONE', #28, #344, #208, .T. ) ;
#15 = DIRECTION ( 'NONE',  ( -0.000000000000000000, -0.000000000000000000, -1.000000000000000000 ) ) ;
#16 = AXIS2_PLACEMENT_3D ( 'NONE', #44, #312, #46 ) ;
#17 = FACE_OUTER_BOUND ( 'NONE', #379, .T. ) ;
#18 =( GEOMETRIC_REPRESENTATION_CONTEXT ( 3 ) GLOBAL_UNCERTAINTY_ASSIGNED_CONTEXT ( ( #103 ) ) GLOBAL_UNIT_ASSIGNED_CONTEXT ( ( #236, #301, #327 ) ) REPRESENTATION_CONTEXT ( 'NONE', 'WORKASPACE' ) );
#19 = FACE_BOUND ( 'NONE', #83, .T. ) ;
#20 = EDGE_CURVE ( 'NONE', #344, #243, #213, .T. ) ;
#21 = EDGE_LOOP ( 'NONE', ( #116, #7, #79, #151 ) ) ;
#22 = LINE ( 'NONE', #23, #33 ) ;
#23 = CARTESIAN_POINT ( 'NONE',  ( -10.00000000000000000, 0.000000000000000000, 7.000000000000000000 ) ) ;
#24 = CIRCLE ( 'NONE', #41, 6.000000000000000888 ) ;
#25 = ORIENTED_EDGE ( 'NONE', *, *, #49, .F. ) ;
#26 = DIRECTION ( 'NONE',  ( -1.000000000000000000, 0.000000000000000000, 0.000000000000000000 ) ) ;
#27 = ADVANCED_FACE ( 'NONE', ( #128 ), #360, .T. ) ;
#28 = VERTEX_POINT ( 'NONE', #193 ) ;
#29 = FACE_OUTER_BOUND ( 'NONE', #291, .T. ) ;
#30 = VERTEX_POINT ( 'NONE', #13 ) ;
#31 = CARTESIAN_POINT ( 'NONE',  ( -6.000000000000000888, 0.000000000000000000, 557.0000000000000000 ) ) ;
#32 = ORIENTED_EDGE ( 'NONE', *, *, #333, .T. ) ;
#33 = VECTOR ( 'NONE', #314, 1000.000000000000000 ) ;
#34 = PERSON_AND_ORGANIZATION_ROLE ( 'design_owner' ) ;
#35 = PERSON_AND_ORGANIZATION ( #188, #68 ) ;
#36 = AXIS2_PLACEMENT_3D ( 'NONE', #215, #5, #359 ) ;
#37 = APPLICATION_PROTOCOL_DEFINITION ( 'international standard', 'config_control_design', 1994, #251 ) ;
#38 = ORIENTED_EDGE ( 'NONE', *, *, #14, .F. ) ;
#39 = DATE_AND_TIME ( #221, #4 ) ;
#40 = CARTESIAN_POINT ( 'NONE',  ( 0.000000000000000000, 0.000000000000000000, 7.700000000000040146 ) ) ;
#41 = AXIS2_PLACEMENT_3D ( 'NONE', #250, #180, #110 ) ;
#42 = ADVANCED_FACE ( 'NONE', ( #11 ), #252, .T. ) ;
#43 = CARTESIAN_POINT ( 'NONE',  ( 6.000000000000000888, 7.347880794884120722E-16, 557.0000000000000000 ) ) ;
#44 = CARTESIAN_POINT ( 'NONE',  ( 0.000000000000000000, 0.000000000000000000, 557.0000000000000000 ) ) ;
#45 = APPROVAL ( #218, 'NEURÈENÝ' ) ;
#46 = DIRECTION ( 'NONE',  ( 1.000000000000000000, 0.000000000000000000, -0.000000000000000000 ) ) ;
#47 = AXIS2_PLACEMENT_3D ( 'NONE', #81, #228, #84 ) ;
#48 = DIRECTION ( 'NONE',  ( -0.000000000000000000, -0.000000000000000000, -1.000000000000000000 ) ) ;
#49 = EDGE_CURVE ( 'NONE', #364, #255, #124, .T. ) ;
#50 = DIRECTION ( 'NONE',  ( 1.000000000000000000, 0.000000000000000000, 0.000000000000000000 ) ) ;
#51 = VERTEX_POINT ( 'NONE', #371 ) ;
#52 = FACE_OUTER_BOUND ( 'NONE', #275, .T. ) ;
#53 = VERTEX_POINT ( 'NONE', #78 ) ;
#54 = DIRECTION ( 'NONE',  ( 0.000000000000000000, 0.000000000000000000, 1.000000000000000000 ) ) ;
#55 = ADVANCED_FACE ( 'NONE', ( #200, #73 ), #224, .T. ) ;
#56 = CC_DESIGN_APPROVAL ( #45, ( #342 ) ) ;
#57 = DIRECTION ( 'NONE',  ( 1.000000000000000000, 0.000000000000000000, 0.000000000000000000 ) ) ;
#58 = ORIENTED_EDGE ( 'NONE', *, *, #113, .F. ) ;
#59 = DIRECTION ( 'NONE',  ( 1.000000000000000000, 0.000000000000000000, 0.000000000000000000 ) ) ;
#60 = ORIENTED_EDGE ( 'NONE', *, *, #154, .T. ) ;
#61 = CARTESIAN_POINT ( 'NONE',  ( -4.099999999999999645, 0.000000000000000000, 0.000000000000000000 ) ) ;
#62 = LOCAL_TIME ( 16, 33, 32.00000000000000000, #106 ) ;
#63 = CALENDAR_DATE ( 2022, 8, 7 ) ;
#64 = EDGE_CURVE ( 'NONE', #99, #255, #270, .T. ) ;
#65 = VERTEX_POINT ( 'NONE', #43 ) ;
#66 = TOROIDAL_SURFACE ( 'NONE', #242, 6.700000000000001066, 0.6999999999999999556 ) ;
#67 = LOCAL_TIME ( 16, 33, 32.00000000000000000, #323 ) ;
#68 = ORGANIZATION ( 'NEURÈENÝ', 'NEURÈENÝ', '' ) ;
#69 = PERSON_AND_ORGANIZATION ( #188, #68 ) ;
#70 = EDGE_LOOP ( 'NONE', ( #38, #216 ) ) ;
#71 = DIRECTION ( 'NONE',  ( -0.000000000000000000, -0.000000000000000000, -1.000000000000000000 ) ) ;
#72 = PERSON_AND_ORGANIZATION ( #188, #68 ) ;
#73 = FACE_OUTER_BOUND ( 'NONE', #239, .T. ) ;
#74 = PERSON_AND_ORGANIZATION ( #188, #68 ) ;
#75 = AXIS2_PLACEMENT_3D ( 'NONE', #94, #182, #274 ) ;
#76 = DIRECTION ( 'NONE',  ( 1.000000000000000000, 0.000000000000000000, -0.000000000000000000 ) ) ;
#77 = APPROVAL_DATE_TIME ( #39, #233 ) ;
#78 = CARTESIAN_POINT ( 'NONE',  ( 10.00000000000000000, 1.224646799147353256E-15, 7.000000000000000000 ) ) ;
#79 = ORIENTED_EDGE ( 'NONE', *, *, #139, .T. ) ;
#80 = LOCAL_TIME ( 16, 33, 32.00000000000000000, #214 ) ;
#81 = CARTESIAN_POINT ( 'NONE',  ( 0.000000000000000000, 0.000000000000000000, 557.0000000000000000 ) ) ;
#82 = CC_DESIGN_DATE_AND_TIME_ASSIGNMENT ( #246, #366, ( #227 ) ) ;
#83 = EDGE_LOOP ( 'NONE', ( #293, #320 ) ) ;
#84 = DIRECTION ( 'NONE',  ( -1.000000000000000000, 0.000000000000000000, 0.000000000000000000 ) ) ;
#85 = ORIENTED_EDGE ( 'NONE', *, *, #202, .F. ) ;
#86 = CARTESIAN_POINT ( 'NONE',  ( 0.000000000000000000, 0.000000000000000000, 7.700000000000040146 ) ) ;
#87 = DIRECTION ( 'NONE',  ( 0.000000000000000000, 0.000000000000000000, 1.000000000000000000 ) ) ;
#88 = CIRCLE ( 'NONE', #303, 4.099999999999999645 ) ;
#89 = ORIENTED_EDGE ( 'NONE', *, *, #280, .T. ) ;
#90 = DIRECTION ( 'NONE',  ( 1.000000000000000000, 0.000000000000000000, 0.000000000000000000 ) ) ;
#91 = ADVANCED_FACE ( 'NONE', ( #310 ), #192, .F. ) ;
#92 = ADVANCED_FACE ( 'NONE', ( #307 ), #66, .F. ) ;
#93 = CLOSED_SHELL ( 'NONE', ( #91, #92, #42, #27, #184, #96, #111, #247, #55, #127, #160 ) ) ;
#94 = CARTESIAN_POINT ( 'NONE',  ( 0.000000000000000000, 0.000000000000000000, 7.000000000000000000 ) ) ;
#95 = CALENDAR_DATE ( 2022, 8, 7 ) ;
#96 = ADVANCED_FACE ( 'NONE', ( #19, #17 ), #165, .T. ) ;
#97 = CARTESIAN_POINT ( 'NONE',  ( 4.099999999999999645, 5.021051876504147385E-16, 557.0000000000000000 ) ) ;
#98 = PERSON_AND_ORGANIZATION ( #188, #68 ) ;
#99 = VERTEX_POINT ( 'NONE', #367 ) ;
#100 = CIRCLE ( 'NONE', #75, 10.00000000000000000 ) ;
#101 = ORIENTED_EDGE ( 'NONE', *, *, #20, .F. ) ;
#102 = DIRECTION ( 'NONE',  ( 0.000000000000000000, 0.000000000000000000, -1.000000000000000000 ) ) ;
#103 = UNCERTAINTY_MEASURE_WITH_UNIT (LENGTH_MEASURE( 1.000000000000000082E-05 ), #236, 'distance_accuracy_value', 'NONE');
#104 = PERSON_AND_ORGANIZATION_ROLE ( 'design_supplier' ) ;
#105 = DIRECTION ( 'NONE',  ( 0.000000000000000000, 0.000000000000000000, 1.000000000000000000 ) ) ;
#106 = COORDINATED_UNIVERSAL_TIME_OFFSET ( 1, 0, .AHEAD. ) ;
#107 = VECTOR ( 'NONE', #230, 1000.000000000000000 ) ;
#108 = CARTESIAN_POINT ( 'NONE',  ( 0.000000000000000000, 0.000000000000000000, 557.0000000000000000 ) ) ;
#109 = APPROVAL ( #269, 'NEURÈENÝ' ) ;
#110 = DIRECTION ( 'NONE',  ( 1.000000000000000000, 0.000000000000000000, 0.000000000000000000 ) ) ;
#111 = ADVANCED_FACE ( 'NONE', ( #141, #223 ), #253, .F. ) ;
#112 = ORIENTED_EDGE ( 'NONE', *, *, #341, .T. ) ;
#113 = EDGE_CURVE ( 'NONE', #255, #99, #150, .T. ) ;
#114 = LINE ( 'NONE', #142, #156 ) ;
#115 = CARTESIAN_POINT ( 'NONE',  ( 4.099999999999999645, 5.021051876504147385E-16, 0.000000000000000000 ) ) ;
#116 = ORIENTED_EDGE ( 'NONE', *, *, #333, .F. ) ;
#117 = AXIS2_PLACEMENT_3D ( 'NONE', #245, #102, #276 ) ;
#118 = CYLINDRICAL_SURFACE ( 'NONE', #288, 4.099999999999999645 ) ;
#119 = CIRCLE ( 'NONE', #140, 6.000000000000000888 ) ;
#120 = ORIENTED_EDGE ( 'NONE', *, *, #311, .F. ) ;
#121 = CARTESIAN_POINT ( 'NONE',  ( 0.000000000000000000, 0.000000000000000000, 0.000000000000000000 ) ) ;
#122 = EDGE_CURVE ( 'NONE', #219, #65, #24, .T. ) ;
#123 = COORDINATED_UNIVERSAL_TIME_OFFSET ( 1, 0, .AHEAD. ) ;
#124 = CIRCLE ( 'NONE', #237, 0.7000000000000000666 ) ;
#125 = APPROVAL_ROLE ( '' ) ;
#126 = AXIS2_PLACEMENT_3D ( 'NONE', #185, #186, #155 ) ;
#127 = ADVANCED_FACE ( 'NONE', ( #319 ), #380, .F. ) ;
#128 = FACE_OUTER_BOUND ( 'NONE', #322, .T. ) ;
#129 = CC_DESIGN_DATE_AND_TIME_ASSIGNMENT ( #267, #2, ( #342 ) ) ;
#130 = ORIENTED_EDGE ( 'NONE', *, *, #64, .F. ) ;
#131 = COORDINATED_UNIVERSAL_TIME_OFFSET ( 1, 0, .AHEAD. ) ;
#132 = ORIENTED_EDGE ( 'NONE', *, *, #162, .F. ) ;
#133 = AXIS2_PLACEMENT_3D ( 'NONE', #176, #347, #374 ) ;
#134 = DIRECTION ( 'NONE',  ( -1.000000000000000000, 1.224646799147353454E-16, 0.000000000000000000 ) ) ;
#135 = PERSON_AND_ORGANIZATION ( #188, #68 ) ;
#136 = DIRECTION ( 'NONE',  ( 0.000000000000000000, 0.000000000000000000, 1.000000000000000000 ) ) ;
#137 = SECURITY_CLASSIFICATION_LEVEL ( 'unclassified' ) ;
#138 = DIRECTION ( 'NONE',  ( 1.000000000000000000, 0.000000000000000000, 0.000000000000000000 ) ) ;
#139 = EDGE_CURVE ( 'NONE', #51, #364, #119, .T. ) ;
#140 = AXIS2_PLACEMENT_3D ( 'NONE', #321, #203, #207 ) ;
#141 = FACE_BOUND ( 'NONE', #235, .T. ) ;
#142 = CARTESIAN_POINT ( 'NONE',  ( 6.000000000000000888, 7.347880794884120722E-16, 557.0000000000000000 ) ) ;
#143 = CIRCLE ( 'NONE', #36, 10.00000000000000000 ) ;
#144 = DIRECTION ( 'NONE',  ( 0.000000000000000000, 0.000000000000000000, 1.000000000000000000 ) ) ;
#145 = ORIENTED_EDGE ( 'NONE', *, *, #341, .F. ) ;
#146 = DIRECTION ( 'NONE',  ( -0.000000000000000000, -0.000000000000000000, -1.000000000000000000 ) ) ;
#147 = ORIENTED_EDGE ( 'NONE', *, *, #14, .T. ) ;
#148 = DIRECTION ( 'NONE',  ( 0.000000000000000000, 0.000000000000000000, -1.000000000000000000 ) ) ;
#149 = VERTEX_POINT ( 'NONE', #378 ) ;
#150 = CIRCLE ( 'NONE', #201, 6.700000000000001066 ) ;
#151 = ORIENTED_EDGE ( 'NONE', *, *, #296, .F. ) ;
#152 = CALENDAR_DATE ( 2022, 8, 7 ) ;
#153 = CARTESIAN_POINT ( 'NONE',  ( 0.000000000000000000, 0.000000000000000000, 0.000000000000000000 ) ) ;
#154 = EDGE_CURVE ( 'NONE', #53, #363, #256, .T. ) ;
#155 = DIRECTION ( 'NONE',  ( 1.000000000000000000, 0.000000000000000000, 0.000000000000000000 ) ) ;
#156 = VECTOR ( 'NONE', #345, 1000.000000000000000 ) ;
#157 = CARTESIAN_POINT ( 'NONE',  ( 0.000000000000000000, 0.000000000000000000, 0.000000000000000000 ) ) ;
#158 = EDGE_LOOP ( 'NONE', ( #8, #273 ) ) ;
#159 = PERSON_AND_ORGANIZATION_ROLE ( 'creator' ) ;
#160 = ADVANCED_FACE ( 'NONE', ( #29 ), #118, .F. ) ;
#161 = CARTESIAN_POINT ( 'NONE',  ( 0.000000000000000000, 0.000000000000000000, 557.0000000000000000 ) ) ;
#162 = EDGE_CURVE ( 'NONE', #363, #149, #22, .T. ) ;
#163 = DIRECTION ( 'NONE',  ( -1.000000000000000000, 0.000000000000000000, 0.000000000000000000 ) ) ;
#164 = AXIS2_PLACEMENT_3D ( 'NONE', #294, #146, #26 ) ;
#165 = PLANE ( 'NONE',  #329 ) ;
#166 = EDGE_CURVE ( 'NONE', #28, #332, #381, .T. ) ;
#167 = AXIS2_PLACEMENT_3D ( 'NONE', #338, #105, #76 ) ;
#168 = CIRCLE ( 'NONE', #369, 0.7000000000000000666 ) ;
#169 = CC_DESIGN_SECURITY_CLASSIFICATION ( #227, ( #297 ) ) ;
#170 = DIRECTION ( 'NONE',  ( 1.000000000000000000, 0.000000000000000000, 0.000000000000000000 ) ) ;
#171 = DIRECTION ( 'NONE',  ( 0.000000000000000000, 0.000000000000000000, 1.000000000000000000 ) ) ;
#172 = CYLINDRICAL_SURFACE ( 'NONE', #164, 10.00000000000000000 ) ;
#173 = ORIENTED_EDGE ( 'NONE', *, *, #154, .F. ) ;
#174 = EDGE_CURVE ( 'NONE', #332, #243, #220, .T. ) ;
#175 = VECTOR ( 'NONE', #212, 1000.000000000000000 ) ;
#176 = CARTESIAN_POINT ( 'NONE',  ( 0.000000000000000000, 0.000000000000000000, 0.000000000000000000 ) ) ;
#177 = ORIENTED_EDGE ( 'NONE', *, *, #49, .T. ) ;
#178 = CARTESIAN_POINT ( 'NONE',  ( -6.000000000000000888, 0.000000000000000000, 557.0000000000000000 ) ) ;
#179 = ORIENTED_EDGE ( 'NONE', *, *, #268, .F. ) ;
#180 = DIRECTION ( 'NONE',  ( 0.000000000000000000, 0.000000000000000000, 1.000000000000000000 ) ) ;
#181 = DIRECTION ( 'NONE',  ( 0.000000000000000000, 0.000000000000000000, -1.000000000000000000 ) ) ;
#182 = DIRECTION ( 'NONE',  ( 0.000000000000000000, 0.000000000000000000, 1.000000000000000000 ) ) ;
#183 = LOCAL_TIME ( 16, 33, 32.00000000000000000, #123 ) ;
#184 = ADVANCED_FACE ( 'NONE', ( #52 ), #172, .T. ) ;
#185 = CARTESIAN_POINT ( 'NONE',  ( 0.000000000000000000, 0.000000000000000000, 557.0000000000000000 ) ) ;
#186 = DIRECTION ( 'NONE',  ( 0.000000000000000000, 0.000000000000000000, 1.000000000000000000 ) ) ;
#187 = ORIENTED_EDGE ( 'NONE', *, *, #336, .T. ) ;
#188 = PERSON ( 'NEURÈENÝ', 'NEURÈENÝ', 'NEURÈENÝ', ('NEURÈENÝ'), ('NEURÈENÝ'), ('NEURÈENÝ') ) ;
#189 = AXIS2_PLACEMENT_3D ( 'NONE', #86, #87, #265 ) ;
#190 = DIRECTION ( 'NONE',  ( 1.000000000000000000, 0.000000000000000000, 0.000000000000000000 ) ) ;
#191 = EDGE_LOOP ( 'NONE', ( #328, #177, #130, #120 ) ) ;
#192 = CYLINDRICAL_SURFACE ( 'NONE', #117, 4.099999999999999645 ) ;
#193 = CARTESIAN_POINT ( 'NONE',  ( -4.099999999999999645, 0.000000000000000000, 557.0000000000000000 ) ) ;
#194 = APPROVAL_PERSON_ORGANIZATION ( #72, #233, #226 ) ;
#195 = EDGE_CURVE ( 'NONE', #149, #30, #282, .T. ) ;
#196 = DIRECTION ( 'NONE',  ( 1.224646799147353207E-16, 1.000000000000000000, -0.000000000000000000 ) ) ;
#197 = EDGE_CURVE ( 'NONE', #364, #51, #340, .T. ) ;
#198 = ADVANCED_BREP_SHAPE_REPRESENTATION ( '3847', ( #317, #244 ), #18 ) ;
#199 = CARTESIAN_POINT ( 'NONE',  ( 0.000000000000000000, 0.000000000000000000, 7.000000000000000000 ) ) ;
#200 = FACE_BOUND ( 'NONE', #70, .T. ) ;
#201 = AXIS2_PLACEMENT_3D ( 'NONE', #279, #15, #138 ) ;
#202 = EDGE_CURVE ( 'NONE', #65, #51, #114, .T. ) ;
#203 = DIRECTION ( 'NONE',  ( 0.000000000000000000, 0.000000000000000000, 1.000000000000000000 ) ) ;
#204 = ORIENTED_EDGE ( 'NONE', *, *, #326, .F. ) ;
#205 = CC_DESIGN_PERSON_AND_ORGANIZATION_ASSIGNMENT ( #362, #34, ( #290 ) ) ;
#206 = DIRECTION ( 'NONE',  ( 0.000000000000000000, 0.000000000000000000, 1.000000000000000000 ) ) ;
#207 = DIRECTION ( 'NONE',  ( 1.000000000000000000, 0.000000000000000000, 0.000000000000000000 ) ) ;
#208 = CIRCLE ( 'NONE', #302, 4.099999999999999645 ) ;
#209 = CIRCLE ( 'NONE', #126, 6.000000000000000888 ) ;
#210 = DIRECTION ( 'NONE',  ( 1.000000000000000000, 0.000000000000000000, 0.000000000000000000 ) ) ;
#211 = ORIENTED_EDGE ( 'NONE', *, *, #162, .T. ) ;
#212 = DIRECTION ( 'NONE',  ( -0.000000000000000000, -0.000000000000000000, -1.000000000000000000 ) ) ;
#213 = LINE ( 'NONE', #97, #232 ) ;
#214 = COORDINATED_UNIVERSAL_TIME_OFFSET ( 1, 0, .AHEAD. ) ;
#215 = CARTESIAN_POINT ( 'NONE',  ( 0.000000000000000000, 0.000000000000000000, 0.000000000000000000 ) ) ;
#216 = ORIENTED_EDGE ( 'NONE', *, *, #280, .F. ) ;
#217 = APPLICATION_CONTEXT ( 'configuration controlled 3d designs of mechanical parts and assemblies' ) ;
#218 = APPROVAL_STATUS ( 'not_yet_approved' ) ;
#219 = VERTEX_POINT ( 'NONE', #31 ) ;
#220 = CIRCLE ( 'NONE', #133, 4.099999999999999645 ) ;
#221 = CALENDAR_DATE ( 2022, 8, 7 ) ;
#222 = EDGE_LOOP ( 'NONE', ( #25, #260, #287, #58 ) ) ;
#223 = FACE_OUTER_BOUND ( 'NONE', #158, .T. ) ;
#224 = PLANE ( 'NONE',  #16 ) ;
#225 = CC_DESIGN_PERSON_AND_ORGANIZATION_ASSIGNMENT ( #74, #12, ( #297 ) ) ;
#226 = APPROVAL_ROLE ( '' ) ;
#227 = SECURITY_CLASSIFICATION ( '', '', #137 ) ;
#228 = DIRECTION ( 'NONE',  ( -0.000000000000000000, -0.000000000000000000, -1.000000000000000000 ) ) ;
#229 = ORIENTED_EDGE ( 'NONE', *, *, #326, .T. ) ;
#230 = DIRECTION ( 'NONE',  ( -0.000000000000000000, -0.000000000000000000, -1.000000000000000000 ) ) ;
#231 = CARTESIAN_POINT ( 'NONE',  ( 10.00000000000000000, 1.224646799147353256E-15, 7.000000000000000000 ) ) ;
#232 = VECTOR ( 'NONE', #181, 1000.000000000000000 ) ;
#233 = APPROVAL ( #334, 'NEURÈENÝ' ) ;
#234 = DIRECTION ( 'NONE',  ( 0.000000000000000000, -1.000000000000000000, 0.000000000000000000 ) ) ;
#235 = EDGE_LOOP ( 'NONE', ( #263, #145 ) ) ;
#236 =( LENGTH_UNIT ( ) NAMED_UNIT ( * ) SI_UNIT ( .MILLI., .METRE. ) );
#237 = AXIS2_PLACEMENT_3D ( 'NONE', #308, #196, #134 ) ;
#238 = CARTESIAN_POINT ( 'NONE',  ( -6.000000000000000888, 0.000000000000000000, 7.700000000000040146 ) ) ;
#239 = EDGE_LOOP ( 'NONE', ( #315, #32 ) ) ;
#240 = MECHANICAL_CONTEXT ( 'NONE', #217, 'mechanical' ) ;
#241 = ORIENTED_EDGE ( 'NONE', *, *, #174, .T. ) ;
#242 = AXIS2_PLACEMENT_3D ( 'NONE', #40, #313, #170 ) ;
#243 = VERTEX_POINT ( 'NONE', #115 ) ;
#244 = AXIS2_PLACEMENT_3D ( 'NONE', #153, #356, #190 ) ;
#245 = CARTESIAN_POINT ( 'NONE',  ( 0.000000000000000000, 0.000000000000000000, 557.0000000000000000 ) ) ;
#246 = DATE_AND_TIME ( #9, #62 ) ;
#247 = ADVANCED_FACE ( 'NONE', ( #254 ), #373, .T. ) ;
#248 = DIRECTION ( 'NONE',  ( -0.000000000000000000, -0.000000000000000000, -1.000000000000000000 ) ) ;
#249 = PERSON_AND_ORGANIZATION ( #188, #68 ) ;
#250 = CARTESIAN_POINT ( 'NONE',  ( 0.000000000000000000, 0.000000000000000000, 557.0000000000000000 ) ) ;
#251 = APPLICATION_CONTEXT ( 'configuration controlled 3d designs of mechanical parts and assemblies' ) ;
#252 = CYLINDRICAL_SURFACE ( 'NONE', #286, 6.000000000000000888 ) ;
#253 = PLANE ( 'NONE',  #167 ) ;
#254 = FACE_OUTER_BOUND ( 'NONE', #295, .T. ) ;
#255 = VERTEX_POINT ( 'NONE', #316 ) ;
#256 = CIRCLE ( 'NONE', #264, 10.00000000000000000 ) ;
#257 = CARTESIAN_POINT ( 'NONE',  ( 0.000000000000000000, 0.000000000000000000, 557.0000000000000000 ) ) ;
#258 = ORIENTED_EDGE ( 'NONE', *, *, #122, .F. ) ;
#259 = DIRECTION ( 'NONE',  ( -1.000000000000000000, 0.000000000000000000, 0.000000000000000000 ) ) ;
#260 = ORIENTED_EDGE ( 'NONE', *, *, #139, .F. ) ;
#261 = CC_DESIGN_PERSON_AND_ORGANIZATION_ASSIGNMENT ( #69, #159, ( #342 ) ) ;
#262 = CARTESIAN_POINT ( 'NONE',  ( 6.700000000000001066, 0.000000000000000000, 7.700000000000040146 ) ) ;
#263 = ORIENTED_EDGE ( 'NONE', *, *, #174, .F. ) ;
#264 = AXIS2_PLACEMENT_3D ( 'NONE', #284, #144, #57 ) ;
#265 = DIRECTION ( 'NONE',  ( 1.000000000000000000, 0.000000000000000000, 0.000000000000000000 ) ) ;
#266 = ORIENTED_EDGE ( 'NONE', *, *, #166, .T. ) ;
#267 = DATE_AND_TIME ( #152, #80 ) ;
#268 = EDGE_CURVE ( 'NONE', #53, #30, #349, .T. ) ;
#269 = APPROVAL_STATUS ( 'not_yet_approved' ) ;
#270 = CIRCLE ( 'NONE', #281, 6.700000000000001066 ) ;
#271 = DATE_AND_TIME ( #95, #67 ) ;
#272 = VECTOR ( 'NONE', #148, 1000.000000000000000 ) ;
#273 = ORIENTED_EDGE ( 'NONE', *, *, #336, .F. ) ;
#274 = DIRECTION ( 'NONE',  ( 1.000000000000000000, 0.000000000000000000, 0.000000000000000000 ) ) ;
#275 = EDGE_LOOP ( 'NONE', ( #179, #204, #211, #335 ) ) ;
#276 = DIRECTION ( 'NONE',  ( -1.000000000000000000, 0.000000000000000000, 0.000000000000000000 ) ) ;
#277 = APPROVAL_DATE_TIME ( #3, #109 ) ;
#278 = DIRECTION ( 'NONE',  ( 1.000000000000000000, 0.000000000000000000, 0.000000000000000000 ) ) ;
#279 = CARTESIAN_POINT ( 'NONE',  ( 0.000000000000000000, 0.000000000000000000, 7.000000000000000000 ) ) ;
#280 = EDGE_CURVE ( 'NONE', #344, #28, #346, .T. ) ;
#281 = AXIS2_PLACEMENT_3D ( 'NONE', #365, #248, #278 ) ;
#282 = CIRCLE ( 'NONE', #309, 10.00000000000000000 ) ;
#283 = APPROVAL_PERSON_ORGANIZATION ( #98, #45, #355 ) ;
#284 = CARTESIAN_POINT ( 'NONE',  ( 0.000000000000000000, 0.000000000000000000, 7.000000000000000000 ) ) ;
#285 = CARTESIAN_POINT ( 'NONE',  ( 0.000000000000000000, 0.000000000000000000, 557.0000000000000000 ) ) ;
#286 = AXIS2_PLACEMENT_3D ( 'NONE', #108, #48, #343 ) ;
#287 = ORIENTED_EDGE ( 'NONE', *, *, #311, .T. ) ;
#288 = AXIS2_PLACEMENT_3D ( 'NONE', #285, #292, #259 ) ;
#289 = CC_DESIGN_APPROVAL ( #233, ( #227 ) ) ;
#290 = PRODUCT ( '3847', '3847', '', ( #240 ) ) ;
#291 = EDGE_LOOP ( 'NONE', ( #101, #89, #266, #241 ) ) ;
#292 = DIRECTION ( 'NONE',  ( 0.000000000000000000, 0.000000000000000000, -1.000000000000000000 ) ) ;
#293 = ORIENTED_EDGE ( 'NONE', *, *, #64, .T. ) ;
#294 = CARTESIAN_POINT ( 'NONE',  ( 0.000000000000000000, 0.000000000000000000, 7.000000000000000000 ) ) ;
#295 = EDGE_LOOP ( 'NONE', ( #85, #258, #304, #377 ) ) ;
#296 = EDGE_CURVE ( 'NONE', #219, #364, #350, .T. ) ;
#297 = PRODUCT_DEFINITION_FORMATION_WITH_SPECIFIED_SOURCE ( 'LIBOVOLNÝ', '', #290, .NOT_KNOWN. ) ;
#298 = CARTESIAN_POINT ( 'NONE',  ( 4.099999999999999645, 5.021051876504147385E-16, 557.0000000000000000 ) ) ;
#299 = PRODUCT_RELATED_PRODUCT_CATEGORY ( 'detail', '', ( #290 ) ) ;
#300 = CARTESIAN_POINT ( 'NONE',  ( -10.00000000000000000, 0.000000000000000000, 7.000000000000000000 ) ) ;
#301 =( NAMED_UNIT ( * ) PLANE_ANGLE_UNIT ( ) SI_UNIT ( $, .RADIAN. ) );
#302 = AXIS2_PLACEMENT_3D ( 'NONE', #161, #354, #90 ) ;
#303 = AXIS2_PLACEMENT_3D ( 'NONE', #157, #358, #6 ) ;
#304 = ORIENTED_EDGE ( 'NONE', *, *, #296, .T. ) ;
#305 = CC_DESIGN_PERSON_AND_ORGANIZATION_ASSIGNMENT ( #249, #368, ( #227 ) ) ;
#306 = ORIENTED_EDGE ( 'NONE', *, *, #268, .T. ) ;
#307 = FACE_OUTER_BOUND ( 'NONE', #191, .T. ) ;
#308 = CARTESIAN_POINT ( 'NONE',  ( -6.700000000000001066, 8.205133554287267548E-16, 7.700000000000040146 ) ) ;
#309 = AXIS2_PLACEMENT_3D ( 'NONE', #121, #54, #210 ) ;
#310 = FACE_OUTER_BOUND ( 'NONE', #348, .T. ) ;
#311 = EDGE_CURVE ( 'NONE', #51, #99, #168, .T. ) ;
#312 = DIRECTION ( 'NONE',  ( 0.000000000000000000, 0.000000000000000000, 1.000000000000000000 ) ) ;
#313 = DIRECTION ( 'NONE',  ( 0.000000000000000000, 0.000000000000000000, 1.000000000000000000 ) ) ;
#314 = DIRECTION ( 'NONE',  ( -0.000000000000000000, -0.000000000000000000, -1.000000000000000000 ) ) ;
#315 = ORIENTED_EDGE ( 'NONE', *, *, #122, .T. ) ;
#316 = CARTESIAN_POINT ( 'NONE',  ( -6.700000000000001066, 8.205133554287267548E-16, 7.000000000000020428 ) ) ;
#317 = MANIFOLD_SOLID_BREP ( 'Odebrat vysunutím3', #93 ) ;
#318 = CARTESIAN_POINT ( 'NONE',  ( -4.099999999999999645, 0.000000000000000000, 557.0000000000000000 ) ) ;
#319 = FACE_OUTER_BOUND ( 'NONE', #222, .T. ) ;
#320 = ORIENTED_EDGE ( 'NONE', *, *, #113, .T. ) ;
#321 = CARTESIAN_POINT ( 'NONE',  ( 0.000000000000000000, 0.000000000000000000, 7.700000000000040146 ) ) ;
#322 = EDGE_LOOP ( 'NONE', ( #173, #306, #187, #132 ) ) ;
#323 = COORDINATED_UNIVERSAL_TIME_OFFSET ( 1, 0, .AHEAD. ) ;
#324 = AXIS2_PLACEMENT_3D ( 'NONE', #375, #206, #50 ) ;
#325 = APPLICATION_PROTOCOL_DEFINITION ( 'international standard', 'config_control_design', 1994, #217 ) ;
#326 = EDGE_CURVE ( 'NONE', #363, #53, #100, .T. ) ;
#327 =( NAMED_UNIT ( * ) SI_UNIT ( $, .STERADIAN. ) SOLID_ANGLE_UNIT ( ) );
#328 = ORIENTED_EDGE ( 'NONE', *, *, #197, .F. ) ;
#329 = AXIS2_PLACEMENT_3D ( 'NONE', #372, #136, #339 ) ;
#330 = APPROVAL_DATE_TIME ( #271, #45 ) ;
#331 = AXIS2_PLACEMENT_3D ( 'NONE', #257, #171, #59 ) ;
#332 = VERTEX_POINT ( 'NONE', #61 ) ;
#333 = EDGE_CURVE ( 'NONE', #65, #219, #209, .T. ) ;
#334 = APPROVAL_STATUS ( 'not_yet_approved' ) ;
#335 = ORIENTED_EDGE ( 'NONE', *, *, #195, .T. ) ;
#336 = EDGE_CURVE ( 'NONE', #30, #149, #143, .T. ) ;
#337 = SHAPE_DEFINITION_REPRESENTATION ( #376, #198 ) ;
#338 = CARTESIAN_POINT ( 'NONE',  ( 0.000000000000000000, 0.000000000000000000, 0.000000000000000000 ) ) ;
#339 = DIRECTION ( 'NONE',  ( 1.000000000000000000, 0.000000000000000000, -0.000000000000000000 ) ) ;
#340 = CIRCLE ( 'NONE', #324, 6.000000000000000888 ) ;
#341 = EDGE_CURVE ( 'NONE', #243, #332, #88, .T. ) ;
#342 = PRODUCT_DEFINITION ( 'NEZNÁMÝ', '', #297, #361 ) ;
#343 = DIRECTION ( 'NONE',  ( -1.000000000000000000, 0.000000000000000000, 0.000000000000000000 ) ) ;
#344 = VERTEX_POINT ( 'NONE', #298 ) ;
#345 = DIRECTION ( 'NONE',  ( -0.000000000000000000, -0.000000000000000000, -1.000000000000000000 ) ) ;
#346 = CIRCLE ( 'NONE', #331, 4.099999999999999645 ) ;
#347 = DIRECTION ( 'NONE',  ( -0.000000000000000000, -0.000000000000000000, -1.000000000000000000 ) ) ;
#348 = EDGE_LOOP ( 'NONE', ( #147, #352, #112, #1 ) ) ;
#349 = LINE ( 'NONE', #231, #175 ) ;
#350 = LINE ( 'NONE', #178, #107 ) ;
#351 = AXIS2_PLACEMENT_3D ( 'NONE', #199, #71, #163 ) ;
#352 = ORIENTED_EDGE ( 'NONE', *, *, #20, .T. ) ;
#353 = DIRECTION ( 'NONE',  ( 0.000000000000000000, 0.000000000000000000, -1.000000000000000000 ) ) ;
#354 = DIRECTION ( 'NONE',  ( 0.000000000000000000, 0.000000000000000000, 1.000000000000000000 ) ) ;
#355 = APPROVAL_ROLE ( '' ) ;
#356 = DIRECTION ( 'NONE',  ( 0.000000000000000000, 0.000000000000000000, 1.000000000000000000 ) ) ;
#357 = APPROVAL_PERSON_ORGANIZATION ( #35, #109, #125 ) ;
#358 = DIRECTION ( 'NONE',  ( -0.000000000000000000, -0.000000000000000000, -1.000000000000000000 ) ) ;
#359 = DIRECTION ( 'NONE',  ( 1.000000000000000000, 0.000000000000000000, 0.000000000000000000 ) ) ;
#360 = CYLINDRICAL_SURFACE ( 'NONE', #351, 10.00000000000000000 ) ;
#361 = DESIGN_CONTEXT ( 'detailed design', #251, 'design' ) ;
#362 = PERSON_AND_ORGANIZATION ( #188, #68 ) ;
#363 = VERTEX_POINT ( 'NONE', #300 ) ;
#364 = VERTEX_POINT ( 'NONE', #238 ) ;
#365 = CARTESIAN_POINT ( 'NONE',  ( 0.000000000000000000, 0.000000000000000000, 7.000000000000000000 ) ) ;
#366 = DATE_TIME_ROLE ( 'classification_date' ) ;
#367 = CARTESIAN_POINT ( 'NONE',  ( 6.700000000000001066, 0.000000000000000000, 7.000000000000020428 ) ) ;
#368 = PERSON_AND_ORGANIZATION_ROLE ( 'classification_officer' ) ;
#369 = AXIS2_PLACEMENT_3D ( 'NONE', #262, #234, #353 ) ;
#370 = CC_DESIGN_PERSON_AND_ORGANIZATION_ASSIGNMENT ( #135, #104, ( #297 ) ) ;
#371 = CARTESIAN_POINT ( 'NONE',  ( 6.000000000000000888, 7.347880794884120722E-16, 7.700000000000040146 ) ) ;
#372 = CARTESIAN_POINT ( 'NONE',  ( 0.000000000000000000, 0.000000000000000000, 7.000000000000000000 ) ) ;
#373 = CYLINDRICAL_SURFACE ( 'NONE', #47, 6.000000000000000888 ) ;
#374 = DIRECTION ( 'NONE',  ( 1.000000000000000000, 0.000000000000000000, 0.000000000000000000 ) ) ;
#375 = CARTESIAN_POINT ( 'NONE',  ( 0.000000000000000000, 0.000000000000000000, 7.700000000000040146 ) ) ;
#376 = PRODUCT_DEFINITION_SHAPE ( 'NONE', 'NONE',  #342 ) ;
#377 = ORIENTED_EDGE ( 'NONE', *, *, #197, .T. ) ;
#378 = CARTESIAN_POINT ( 'NONE',  ( -10.00000000000000000, 0.000000000000000000, 0.000000000000000000 ) ) ;
#379 = EDGE_LOOP ( 'NONE', ( #229, #60 ) ) ;
#380 = TOROIDAL_SURFACE ( 'NONE', #189, 6.700000000000001066, 0.6999999999999999556 ) ;
#381 = LINE ( 'NONE', #318, #272 ) ;
ENDSEC;
END-ISO-10303-21;
