ISO-10303-21;
HEADER;
FILE_DESCRIPTION (( 'STEP AP203' ),
    '1' );
FILE_NAME ('8602.STEP',
    '2022-07-08T15:20:09',
    ( '' ),
    ( '' ),
    'SwSTEP 2.0',
    'SolidWorks 2019',
    '' );
FILE_SCHEMA (( 'CONFIG_CONTROL_DESIGN' ));
ENDSEC;

DATA;
#1 = PERSON_AND_ORGANIZATION_ROLE ( 'creator' ) ;
#2 = PRODUCT_DEFINITION ( 'NEZNÁMÝ', '', #20, #171 ) ;
#3 = ORIENTED_EDGE ( 'NONE', *, *, #29, .T. ) ;
#4 = PERSON_AND_ORGANIZATION ( #343, #334 ) ;
#5 = AXIS2_PLACEMENT_3D ( 'NONE', #154, #355, #92 ) ;
#6 = CARTESIAN_POINT ( 'NONE',  ( 7.000000000000000000, 8.572527594031473190E-16, 5.000000000000000000 ) ) ;
#7 = APPROVAL_ROLE ( '' ) ;
#8 = FACE_OUTER_BOUND ( 'NONE', #79, .T. ) ;
#9 = DIRECTION ( 'NONE',  ( 0.000000000000000000, 0.000000000000000000, 1.000000000000000000 ) ) ;
#10 = DIRECTION ( 'NONE',  ( 0.000000000000000000, 0.000000000000000000, 1.000000000000000000 ) ) ;
#11 = CARTESIAN_POINT ( 'NONE',  ( -4.500000000000000888, 5.510910596163088569E-16, 5.000000000000002665 ) ) ;
#12 = FACE_OUTER_BOUND ( 'NONE', #144, .T. ) ;
#13 = AXIS2_PLACEMENT_3D ( 'NONE', #219, #71, #199 ) ;
#14 = ORIENTED_EDGE ( 'NONE', *, *, #37, .T. ) ;
#15 = EDGE_CURVE ( 'NONE', #207, #305, #358, .T. ) ;
#16 = ORIENTED_EDGE ( 'NONE', *, *, #139, .T. ) ;
#17 = AXIS2_PLACEMENT_3D ( 'NONE', #298, #133, #266 ) ;
#18 = DIRECTION ( 'NONE',  ( 1.000000000000000000, 0.000000000000000000, 0.000000000000000000 ) ) ;
#19 = MANIFOLD_SOLID_BREP ( 'Odebrat vysunutím3', #164 ) ;
#20 = PRODUCT_DEFINITION_FORMATION_WITH_SPECIFIED_SOURCE ( 'LIBOVOLNÝ', '', #86, .NOT_KNOWN. ) ;
#21 = CARTESIAN_POINT ( 'NONE',  ( 0.000000000000000000, 0.000000000000000000, 255.0000000000000000 ) ) ;
#22 = APPLICATION_CONTEXT ( 'configuration controlled 3d designs of mechanical parts and assemblies' ) ;
#23 = EDGE_CURVE ( 'NONE', #31, #220, #369, .T. ) ;
#24 = DIRECTION ( 'NONE',  ( 1.000000000000000000, 0.000000000000000000, 0.000000000000000000 ) ) ;
#25 = LINE ( 'NONE', #223, #51 ) ;
#26 = ORIENTED_EDGE ( 'NONE', *, *, #239, .T. ) ;
#27 = AXIS2_PLACEMENT_3D ( 'NONE', #110, #245, #365 ) ;
#28 = DIRECTION ( 'NONE',  ( 1.000000000000000000, 0.000000000000000000, 0.000000000000000000 ) ) ;
#29 = EDGE_CURVE ( 'NONE', #49, #57, #158, .T. ) ;
#30 = APPROVAL_ROLE ( '' ) ;
#31 = VERTEX_POINT ( 'NONE', #146 ) ;
#32 = PERSON_AND_ORGANIZATION ( #343, #334 ) ;
#33 = CIRCLE ( 'NONE', #297, 7.000000000000000000 ) ;
#34 = ORIENTED_EDGE ( 'NONE', *, *, #84, .F. ) ;
#35 = CARTESIAN_POINT ( 'NONE',  ( 4.000000000000000000, 4.898587196589412829E-16, 255.0000000000000000 ) ) ;
#36 = PERSON_AND_ORGANIZATION_ROLE ( 'design_owner' ) ;
#37 = EDGE_CURVE ( 'NONE', #220, #31, #41, .T. ) ;
#38 = CARTESIAN_POINT ( 'NONE',  ( 0.000000000000000000, 0.000000000000000000, 5.000000000000000000 ) ) ;
#39 = AXIS2_PLACEMENT_3D ( 'NONE', #262, #232, #28 ) ;
#40 = LINE ( 'NONE', #35, #186 ) ;
#41 = CIRCLE ( 'NONE', #100, 4.000000000000000000 ) ;
#42 = CYLINDRICAL_SURFACE ( 'NONE', #80, 2.500000000000000000 ) ;
#43 = CARTESIAN_POINT ( 'NONE',  ( 0.000000000000000000, 0.000000000000000000, 0.000000000000000000 ) ) ;
#44 = ORIENTED_EDGE ( 'NONE', *, *, #130, .F. ) ;
#45 = EDGE_CURVE ( 'NONE', #309, #72, #73, .T. ) ;
#46 = CIRCLE ( 'NONE', #324, 2.500000000000000000 ) ;
#47 = EDGE_LOOP ( 'NONE', ( #34, #177, #111, #117 ) ) ;
#48 = ORIENTED_EDGE ( 'NONE', *, *, #366, .T. ) ;
#49 = VERTEX_POINT ( 'NONE', #152 ) ;
#50 = CYLINDRICAL_SURFACE ( 'NONE', #27, 2.500000000000000000 ) ;
#51 = VECTOR ( 'NONE', #145, 1000.000000000000000 ) ;
#52 = EDGE_CURVE ( 'NONE', #31, #72, #60, .T. ) ;
#53 = CYLINDRICAL_SURFACE ( 'NONE', #160, 7.000000000000000000 ) ;
#54 = EDGE_LOOP ( 'NONE', ( #332, #181 ) ) ;
#55 = DIRECTION ( 'NONE',  ( -1.000000000000000000, 0.000000000000000000, 0.000000000000000000 ) ) ;
#56 = VERTEX_POINT ( 'NONE', #217 ) ;
#57 = VERTEX_POINT ( 'NONE', #11 ) ;
#58 = AXIS2_PLACEMENT_3D ( 'NONE', #99, #63, #155 ) ;
#59 = APPLICATION_PROTOCOL_DEFINITION ( 'international standard', 'config_control_design', 1994, #22 ) ;
#60 = LINE ( 'NONE', #273, #201 ) ;
#61 = ORIENTED_EDGE ( 'NONE', *, *, #252, .T. ) ;
#62 = APPROVAL_DATE_TIME ( #320, #272 ) ;
#63 = DIRECTION ( 'NONE',  ( -0.000000000000000000, -0.000000000000000000, -1.000000000000000000 ) ) ;
#64 = EDGE_CURVE ( 'NONE', #313, #56, #33, .T. ) ;
#65 = DIRECTION ( 'NONE',  ( -0.000000000000000000, -0.000000000000000000, -1.000000000000000000 ) ) ;
#66 = CARTESIAN_POINT ( 'NONE',  ( 0.000000000000000000, 0.000000000000000000, 0.000000000000000000 ) ) ;
#67 = PLANE ( 'NONE',  #114 ) ;
#68 = EDGE_CURVE ( 'NONE', #346, #221, #137, .T. ) ;
#69 = AXIS2_PLACEMENT_3D ( 'NONE', #43, #163, #175 ) ;
#70 = FACE_BOUND ( 'NONE', #54, .T. ) ;
#71 = DIRECTION ( 'NONE',  ( -0.000000000000000000, -0.000000000000000000, -1.000000000000000000 ) ) ;
#72 = VERTEX_POINT ( 'NONE', #213 ) ;
#73 = CIRCLE ( 'NONE', #87, 4.000000000000000000 ) ;
#74 = VECTOR ( 'NONE', #308, 1000.000000000000000 ) ;
#75 = ORIENTED_EDGE ( 'NONE', *, *, #64, .T. ) ;
#76 = CARTESIAN_POINT ( 'NONE',  ( -2.500000000000000000, 0.000000000000000000, 255.0000000000000000 ) ) ;
#77 = EDGE_CURVE ( 'NONE', #57, #49, #349, .T. ) ;
#78 =( LENGTH_UNIT ( ) NAMED_UNIT ( * ) SI_UNIT ( .MILLI., .METRE. ) );
#79 = EDGE_LOOP ( 'NONE', ( #285, #304, #26, #198 ) ) ;
#80 = AXIS2_PLACEMENT_3D ( 'NONE', #325, #162, #364 ) ;
#81 = CARTESIAN_POINT ( 'NONE',  ( 0.000000000000000000, 0.000000000000000000, 5.500000000000005329 ) ) ;
#82 = DIRECTION ( 'NONE',  ( 1.000000000000000000, 0.000000000000000000, 0.000000000000000000 ) ) ;
#83 = DIRECTION ( 'NONE',  ( 0.000000000000000000, 0.000000000000000000, -1.000000000000000000 ) ) ;
#84 = EDGE_CURVE ( 'NONE', #72, #309, #233, .T. ) ;
#85 = ORIENTED_EDGE ( 'NONE', *, *, #130, .T. ) ;
#86 = PRODUCT ( '8602', '8602', '', ( #184 ) ) ;
#87 = AXIS2_PLACEMENT_3D ( 'NONE', #381, #119, #350 ) ;
#88 = CALENDAR_DATE ( 2022, 8, 7 ) ;
#89 = EDGE_LOOP ( 'NONE', ( #258, #14 ) ) ;
#90 = LOCAL_TIME ( 17, 20, 9.000000000000000000, #261 ) ;
#91 = DIRECTION ( 'NONE',  ( 0.000000000000000000, 0.000000000000000000, 1.000000000000000000 ) ) ;
#92 = DIRECTION ( 'NONE',  ( -1.000000000000000000, 1.224646799147351482E-16, 0.000000000000000000 ) ) ;
#93 = CC_DESIGN_PERSON_AND_ORGANIZATION_ASSIGNMENT ( #263, #94, ( #103 ) ) ;
#94 = PERSON_AND_ORGANIZATION_ROLE ( 'classification_officer' ) ;
#95 = FACE_OUTER_BOUND ( 'NONE', #224, .T. ) ;
#96 = AXIS2_PLACEMENT_3D ( 'NONE', #116, #279, #83 ) ;
#97 = PLANE ( 'NONE',  #257 ) ;
#98 = APPROVAL ( #360, 'NEURÈENÝ' ) ;
#99 = CARTESIAN_POINT ( 'NONE',  ( 0.000000000000000000, 0.000000000000000000, 255.0000000000000000 ) ) ;
#100 = AXIS2_PLACEMENT_3D ( 'NONE', #260, #209, #82 ) ;
#101 = CARTESIAN_POINT ( 'NONE',  ( 0.000000000000000000, 0.000000000000000000, 0.000000000000000000 ) ) ;
#102 = VECTOR ( 'NONE', #65, 1000.000000000000000 ) ;
#103 = SECURITY_CLASSIFICATION ( '', '', #126 ) ;
#104 = CYLINDRICAL_SURFACE ( 'NONE', #13, 4.000000000000000000 ) ;
#105 = SHAPE_DEFINITION_REPRESENTATION ( #348, #329 ) ;
#106 = CC_DESIGN_DATE_AND_TIME_ASSIGNMENT ( #188, #312, ( #103 ) ) ;
#107 = AXIS2_PLACEMENT_3D ( 'NONE', #287, #91, #342 ) ;
#108 = ORIENTED_EDGE ( 'NONE', *, *, #290, .T. ) ;
#109 = FACE_OUTER_BOUND ( 'NONE', #136, .T. ) ;
#110 = CARTESIAN_POINT ( 'NONE',  ( 0.000000000000000000, 0.000000000000000000, 255.0000000000000000 ) ) ;
#111 = ORIENTED_EDGE ( 'NONE', *, *, #29, .F. ) ;
#112 = CARTESIAN_POINT ( 'NONE',  ( -7.000000000000000000, 0.000000000000000000, 0.000000000000000000 ) ) ;
#113 = ORIENTED_EDGE ( 'NONE', *, *, #306, .T. ) ;
#114 = AXIS2_PLACEMENT_3D ( 'NONE', #206, #170, #229 ) ;
#115 = ADVANCED_FACE ( 'NONE', ( #8 ), #42, .F. ) ;
#116 = CARTESIAN_POINT ( 'NONE',  ( 4.500000000000000888, 0.000000000000000000, 5.500000000000005329 ) ) ;
#117 = ORIENTED_EDGE ( 'NONE', *, *, #252, .F. ) ;
#118 = COORDINATED_UNIVERSAL_TIME_OFFSET ( 1, 0, .AHEAD. ) ;
#119 = DIRECTION ( 'NONE',  ( 0.000000000000000000, 0.000000000000000000, 1.000000000000000000 ) ) ;
#120 = AXIS2_PLACEMENT_3D ( 'NONE', #244, #10, #328 ) ;
#121 = ORIENTED_EDGE ( 'NONE', *, *, #64, .F. ) ;
#122 = AXIS2_PLACEMENT_3D ( 'NONE', #277, #140, #18 ) ;
#123 = CALENDAR_DATE ( 2022, 8, 7 ) ;
#124 = ADVANCED_FACE ( 'NONE', ( #70, #95 ), #97, .F. ) ;
#125 = CARTESIAN_POINT ( 'NONE',  ( 0.000000000000000000, 0.000000000000000000, 5.000000000000000000 ) ) ;
#126 = SECURITY_CLASSIFICATION_LEVEL ( 'unclassified' ) ;
#127 = DIRECTION ( 'NONE',  ( 1.000000000000000000, 0.000000000000000000, -0.000000000000000000 ) ) ;
#128 =( NAMED_UNIT ( * ) SI_UNIT ( $, .STERADIAN. ) SOLID_ANGLE_UNIT ( ) );
#129 = DIRECTION ( 'NONE',  ( 0.000000000000000000, 0.000000000000000000, 1.000000000000000000 ) ) ;
#130 = EDGE_CURVE ( 'NONE', #221, #56, #292, .T. ) ;
#131 = AXIS2_PLACEMENT_3D ( 'NONE', #314, #210, #149 ) ;
#132 = CARTESIAN_POINT ( 'NONE',  ( 0.000000000000000000, 0.000000000000000000, 0.000000000000000000 ) ) ;
#133 = DIRECTION ( 'NONE',  ( -0.000000000000000000, -0.000000000000000000, -1.000000000000000000 ) ) ;
#134 = LINE ( 'NONE', #173, #291 ) ;
#135 = AXIS2_PLACEMENT_3D ( 'NONE', #274, #143, #248 ) ;
#136 = EDGE_LOOP ( 'NONE', ( #166, #48, #108, #205 ) ) ;
#137 = CIRCLE ( 'NONE', #322, 7.000000000000000000 ) ;
#138 = ORIENTED_EDGE ( 'NONE', *, *, #84, .T. ) ;
#139 = EDGE_CURVE ( 'NONE', #220, #309, #40, .T. ) ;
#140 = DIRECTION ( 'NONE',  ( 0.000000000000000000, 0.000000000000000000, 1.000000000000000000 ) ) ;
#141 = CC_DESIGN_APPROVAL ( #272, ( #2 ) ) ;
#142 = FACE_OUTER_BOUND ( 'NONE', #47, .T. ) ;
#143 = DIRECTION ( 'NONE',  ( 0.000000000000000000, 0.000000000000000000, 1.000000000000000000 ) ) ;
#144 = EDGE_LOOP ( 'NONE', ( #374, #208, #61, #316 ) ) ;
#145 = DIRECTION ( 'NONE',  ( 0.000000000000000000, 0.000000000000000000, -1.000000000000000000 ) ) ;
#146 = CARTESIAN_POINT ( 'NONE',  ( -4.000000000000000000, 0.000000000000000000, 255.0000000000000000 ) ) ;
#147 = CIRCLE ( 'NONE', #271, 2.500000000000000000 ) ;
#148 = ADVANCED_FACE ( 'NONE', ( #238 ), #157, .T. ) ;
#149 = DIRECTION ( 'NONE',  ( 1.000000000000000000, 0.000000000000000000, 0.000000000000000000 ) ) ;
#150 = EDGE_LOOP ( 'NONE', ( #367, #235 ) ) ;
#151 = CALENDAR_DATE ( 2022, 8, 7 ) ;
#152 = CARTESIAN_POINT ( 'NONE',  ( 4.500000000000000888, 0.000000000000000000, 5.000000000000002665 ) ) ;
#153 = PERSON_AND_ORGANIZATION_ROLE ( 'design_supplier' ) ;
#154 = CARTESIAN_POINT ( 'NONE',  ( -4.500000000000000888, 5.510910596163089556E-16, 5.500000000000005329 ) ) ;
#155 = DIRECTION ( 'NONE',  ( -1.000000000000000000, 0.000000000000000000, 0.000000000000000000 ) ) ;
#156 = DATE_AND_TIME ( #151, #250 ) ;
#157 = CYLINDRICAL_SURFACE ( 'NONE', #302, 7.000000000000000000 ) ;
#158 = CIRCLE ( 'NONE', #39, 4.500000000000000888 ) ;
#159 = CARTESIAN_POINT ( 'NONE',  ( 4.000000000000000000, 4.898587196589412829E-16, 255.0000000000000000 ) ) ;
#160 = AXIS2_PLACEMENT_3D ( 'NONE', #204, #337, #55 ) ;
#161 = LOCAL_TIME ( 17, 20, 9.000000000000000000, #118 ) ;
#162 = DIRECTION ( 'NONE',  ( 0.000000000000000000, 0.000000000000000000, -1.000000000000000000 ) ) ;
#163 = DIRECTION ( 'NONE',  ( -0.000000000000000000, -0.000000000000000000, -1.000000000000000000 ) ) ;
#164 = CLOSED_SHELL ( 'NONE', ( #359, #296, #189, #276, #148, #214, #124, #370, #231, #344, #115 ) ) ;
#165 = ORIENTED_EDGE ( 'NONE', *, *, #300, .F. ) ;
#166 = ORIENTED_EDGE ( 'NONE', *, *, #15, .T. ) ;
#167 = APPROVAL ( #286, 'NEURÈENÝ' ) ;
#168 =( NAMED_UNIT ( * ) PLANE_ANGLE_UNIT ( ) SI_UNIT ( $, .RADIAN. ) );
#169 = EDGE_LOOP ( 'NONE', ( #44, #379, #376, #75 ) ) ;
#170 = DIRECTION ( 'NONE',  ( 0.000000000000000000, 0.000000000000000000, 1.000000000000000000 ) ) ;
#171 = DESIGN_CONTEXT ( 'detailed design', #22, 'design' ) ;
#172 = EDGE_LOOP ( 'NONE', ( #338, #113 ) ) ;
#173 = CARTESIAN_POINT ( 'NONE',  ( -7.000000000000000000, 0.000000000000000000, 5.000000000000000000 ) ) ;
#174 = EDGE_LOOP ( 'NONE', ( #203, #16, #228, #230 ) ) ;
#175 = DIRECTION ( 'NONE',  ( 1.000000000000000000, 0.000000000000000000, 0.000000000000000000 ) ) ;
#176 = EDGE_CURVE ( 'NONE', #72, #57, #275, .T. ) ;
#177 = ORIENTED_EDGE ( 'NONE', *, *, #176, .T. ) ;
#178 = ORIENTED_EDGE ( 'NONE', *, *, #77, .T. ) ;
#179 = DATE_AND_TIME ( #267, #193 ) ;
#180 = APPLICATION_CONTEXT ( 'configuration controlled 3d designs of mechanical parts and assemblies' ) ;
#181 = ORIENTED_EDGE ( 'NONE', *, *, #290, .F. ) ;
#182 = CC_DESIGN_DATE_AND_TIME_ASSIGNMENT ( #179, #289, ( #2 ) ) ;
#183 = EDGE_LOOP ( 'NONE', ( #246, #85, #253, #165 ) ) ;
#184 = MECHANICAL_CONTEXT ( 'NONE', #180, 'mechanical' ) ;
#185 = DIRECTION ( 'NONE',  ( 1.000000000000000000, 0.000000000000000000, 0.000000000000000000 ) ) ;
#186 = VECTOR ( 'NONE', #327, 1000.000000000000000 ) ;
#187 = CC_DESIGN_SECURITY_CLASSIFICATION ( #103, ( #20 ) ) ;
#188 = DATE_AND_TIME ( #123, #202 ) ;
#189 = ADVANCED_FACE ( 'NONE', ( #211 ), #321, .T. ) ;
#190 = DIRECTION ( 'NONE',  ( 1.000000000000000000, 0.000000000000000000, 0.000000000000000000 ) ) ;
#191 = DIRECTION ( 'NONE',  ( 0.000000000000000000, 0.000000000000000000, 1.000000000000000000 ) ) ;
#192 = DIRECTION ( 'NONE',  ( -0.000000000000000000, -0.000000000000000000, -1.000000000000000000 ) ) ;
#193 = LOCAL_TIME ( 17, 20, 9.000000000000000000, #234 ) ;
#194 = CC_DESIGN_APPROVAL ( #98, ( #103 ) ) ;
#195 = DIRECTION ( 'NONE',  ( 0.000000000000000000, 0.000000000000000000, 1.000000000000000000 ) ) ;
#196 = TOROIDAL_SURFACE ( 'NONE', #377, 4.500000000000000888, 0.5000000000000000000 ) ;
#197 = EDGE_CURVE ( 'NONE', #336, #301, #46, .T. ) ;
#198 = ORIENTED_EDGE ( 'NONE', *, *, #197, .T. ) ;
#199 = DIRECTION ( 'NONE',  ( -1.000000000000000000, 0.000000000000000000, 0.000000000000000000 ) ) ;
#200 = CARTESIAN_POINT ( 'NONE',  ( 2.500000000000000000, 3.061616997868383141E-16, 0.000000000000000000 ) ) ;
#201 = VECTOR ( 'NONE', #192, 1000.000000000000000 ) ;
#202 = LOCAL_TIME ( 17, 20, 9.000000000000000000, #259 ) ;
#203 = ORIENTED_EDGE ( 'NONE', *, *, #37, .F. ) ;
#204 = CARTESIAN_POINT ( 'NONE',  ( 0.000000000000000000, 0.000000000000000000, 5.000000000000000000 ) ) ;
#205 = ORIENTED_EDGE ( 'NONE', *, *, #239, .F. ) ;
#206 = CARTESIAN_POINT ( 'NONE',  ( 0.000000000000000000, 0.000000000000000000, 255.0000000000000000 ) ) ;
#207 = VERTEX_POINT ( 'NONE', #215 ) ;
#208 = ORIENTED_EDGE ( 'NONE', *, *, #45, .F. ) ;
#209 = DIRECTION ( 'NONE',  ( 0.000000000000000000, 0.000000000000000000, 1.000000000000000000 ) ) ;
#210 = DIRECTION ( 'NONE',  ( 0.000000000000000000, 0.000000000000000000, 1.000000000000000000 ) ) ;
#211 = FACE_OUTER_BOUND ( 'NONE', #174, .T. ) ;
#212 = PERSON_AND_ORGANIZATION ( #343, #334 ) ;
#213 = CARTESIAN_POINT ( 'NONE',  ( -4.000000000000000000, 0.000000000000000000, 5.500000000000005329 ) ) ;
#214 = ADVANCED_FACE ( 'NONE', ( #362, #293 ), #242, .T. ) ;
#215 = CARTESIAN_POINT ( 'NONE',  ( -2.500000000000000000, 0.000000000000000000, 255.0000000000000000 ) ) ;
#216 = FACE_OUTER_BOUND ( 'NONE', #89, .T. ) ;
#217 = CARTESIAN_POINT ( 'NONE',  ( 7.000000000000000000, 8.572527594031473190E-16, 0.000000000000000000 ) ) ;
#218 = CIRCLE ( 'NONE', #69, 2.500000000000000000 ) ;
#219 = CARTESIAN_POINT ( 'NONE',  ( 0.000000000000000000, 0.000000000000000000, 255.0000000000000000 ) ) ;
#220 = VERTEX_POINT ( 'NONE', #159 ) ;
#221 = VERTEX_POINT ( 'NONE', #270 ) ;
#222 = FACE_OUTER_BOUND ( 'NONE', #183, .T. ) ;
#223 = CARTESIAN_POINT ( 'NONE',  ( 2.500000000000000000, 3.061616997868383141E-16, 255.0000000000000000 ) ) ;
#224 = EDGE_LOOP ( 'NONE', ( #121, #283 ) ) ;
#225 = CC_DESIGN_PERSON_AND_ORGANIZATION_ASSIGNMENT ( #212, #1, ( #20 ) ) ;
#226 = DIRECTION ( 'NONE',  ( 1.000000000000000000, 0.000000000000000000, 0.000000000000000000 ) ) ;
#227 = TOROIDAL_SURFACE ( 'NONE', #122, 4.500000000000000888, 0.5000000000000000000 ) ;
#228 = ORIENTED_EDGE ( 'NONE', *, *, #45, .T. ) ;
#229 = DIRECTION ( 'NONE',  ( 1.000000000000000000, 0.000000000000000000, -0.000000000000000000 ) ) ;
#230 = ORIENTED_EDGE ( 'NONE', *, *, #52, .F. ) ;
#231 = ADVANCED_FACE ( 'NONE', ( #363, #216 ), #67, .T. ) ;
#232 = DIRECTION ( 'NONE',  ( -0.000000000000000000, -0.000000000000000000, -1.000000000000000000 ) ) ;
#233 = CIRCLE ( 'NONE', #120, 4.000000000000000000 ) ;
#234 = COORDINATED_UNIVERSAL_TIME_OFFSET ( 1, 0, .AHEAD. ) ;
#235 = ORIENTED_EDGE ( 'NONE', *, *, #247, .F. ) ;
#236 = PERSON_AND_ORGANIZATION_ROLE ( 'creator' ) ;
#237 = DIRECTION ( 'NONE',  ( -0.000000000000000000, -0.000000000000000000, -1.000000000000000000 ) ) ;
#238 = FACE_OUTER_BOUND ( 'NONE', #169, .T. ) ;
#239 = EDGE_CURVE ( 'NONE', #207, #336, #278, .T. ) ;
#240 = PERSON_AND_ORGANIZATION ( #343, #334 ) ;
#241 =( GEOMETRIC_REPRESENTATION_CONTEXT ( 3 ) GLOBAL_UNCERTAINTY_ASSIGNED_CONTEXT ( ( #310 ) ) GLOBAL_UNIT_ASSIGNED_CONTEXT ( ( #78, #168, #128 ) ) REPRESENTATION_CONTEXT ( 'NONE', 'WORKASPACE' ) );
#242 = PLANE ( 'NONE',  #315 ) ;
#243 = CC_DESIGN_PERSON_AND_ORGANIZATION_ASSIGNMENT ( #32, #36, ( #86 ) ) ;
#244 = CARTESIAN_POINT ( 'NONE',  ( 0.000000000000000000, 0.000000000000000000, 5.500000000000005329 ) ) ;
#245 = DIRECTION ( 'NONE',  ( 0.000000000000000000, 0.000000000000000000, -1.000000000000000000 ) ) ;
#246 = ORIENTED_EDGE ( 'NONE', *, *, #306, .F. ) ;
#247 = EDGE_CURVE ( 'NONE', #305, #207, #147, .T. ) ;
#248 = DIRECTION ( 'NONE',  ( 1.000000000000000000, 0.000000000000000000, 0.000000000000000000 ) ) ;
#249 = APPROVAL_PERSON_ORGANIZATION ( #354, #272, #7 ) ;
#250 = LOCAL_TIME ( 17, 20, 9.000000000000000000, #356 ) ;
#251 = DIRECTION ( 'NONE',  ( -0.000000000000000000, -0.000000000000000000, -1.000000000000000000 ) ) ;
#252 = EDGE_CURVE ( 'NONE', #309, #49, #352, .T. ) ;
#253 = ORIENTED_EDGE ( 'NONE', *, *, #335, .T. ) ;
#254 = DIRECTION ( 'NONE',  ( 1.000000000000000000, 0.000000000000000000, 0.000000000000000000 ) ) ;
#255 = EDGE_LOOP ( 'NONE', ( #333, #288, #353, #138 ) ) ;
#256 = CARTESIAN_POINT ( 'NONE',  ( 4.000000000000000000, 4.898587196589412829E-16, 5.500000000000005329 ) ) ;
#257 = AXIS2_PLACEMENT_3D ( 'NONE', #101, #195, #127 ) ;
#258 = ORIENTED_EDGE ( 'NONE', *, *, #23, .T. ) ;
#259 = COORDINATED_UNIVERSAL_TIME_OFFSET ( 1, 0, .AHEAD. ) ;
#260 = CARTESIAN_POINT ( 'NONE',  ( 0.000000000000000000, 0.000000000000000000, 255.0000000000000000 ) ) ;
#261 = COORDINATED_UNIVERSAL_TIME_OFFSET ( 1, 0, .AHEAD. ) ;
#262 = CARTESIAN_POINT ( 'NONE',  ( 0.000000000000000000, 0.000000000000000000, 5.000000000000000000 ) ) ;
#263 = PERSON_AND_ORGANIZATION ( #343, #334 ) ;
#264 = CARTESIAN_POINT ( 'NONE',  ( 0.000000000000000000, 0.000000000000000000, 5.000000000000000000 ) ) ;
#265 = APPROVAL_DATE_TIME ( #156, #167 ) ;
#266 = DIRECTION ( 'NONE',  ( 1.000000000000000000, 0.000000000000000000, 0.000000000000000000 ) ) ;
#267 = CALENDAR_DATE ( 2022, 8, 7 ) ;
#268 = DIRECTION ( 'NONE',  ( 1.000000000000000000, 0.000000000000000000, 0.000000000000000000 ) ) ;
#269 = AXIS2_PLACEMENT_3D ( 'NONE', #311, #280, #24 ) ;
#270 = CARTESIAN_POINT ( 'NONE',  ( 7.000000000000000000, 8.572527594031473190E-16, 5.000000000000000000 ) ) ;
#271 = AXIS2_PLACEMENT_3D ( 'NONE', #21, #345, #254 ) ;
#272 = APPROVAL ( #347, 'NEURÈENÝ' ) ;
#273 = CARTESIAN_POINT ( 'NONE',  ( -4.000000000000000000, 0.000000000000000000, 255.0000000000000000 ) ) ;
#274 = CARTESIAN_POINT ( 'NONE',  ( 0.000000000000000000, 0.000000000000000000, 5.000000000000000000 ) ) ;
#275 = CIRCLE ( 'NONE', #5, 0.5000000000000004441 ) ;
#276 = ADVANCED_FACE ( 'NONE', ( #222 ), #53, .T. ) ;
#277 = CARTESIAN_POINT ( 'NONE',  ( 0.000000000000000000, 0.000000000000000000, 5.500000000000005329 ) ) ;
#278 = LINE ( 'NONE', #76, #74 ) ;
#279 = DIRECTION ( 'NONE',  ( 0.000000000000000000, -1.000000000000000000, 0.000000000000000000 ) ) ;
#280 = DIRECTION ( 'NONE',  ( 0.000000000000000000, 0.000000000000000000, 1.000000000000000000 ) ) ;
#281 = DIRECTION ( 'NONE',  ( 1.000000000000000000, 0.000000000000000000, 0.000000000000000000 ) ) ;
#282 = PRODUCT_RELATED_PRODUCT_CATEGORY ( 'detail', '', ( #86 ) ) ;
#283 = ORIENTED_EDGE ( 'NONE', *, *, #335, .F. ) ;
#284 = APPLICATION_PROTOCOL_DEFINITION ( 'international standard', 'config_control_design', 1994, #180 ) ;
#285 = ORIENTED_EDGE ( 'NONE', *, *, #366, .F. ) ;
#286 = APPROVAL_STATUS ( 'not_yet_approved' ) ;
#287 = CARTESIAN_POINT ( 'NONE',  ( 0.000000000000000000, 0.000000000000000000, 255.0000000000000000 ) ) ;
#288 = ORIENTED_EDGE ( 'NONE', *, *, #23, .F. ) ;
#289 = DATE_TIME_ROLE ( 'creation_date' ) ;
#290 = EDGE_CURVE ( 'NONE', #301, #336, #218, .T. ) ;
#291 = VECTOR ( 'NONE', #251, 1000.000000000000000 ) ;
#292 = LINE ( 'NONE', #6, #102 ) ;
#293 = FACE_OUTER_BOUND ( 'NONE', #172, .T. ) ;
#294 = DATE_AND_TIME ( #88, #161 ) ;
#295 = DIRECTION ( 'NONE',  ( 1.000000000000000000, 0.000000000000000000, -0.000000000000000000 ) ) ;
#296 = ADVANCED_FACE ( 'NONE', ( #142 ), #227, .F. ) ;
#297 = AXIS2_PLACEMENT_3D ( 'NONE', #132, #129, #185 ) ;
#298 = CARTESIAN_POINT ( 'NONE',  ( 0.000000000000000000, 0.000000000000000000, 5.000000000000000000 ) ) ;
#299 = DIRECTION ( 'NONE',  ( -1.000000000000000000, 0.000000000000000000, 0.000000000000000000 ) ) ;
#300 = EDGE_CURVE ( 'NONE', #346, #313, #134, .T. ) ;
#301 = VERTEX_POINT ( 'NONE', #200 ) ;
#302 = AXIS2_PLACEMENT_3D ( 'NONE', #125, #237, #299 ) ;
#303 = APPROVAL_PERSON_ORGANIZATION ( #323, #98, #380 ) ;
#304 = ORIENTED_EDGE ( 'NONE', *, *, #247, .T. ) ;
#305 = VERTEX_POINT ( 'NONE', #375 ) ;
#306 = EDGE_CURVE ( 'NONE', #221, #346, #371, .T. ) ;
#307 = CARTESIAN_POINT ( 'NONE',  ( 0.000000000000000000, 0.000000000000000000, 0.000000000000000000 ) ) ;
#308 = DIRECTION ( 'NONE',  ( 0.000000000000000000, 0.000000000000000000, -1.000000000000000000 ) ) ;
#309 = VERTEX_POINT ( 'NONE', #256 ) ;
#310 = UNCERTAINTY_MEASURE_WITH_UNIT (LENGTH_MEASURE( 1.000000000000000082E-05 ), #78, 'distance_accuracy_value', 'NONE');
#311 = CARTESIAN_POINT ( 'NONE',  ( 0.000000000000000000, 0.000000000000000000, 255.0000000000000000 ) ) ;
#312 = DATE_TIME_ROLE ( 'classification_date' ) ;
#313 = VERTEX_POINT ( 'NONE', #112 ) ;
#314 = CARTESIAN_POINT ( 'NONE',  ( 0.000000000000000000, 0.000000000000000000, 0.000000000000000000 ) ) ;
#315 = AXIS2_PLACEMENT_3D ( 'NONE', #38, #191, #295 ) ;
#316 = ORIENTED_EDGE ( 'NONE', *, *, #77, .F. ) ;
#317 = CALENDAR_DATE ( 2022, 8, 7 ) ;
#318 = EDGE_LOOP ( 'NONE', ( #3, #178 ) ) ;
#319 = CC_DESIGN_PERSON_AND_ORGANIZATION_ASSIGNMENT ( #4, #153, ( #20 ) ) ;
#320 = DATE_AND_TIME ( #317, #90 ) ;
#321 = CYLINDRICAL_SURFACE ( 'NONE', #58, 4.000000000000000000 ) ;
#322 = AXIS2_PLACEMENT_3D ( 'NONE', #264, #9, #268 ) ;
#323 = PERSON_AND_ORGANIZATION ( #343, #334 ) ;
#324 = AXIS2_PLACEMENT_3D ( 'NONE', #66, #357, #190 ) ;
#325 = CARTESIAN_POINT ( 'NONE',  ( 0.000000000000000000, 0.000000000000000000, 255.0000000000000000 ) ) ;
#326 = CC_DESIGN_PERSON_AND_ORGANIZATION_ASSIGNMENT ( #351, #236, ( #2 ) ) ;
#327 = DIRECTION ( 'NONE',  ( -0.000000000000000000, -0.000000000000000000, -1.000000000000000000 ) ) ;
#328 = DIRECTION ( 'NONE',  ( 1.000000000000000000, 0.000000000000000000, 0.000000000000000000 ) ) ;
#329 = ADVANCED_BREP_SHAPE_REPRESENTATION ( '8602', ( #19, #131 ), #241 ) ;
#330 = APPROVAL_PERSON_ORGANIZATION ( #240, #167, #30 ) ;
#331 = DIRECTION ( 'NONE',  ( 0.000000000000000000, 0.000000000000000000, 1.000000000000000000 ) ) ;
#332 = ORIENTED_EDGE ( 'NONE', *, *, #197, .F. ) ;
#333 = ORIENTED_EDGE ( 'NONE', *, *, #139, .F. ) ;
#334 = ORGANIZATION ( 'NEURÈENÝ', 'NEURÈENÝ', '' ) ;
#335 = EDGE_CURVE ( 'NONE', #56, #313, #339, .T. ) ;
#336 = VERTEX_POINT ( 'NONE', #340 ) ;
#337 = DIRECTION ( 'NONE',  ( -0.000000000000000000, -0.000000000000000000, -1.000000000000000000 ) ) ;
#338 = ORIENTED_EDGE ( 'NONE', *, *, #68, .T. ) ;
#339 = CIRCLE ( 'NONE', #361, 7.000000000000000000 ) ;
#340 = CARTESIAN_POINT ( 'NONE',  ( -2.500000000000000000, 0.000000000000000000, 0.000000000000000000 ) ) ;
#341 = CC_DESIGN_APPROVAL ( #167, ( #20 ) ) ;
#342 = DIRECTION ( 'NONE',  ( 1.000000000000000000, 0.000000000000000000, 0.000000000000000000 ) ) ;
#343 = PERSON ( 'NEURÈENÝ', 'NEURÈENÝ', 'NEURÈENÝ', ('NEURÈENÝ'), ('NEURÈENÝ'), ('NEURÈENÝ') ) ;
#344 = ADVANCED_FACE ( 'NONE', ( #12 ), #196, .F. ) ;
#345 = DIRECTION ( 'NONE',  ( 0.000000000000000000, 0.000000000000000000, 1.000000000000000000 ) ) ;
#346 = VERTEX_POINT ( 'NONE', #372 ) ;
#347 = APPROVAL_STATUS ( 'not_yet_approved' ) ;
#348 = PRODUCT_DEFINITION_SHAPE ( 'NONE', 'NONE',  #2 ) ;
#349 = CIRCLE ( 'NONE', #17, 4.500000000000000888 ) ;
#350 = DIRECTION ( 'NONE',  ( 1.000000000000000000, 0.000000000000000000, 0.000000000000000000 ) ) ;
#351 = PERSON_AND_ORGANIZATION ( #343, #334 ) ;
#352 = CIRCLE ( 'NONE', #96, 0.5000000000000004441 ) ;
#353 = ORIENTED_EDGE ( 'NONE', *, *, #52, .T. ) ;
#354 = PERSON_AND_ORGANIZATION ( #343, #334 ) ;
#355 = DIRECTION ( 'NONE',  ( 1.224646799147353207E-16, 1.000000000000000000, -0.000000000000000000 ) ) ;
#356 = COORDINATED_UNIVERSAL_TIME_OFFSET ( 1, 0, .AHEAD. ) ;
#357 = DIRECTION ( 'NONE',  ( -0.000000000000000000, -0.000000000000000000, -1.000000000000000000 ) ) ;
#358 = CIRCLE ( 'NONE', #269, 2.500000000000000000 ) ;
#359 = ADVANCED_FACE ( 'NONE', ( #109 ), #50, .F. ) ;
#360 = APPROVAL_STATUS ( 'not_yet_approved' ) ;
#361 = AXIS2_PLACEMENT_3D ( 'NONE', #307, #331, #226 ) ;
#362 = FACE_BOUND ( 'NONE', #318, .T. ) ;
#363 = FACE_BOUND ( 'NONE', #150, .T. ) ;
#364 = DIRECTION ( 'NONE',  ( -1.000000000000000000, 0.000000000000000000, 0.000000000000000000 ) ) ;
#365 = DIRECTION ( 'NONE',  ( -1.000000000000000000, 0.000000000000000000, 0.000000000000000000 ) ) ;
#366 = EDGE_CURVE ( 'NONE', #305, #301, #25, .T. ) ;
#367 = ORIENTED_EDGE ( 'NONE', *, *, #15, .F. ) ;
#368 = APPROVAL_DATE_TIME ( #294, #98 ) ;
#369 = CIRCLE ( 'NONE', #107, 4.000000000000000000 ) ;
#370 = ADVANCED_FACE ( 'NONE', ( #378 ), #104, .T. ) ;
#371 = CIRCLE ( 'NONE', #135, 7.000000000000000000 ) ;
#372 = CARTESIAN_POINT ( 'NONE',  ( -7.000000000000000000, 0.000000000000000000, 5.000000000000000000 ) ) ;
#373 = DIRECTION ( 'NONE',  ( 0.000000000000000000, 0.000000000000000000, 1.000000000000000000 ) ) ;
#374 = ORIENTED_EDGE ( 'NONE', *, *, #176, .F. ) ;
#375 = CARTESIAN_POINT ( 'NONE',  ( 2.500000000000000000, 3.061616997868383141E-16, 255.0000000000000000 ) ) ;
#376 = ORIENTED_EDGE ( 'NONE', *, *, #300, .T. ) ;
#377 = AXIS2_PLACEMENT_3D ( 'NONE', #81, #373, #281 ) ;
#378 = FACE_OUTER_BOUND ( 'NONE', #255, .T. ) ;
#379 = ORIENTED_EDGE ( 'NONE', *, *, #68, .F. ) ;
#380 = APPROVAL_ROLE ( '' ) ;
#381 = CARTESIAN_POINT ( 'NONE',  ( 0.000000000000000000, 0.000000000000000000, 5.500000000000005329 ) ) ;
ENDSEC;
END-ISO-10303-21;
