ISO-10303-21;
HEADER;
FILE_DESCRIPTION (( 'STEP AP203' ),
    '1' );
FILE_NAME ('eb19.STEP',
    '2022-07-08T15:37:40',
    ( '' ),
    ( '' ),
    'SwSTEP 2.0',
    'SolidWorks 2019',
    '' );
FILE_SCHEMA (( 'CONFIG_CONTROL_DESIGN' ));
ENDSEC;

DATA;
#1 = CIRCLE ( 'NONE', #27, 3.000000000000000444 ) ;
#2 = FACE_OUTER_BOUND ( 'NONE', #135, .T. ) ;
#3 = ADVANCED_FACE ( 'NONE', ( #137 ), #142, .F. ) ;
#4 = CARTESIAN_POINT ( 'NONE',  ( 0.000000000000000000, 0.000000000000000000, 5.499999999999949374 ) ) ;
#5 = DIRECTION ( 'NONE',  ( 1.000000000000000000, 0.000000000000000000, 0.000000000000000000 ) ) ;
#6 = DIRECTION ( 'NONE',  ( 0.000000000000000000, 0.000000000000000000, 1.000000000000000000 ) ) ;
#7 = DATE_AND_TIME ( #243, #148 ) ;
#8 = ADVANCED_FACE ( 'NONE', ( #175 ), #353, .T. ) ;
#9 = DIRECTION ( 'NONE',  ( 1.000000000000000000, 0.000000000000000000, 0.000000000000000000 ) ) ;
#10 = PERSON_AND_ORGANIZATION ( #299, #115 ) ;
#11 = DIRECTION ( 'NONE',  ( 0.000000000000000000, 0.000000000000000000, 1.000000000000000000 ) ) ;
#12 = EDGE_CURVE ( 'NONE', #25, #280, #126, .T. ) ;
#13 = AXIS2_PLACEMENT_3D ( 'NONE', #151, #264, #183 ) ;
#14 = AXIS2_PLACEMENT_3D ( 'NONE', #129, #93, #5 ) ;
#15 = EDGE_LOOP ( 'NONE', ( #257, #54 ) ) ;
#16 = ORIENTED_EDGE ( 'NONE', *, *, #232, .F. ) ;
#17 = VERTEX_POINT ( 'NONE', #288 ) ;
#18 = CARTESIAN_POINT ( 'NONE',  ( 0.000000000000000000, 0.000000000000000000, 555.0000000000000000 ) ) ;
#19 = ORIENTED_EDGE ( 'NONE', *, *, #292, .T. ) ;
#20 = DIRECTION ( 'NONE',  ( -1.000000000000000000, 0.000000000000000000, 0.000000000000000000 ) ) ;
#21 = CC_DESIGN_PERSON_AND_ORGANIZATION_ASSIGNMENT ( #72, #334, ( #70 ) ) ;
#22 = ORIENTED_EDGE ( 'NONE', *, *, #12, .F. ) ;
#23 = AXIS2_PLACEMENT_3D ( 'NONE', #50, #316, #172 ) ;
#24 = ORIENTED_EDGE ( 'NONE', *, *, #77, .T. ) ;
#25 = VERTEX_POINT ( 'NONE', #235 ) ;
#26 = DIRECTION ( 'NONE',  ( 1.000000000000000000, 0.000000000000000000, 0.000000000000000000 ) ) ;
#27 = AXIS2_PLACEMENT_3D ( 'NONE', #94, #303, #217 ) ;
#28 = CARTESIAN_POINT ( 'NONE',  ( 0.000000000000000000, 0.000000000000000000, 0.000000000000000000 ) ) ;
#29 = CALENDAR_DATE ( 2022, 8, 7 ) ;
#30 = FACE_OUTER_BOUND ( 'NONE', #341, .T. ) ;
#31 = PRODUCT ( 'eb19', 'eb19', '', ( #305 ) ) ;
#32 = ADVANCED_FACE ( 'NONE', ( #322, #169 ), #380, .T. ) ;
#33 = PERSON_AND_ORGANIZATION ( #299, #115 ) ;
#34 = DIRECTION ( 'NONE',  ( -0.000000000000000000, -0.000000000000000000, -1.000000000000000000 ) ) ;
#35 = APPLICATION_CONTEXT ( 'configuration controlled 3d designs of mechanical parts and assemblies' ) ;
#36 = SHAPE_DEFINITION_REPRESENTATION ( #306, #343 ) ;
#37 = CIRCLE ( 'NONE', #351, 6.000000000000000888 ) ;
#38 = AXIS2_PLACEMENT_3D ( 'NONE', #250, #40, #367 ) ;
#39 = DIRECTION ( 'NONE',  ( -0.000000000000000000, -0.000000000000000000, -1.000000000000000000 ) ) ;
#40 = DIRECTION ( 'NONE',  ( 0.000000000000000000, 0.000000000000000000, 1.000000000000000000 ) ) ;
#41 = DESIGN_CONTEXT ( 'detailed design', #35, 'design' ) ;
#42 = CALENDAR_DATE ( 2022, 8, 7 ) ;
#43 = ADVANCED_FACE ( 'NONE', ( #344 ), #81, .T. ) ;
#44 = VERTEX_POINT ( 'NONE', #140 ) ;
#45 = DIRECTION ( 'NONE',  ( -0.000000000000000000, -0.000000000000000000, -1.000000000000000000 ) ) ;
#46 = VERTEX_POINT ( 'NONE', #259 ) ;
#47 = ORIENTED_EDGE ( 'NONE', *, *, #80, .T. ) ;
#48 = LOCAL_TIME ( 17, 37, 40.00000000000000000, #327 ) ;
#49 = CIRCLE ( 'NONE', #180, 3.500000000000000444 ) ;
#50 = CARTESIAN_POINT ( 'NONE',  ( 0.000000000000000000, 0.000000000000000000, 555.0000000000000000 ) ) ;
#51 = APPROVAL ( #216, 'NEURÈENÝ' ) ;
#52 = CARTESIAN_POINT ( 'NONE',  ( -1.750000000000000000, 0.000000000000000000, 555.0000000000000000 ) ) ;
#53 = CARTESIAN_POINT ( 'NONE',  ( 0.000000000000000000, 0.000000000000000000, 0.000000000000000000 ) ) ;
#54 = ORIENTED_EDGE ( 'NONE', *, *, #281, .T. ) ;
#55 =( NAMED_UNIT ( * ) PLANE_ANGLE_UNIT ( ) SI_UNIT ( $, .RADIAN. ) );
#56 = CIRCLE ( 'NONE', #272, 0.5000000000000004441 ) ;
#57 = APPLICATION_CONTEXT ( 'configuration controlled 3d designs of mechanical parts and assemblies' ) ;
#58 = CARTESIAN_POINT ( 'NONE',  ( 0.000000000000000000, 0.000000000000000000, 5.499999999999949374 ) ) ;
#59 = CC_DESIGN_PERSON_AND_ORGANIZATION_ASSIGNMENT ( #182, #356, ( #233 ) ) ;
#60 = DIRECTION ( 'NONE',  ( -1.000000000000000000, 0.000000000000000000, 0.000000000000000000 ) ) ;
#61 = DIRECTION ( 'NONE',  ( -0.000000000000000000, -0.000000000000000000, -1.000000000000000000 ) ) ;
#62 = AXIS2_PLACEMENT_3D ( 'NONE', #53, #261, #170 ) ;
#63 = CC_DESIGN_DATE_AND_TIME_ASSIGNMENT ( #240, #159, ( #70 ) ) ;
#64 = APPROVAL_ROLE ( '' ) ;
#65 = FACE_OUTER_BOUND ( 'NONE', #205, .T. ) ;
#66 = APPROVAL_ROLE ( '' ) ;
#67 = CARTESIAN_POINT ( 'NONE',  ( 6.000000000000000888, 7.347880794884120722E-16, 0.000000000000000000 ) ) ;
#68 = CARTESIAN_POINT ( 'NONE',  ( 0.000000000000000000, 0.000000000000000000, 0.000000000000000000 ) ) ;
#69 = APPROVAL_STATUS ( 'not_yet_approved' ) ;
#70 = PRODUCT_DEFINITION ( 'NEZNÁMÝ', '', #233, #41 ) ;
#71 = EDGE_LOOP ( 'NONE', ( #319, #246, #165, #79 ) ) ;
#72 = PERSON_AND_ORGANIZATION ( #299, #115 ) ;
#73 = CARTESIAN_POINT ( 'NONE',  ( 0.000000000000000000, 0.000000000000000000, 555.0000000000000000 ) ) ;
#74 = ORIENTED_EDGE ( 'NONE', *, *, #173, .T. ) ;
#75 = AXIS2_PLACEMENT_3D ( 'NONE', #68, #45, #188 ) ;
#76 = ORIENTED_EDGE ( 'NONE', *, *, #249, .F. ) ;
#77 = EDGE_CURVE ( 'NONE', #116, #136, #376, .T. ) ;
#78 = CARTESIAN_POINT ( 'NONE',  ( 3.000000000000000444, 3.673940397442060361E-16, 5.499999999999949374 ) ) ;
#79 = ORIENTED_EDGE ( 'NONE', *, *, #138, .F. ) ;
#80 = EDGE_CURVE ( 'NONE', #370, #251, #345, .T. ) ;
#81 = CYLINDRICAL_SURFACE ( 'NONE', #226, 6.000000000000000888 ) ;
#82 =( LENGTH_UNIT ( ) NAMED_UNIT ( * ) SI_UNIT ( .MILLI., .METRE. ) );
#83 = EDGE_LOOP ( 'NONE', ( #225, #47 ) ) ;
#84 = ORIENTED_EDGE ( 'NONE', *, *, #378, .F. ) ;
#85 = DIRECTION ( 'NONE',  ( 0.000000000000000000, 0.000000000000000000, 1.000000000000000000 ) ) ;
#86 = AXIS2_PLACEMENT_3D ( 'NONE', #125, #266, #241 ) ;
#87 = APPROVAL_PERSON_ORGANIZATION ( #10, #51, #64 ) ;
#88 = ORIENTED_EDGE ( 'NONE', *, *, #77, .F. ) ;
#89 = DIRECTION ( 'NONE',  ( 0.000000000000000000, 0.000000000000000000, 1.000000000000000000 ) ) ;
#90 = EDGE_CURVE ( 'NONE', #116, #204, #371, .T. ) ;
#91 = CARTESIAN_POINT ( 'NONE',  ( -1.750000000000000000, 0.000000000000000000, 555.0000000000000000 ) ) ;
#92 = AXIS2_PLACEMENT_3D ( 'NONE', #202, #318, #141 ) ;
#93 = DIRECTION ( 'NONE',  ( 0.000000000000000000, 0.000000000000000000, 1.000000000000000000 ) ) ;
#94 = CARTESIAN_POINT ( 'NONE',  ( 0.000000000000000000, 0.000000000000000000, 5.499999999999949374 ) ) ;
#95 = PERSON_AND_ORGANIZATION ( #299, #115 ) ;
#96 = CARTESIAN_POINT ( 'NONE',  ( 3.500000000000000444, 0.000000000000000000, 4.999999999999975131 ) ) ;
#97 = CARTESIAN_POINT ( 'NONE',  ( 1.750000000000000000, 2.143131898507868297E-16, 555.0000000000000000 ) ) ;
#98 = EDGE_CURVE ( 'NONE', #368, #285, #331, .T. ) ;
#99 = VECTOR ( 'NONE', #379, 1000.000000000000000 ) ;
#100 = COORDINATED_UNIVERSAL_TIME_OFFSET ( 1, 0, .AHEAD. ) ;
#101 = ORIENTED_EDGE ( 'NONE', *, *, #98, .T. ) ;
#102 = APPROVAL_STATUS ( 'not_yet_approved' ) ;
#103 = CYLINDRICAL_SURFACE ( 'NONE', #265, 3.000000000000000444 ) ;
#104 = EDGE_CURVE ( 'NONE', #285, #368, #1, .T. ) ;
#105 = DIRECTION ( 'NONE',  ( 0.000000000000000000, 0.000000000000000000, -1.000000000000000000 ) ) ;
#106 = CIRCLE ( 'NONE', #167, 1.750000000000000000 ) ;
#107 = LOCAL_TIME ( 17, 37, 40.00000000000000000, #100 ) ;
#108 = EDGE_LOOP ( 'NONE', ( #310, #291, #101, #252 ) ) ;
#109 = CARTESIAN_POINT ( 'NONE',  ( 3.000000000000000444, 3.673940397442060361E-16, 555.0000000000000000 ) ) ;
#110 = ORIENTED_EDGE ( 'NONE', *, *, #147, .F. ) ;
#111 = DIRECTION ( 'NONE',  ( 0.000000000000000000, 0.000000000000000000, 1.000000000000000000 ) ) ;
#112 = ADVANCED_FACE ( 'NONE', ( #2 ), #156, .T. ) ;
#113 = AXIS2_PLACEMENT_3D ( 'NONE', #274, #325, #177 ) ;
#114 = CARTESIAN_POINT ( 'NONE',  ( 0.000000000000000000, 0.000000000000000000, 5.000000000000000000 ) ) ;
#115 = ORGANIZATION ( 'NEURÈENÝ', 'NEURÈENÝ', '' ) ;
#116 = VERTEX_POINT ( 'NONE', #97 ) ;
#117 = DIRECTION ( 'NONE',  ( 1.000000000000000000, 0.000000000000000000, 0.000000000000000000 ) ) ;
#118 = APPROVAL ( #102, 'NEURÈENÝ' ) ;
#119 = ORIENTED_EDGE ( 'NONE', *, *, #320, .F. ) ;
#120 = CLOSED_SHELL ( 'NONE', ( #3, #161, #298, #43, #112, #276, #229, #8, #32, #203, #365 ) ) ;
#121 = CC_DESIGN_SECURITY_CLASSIFICATION ( #192, ( #233 ) ) ;
#122 = FACE_OUTER_BOUND ( 'NONE', #71, .T. ) ;
#123 = DIRECTION ( 'NONE',  ( 0.000000000000000000, 0.000000000000000000, 1.000000000000000000 ) ) ;
#124 = CALENDAR_DATE ( 2022, 8, 7 ) ;
#125 = CARTESIAN_POINT ( 'NONE',  ( -3.500000000000000444, 4.286263797015737088E-16, 5.499999999999949374 ) ) ;
#126 = CIRCLE ( 'NONE', #62, 6.000000000000000888 ) ;
#127 = PERSON_AND_ORGANIZATION ( #299, #115 ) ;
#128 = CARTESIAN_POINT ( 'NONE',  ( 6.000000000000000888, 7.347880794884120722E-16, 5.000000000000000000 ) ) ;
#129 = CARTESIAN_POINT ( 'NONE',  ( 0.000000000000000000, 0.000000000000000000, 0.000000000000000000 ) ) ;
#130 = CARTESIAN_POINT ( 'NONE',  ( 0.000000000000000000, 0.000000000000000000, 5.000000000000000000 ) ) ;
#131 = APPROVAL_DATE_TIME ( #155, #51 ) ;
#132 = AXIS2_PLACEMENT_3D ( 'NONE', #18, #311, #373 ) ;
#133 = ORIENTED_EDGE ( 'NONE', *, *, #195, .F. ) ;
#134 = PRODUCT_RELATED_PRODUCT_CATEGORY ( 'detail', '', ( #31 ) ) ;
#135 = EDGE_LOOP ( 'NONE', ( #110, #119, #19, #312 ) ) ;
#136 = VERTEX_POINT ( 'NONE', #269 ) ;
#137 = FACE_OUTER_BOUND ( 'NONE', #160, .T. ) ;
#138 = EDGE_CURVE ( 'NONE', #368, #194, #56, .T. ) ;
#139 = CARTESIAN_POINT ( 'NONE',  ( 6.000000000000000888, 7.347880794884120722E-16, 5.000000000000000000 ) ) ;
#140 = CARTESIAN_POINT ( 'NONE',  ( -1.750000000000000000, 0.000000000000000000, 0.000000000000000000 ) ) ;
#141 = DIRECTION ( 'NONE',  ( -1.000000000000000000, 0.000000000000000000, 0.000000000000000000 ) ) ;
#142 = CYLINDRICAL_SURFACE ( 'NONE', #23, 1.750000000000000000 ) ;
#143 =( NAMED_UNIT ( * ) SI_UNIT ( $, .STERADIAN. ) SOLID_ANGLE_UNIT ( ) );
#144 = ORIENTED_EDGE ( 'NONE', *, *, #253, .T. ) ;
#145 = CARTESIAN_POINT ( 'NONE',  ( 0.000000000000000000, 0.000000000000000000, 0.000000000000000000 ) ) ;
#146 = TOROIDAL_SURFACE ( 'NONE', #113, 3.500000000000000444, 0.5000000000000000000 ) ;
#147 = EDGE_CURVE ( 'NONE', #370, #280, #213, .T. ) ;
#148 = LOCAL_TIME ( 17, 37, 40.00000000000000000, #361 ) ;
#149 = MANIFOLD_SOLID_BREP ( 'Odebrat vysunutím3', #120 ) ;
#150 = PLANE ( 'NONE',  #219 ) ;
#151 = CARTESIAN_POINT ( 'NONE',  ( 0.000000000000000000, 0.000000000000000000, 555.0000000000000000 ) ) ;
#152 = PERSON_AND_ORGANIZATION ( #299, #115 ) ;
#153 = FACE_BOUND ( 'NONE', #15, .T. ) ;
#154 = AXIS2_PLACEMENT_3D ( 'NONE', #4, #6, #9 ) ;
#155 = DATE_AND_TIME ( #124, #48 ) ;
#156 = CYLINDRICAL_SURFACE ( 'NONE', #339, 6.000000000000000888 ) ;
#157 = DATE_TIME_ROLE ( 'classification_date' ) ;
#158 = FACE_OUTER_BOUND ( 'NONE', #293, .T. ) ;
#159 = DATE_TIME_ROLE ( 'creation_date' ) ;
#160 = EDGE_LOOP ( 'NONE', ( #74, #24, #144, #84 ) ) ;
#161 = ADVANCED_FACE ( 'NONE', ( #122 ), #146, .F. ) ;
#162 = CIRCLE ( 'NONE', #377, 1.750000000000000000 ) ;
#163 = ORIENTED_EDGE ( 'NONE', *, *, #323, .F. ) ;
#164 = LINE ( 'NONE', #223, #372 ) ;
#165 = ORIENTED_EDGE ( 'NONE', *, *, #374, .F. ) ;
#166 = ORIENTED_EDGE ( 'NONE', *, *, #360, .T. ) ;
#167 = AXIS2_PLACEMENT_3D ( 'NONE', #294, #11, #328 ) ;
#168 = CC_DESIGN_APPROVAL ( #118, ( #192 ) ) ;
#169 = FACE_OUTER_BOUND ( 'NONE', #287, .T. ) ;
#170 = DIRECTION ( 'NONE',  ( 1.000000000000000000, 0.000000000000000000, 0.000000000000000000 ) ) ;
#171 = DIRECTION ( 'NONE',  ( 0.000000000000000000, 0.000000000000000000, -1.000000000000000000 ) ) ;
#172 = DIRECTION ( 'NONE',  ( -1.000000000000000000, 0.000000000000000000, 0.000000000000000000 ) ) ;
#173 = EDGE_CURVE ( 'NONE', #204, #116, #106, .T. ) ;
#174 = ORIENTED_EDGE ( 'NONE', *, *, #249, .T. ) ;
#175 = FACE_OUTER_BOUND ( 'NONE', #258, .T. ) ;
#176 = CARTESIAN_POINT ( 'NONE',  ( 3.500000000000000444, 0.000000000000000000, 5.499999999999949374 ) ) ;
#177 = DIRECTION ( 'NONE',  ( 1.000000000000000000, 0.000000000000000000, 0.000000000000000000 ) ) ;
#178 = APPROVAL ( #69, 'NEURÈENÝ' ) ;
#179 = CIRCLE ( 'NONE', #86, 0.4999999999999995559 ) ;
#180 = AXIS2_PLACEMENT_3D ( 'NONE', #185, #39, #245 ) ;
#181 = FACE_BOUND ( 'NONE', #262, .T. ) ;
#182 = PERSON_AND_ORGANIZATION ( #299, #115 ) ;
#183 = DIRECTION ( 'NONE',  ( 1.000000000000000000, 0.000000000000000000, 0.000000000000000000 ) ) ;
#184 = CC_DESIGN_PERSON_AND_ORGANIZATION_ASSIGNMENT ( #152, #273, ( #192 ) ) ;
#185 = CARTESIAN_POINT ( 'NONE',  ( 0.000000000000000000, 0.000000000000000000, 5.000000000000000000 ) ) ;
#186 = AXIS2_PLACEMENT_3D ( 'NONE', #58, #123, #26 ) ;
#187 = PERSON_AND_ORGANIZATION ( #299, #115 ) ;
#188 = DIRECTION ( 'NONE',  ( 1.000000000000000000, 0.000000000000000000, 0.000000000000000000 ) ) ;
#189 = APPLICATION_PROTOCOL_DEFINITION ( 'international standard', 'config_control_design', 1994, #35 ) ;
#190 = EDGE_LOOP ( 'NONE', ( #228, #381, #337, #342 ) ) ;
#191 = VERTEX_POINT ( 'NONE', #326 ) ;
#192 = SECURITY_CLASSIFICATION ( '', '', #363 ) ;
#193 = DIRECTION ( 'NONE',  ( -0.000000000000000000, -0.000000000000000000, -1.000000000000000000 ) ) ;
#194 = VERTEX_POINT ( 'NONE', #96 ) ;
#195 = EDGE_CURVE ( 'NONE', #280, #25, #37, .T. ) ;
#196 = DIRECTION ( 'NONE',  ( 1.000000000000000000, 0.000000000000000000, 0.000000000000000000 ) ) ;
#197 = EDGE_LOOP ( 'NONE', ( #222, #333 ) ) ;
#198 = CARTESIAN_POINT ( 'NONE',  ( 0.000000000000000000, 0.000000000000000000, 5.000000000000000000 ) ) ;
#199 = VECTOR ( 'NONE', #171, 1000.000000000000000 ) ;
#200 = CARTESIAN_POINT ( 'NONE',  ( 0.000000000000000000, 0.000000000000000000, 5.000000000000000000 ) ) ;
#201 = DIRECTION ( 'NONE',  ( -0.000000000000000000, -0.000000000000000000, -1.000000000000000000 ) ) ;
#202 = CARTESIAN_POINT ( 'NONE',  ( 0.000000000000000000, 0.000000000000000000, 555.0000000000000000 ) ) ;
#203 = ADVANCED_FACE ( 'NONE', ( #65 ), #218, .F. ) ;
#204 = VERTEX_POINT ( 'NONE', #91 ) ;
#205 = EDGE_LOOP ( 'NONE', ( #16, #338, #308, #254 ) ) ;
#206 = VECTOR ( 'NONE', #193, 1000.000000000000000 ) ;
#207 = ORIENTED_EDGE ( 'NONE', *, *, #378, .T. ) ;
#208 = DIRECTION ( 'NONE',  ( 0.000000000000000000, 0.000000000000000000, -1.000000000000000000 ) ) ;
#209 = CARTESIAN_POINT ( 'NONE',  ( 0.000000000000000000, 0.000000000000000000, 5.000000000000000000 ) ) ;
#210 = AXIS2_PLACEMENT_3D ( 'NONE', #130, #244, #359 ) ;
#211 = LOCAL_TIME ( 17, 37, 40.00000000000000000, #214 ) ;
#212 = APPROVAL_ROLE ( '' ) ;
#213 = LINE ( 'NONE', #128, #255 ) ;
#214 = COORDINATED_UNIVERSAL_TIME_OFFSET ( 1, 0, .AHEAD. ) ;
#215 = CARTESIAN_POINT ( 'NONE',  ( 0.000000000000000000, 0.000000000000000000, 0.000000000000000000 ) ) ;
#216 = APPROVAL_STATUS ( 'not_yet_approved' ) ;
#217 = DIRECTION ( 'NONE',  ( 1.000000000000000000, 0.000000000000000000, 0.000000000000000000 ) ) ;
#218 = TOROIDAL_SURFACE ( 'NONE', #154, 3.500000000000000444, 0.5000000000000000000 ) ;
#219 = AXIS2_PLACEMENT_3D ( 'NONE', #145, #89, #324 ) ;
#220 = APPROVAL_DATE_TIME ( #7, #178 ) ;
#221 = LINE ( 'NONE', #109, #206 ) ;
#222 = ORIENTED_EDGE ( 'NONE', *, *, #173, .F. ) ;
#223 = CARTESIAN_POINT ( 'NONE',  ( -3.000000000000000444, 0.000000000000000000, 555.0000000000000000 ) ) ;
#224 = DIRECTION ( 'NONE',  ( -1.000000000000000000, 0.000000000000000000, 0.000000000000000000 ) ) ;
#225 = ORIENTED_EDGE ( 'NONE', *, *, #320, .T. ) ;
#226 = AXIS2_PLACEMENT_3D ( 'NONE', #200, #289, #20 ) ;
#227 = DIRECTION ( 'NONE',  ( -1.000000000000000000, 0.000000000000000000, 0.000000000000000000 ) ) ;
#228 = ORIENTED_EDGE ( 'NONE', *, *, #80, .F. ) ;
#229 = ADVANCED_FACE ( 'NONE', ( #181, #30 ), #150, .F. ) ;
#230 = ORIENTED_EDGE ( 'NONE', *, *, #253, .F. ) ;
#231 = DIRECTION ( 'NONE',  ( 1.000000000000000000, 0.000000000000000000, -0.000000000000000000 ) ) ;
#232 = EDGE_CURVE ( 'NONE', #285, #46, #179, .T. ) ;
#233 = PRODUCT_DEFINITION_FORMATION_WITH_SPECIFIED_SOURCE ( 'LIBOVOLNÝ', '', #31, .NOT_KNOWN. ) ;
#234 = DIRECTION ( 'NONE',  ( 0.000000000000000000, 0.000000000000000000, 1.000000000000000000 ) ) ;
#235 = CARTESIAN_POINT ( 'NONE',  ( -6.000000000000000888, 0.000000000000000000, 0.000000000000000000 ) ) ;
#236 = ORIENTED_EDGE ( 'NONE', *, *, #309, .T. ) ;
#237 = ORIENTED_EDGE ( 'NONE', *, *, #315, .F. ) ;
#238 = DIRECTION ( 'NONE',  ( 1.000000000000000000, 0.000000000000000000, 0.000000000000000000 ) ) ;
#239 = DIRECTION ( 'NONE',  ( 0.000000000000000000, 0.000000000000000000, 1.000000000000000000 ) ) ;
#240 = DATE_AND_TIME ( #329, #296 ) ;
#241 = DIRECTION ( 'NONE',  ( -1.000000000000000000, 1.224646799147354440E-16, 0.000000000000000000 ) ) ;
#242 = CIRCLE ( 'NONE', #38, 6.000000000000000888 ) ;
#243 = CALENDAR_DATE ( 2022, 8, 7 ) ;
#244 = DIRECTION ( 'NONE',  ( 0.000000000000000000, 0.000000000000000000, 1.000000000000000000 ) ) ;
#245 = DIRECTION ( 'NONE',  ( 1.000000000000000000, 0.000000000000000000, 0.000000000000000000 ) ) ;
#246 = ORIENTED_EDGE ( 'NONE', *, *, #232, .T. ) ;
#247 = AXIS2_PLACEMENT_3D ( 'NONE', #375, #111, #231 ) ;
#248 = AXIS2_PLACEMENT_3D ( 'NONE', #198, #201, #196 ) ;
#249 = EDGE_CURVE ( 'NONE', #191, #17, #295, .T. ) ;
#250 = CARTESIAN_POINT ( 'NONE',  ( 0.000000000000000000, 0.000000000000000000, 5.000000000000000000 ) ) ;
#251 = VERTEX_POINT ( 'NONE', #297 ) ;
#252 = ORIENTED_EDGE ( 'NONE', *, *, #360, .F. ) ;
#253 = EDGE_CURVE ( 'NONE', #136, #44, #162, .T. ) ;
#254 = ORIENTED_EDGE ( 'NONE', *, *, #281, .F. ) ;
#255 = VECTOR ( 'NONE', #301, 1000.000000000000000 ) ;
#256 = AXIS2_PLACEMENT_3D ( 'NONE', #282, #105, #227 ) ;
#257 = ORIENTED_EDGE ( 'NONE', *, *, #374, .T. ) ;
#258 = EDGE_LOOP ( 'NONE', ( #237, #76, #166, #348 ) ) ;
#259 = CARTESIAN_POINT ( 'NONE',  ( -3.500000000000000444, 4.286263797015737088E-16, 4.999999999999975131 ) ) ;
#260 = CARTESIAN_POINT ( 'NONE',  ( 1.750000000000000000, 2.143131898507868297E-16, 555.0000000000000000 ) ) ;
#261 = DIRECTION ( 'NONE',  ( 0.000000000000000000, 0.000000000000000000, 1.000000000000000000 ) ) ;
#262 = EDGE_LOOP ( 'NONE', ( #163, #230 ) ) ;
#263 =( GEOMETRIC_REPRESENTATION_CONTEXT ( 3 ) GLOBAL_UNCERTAINTY_ASSIGNED_CONTEXT ( ( #332 ) ) GLOBAL_UNIT_ASSIGNED_CONTEXT ( ( #82, #55, #143 ) ) REPRESENTATION_CONTEXT ( 'NONE', 'WORKASPACE' ) );
#264 = DIRECTION ( 'NONE',  ( 0.000000000000000000, 0.000000000000000000, 1.000000000000000000 ) ) ;
#265 = AXIS2_PLACEMENT_3D ( 'NONE', #73, #330, #224 ) ;
#266 = DIRECTION ( 'NONE',  ( 1.224646799147353207E-16, 1.000000000000000000, -0.000000000000000000 ) ) ;
#267 = CC_DESIGN_DATE_AND_TIME_ASSIGNMENT ( #270, #157, ( #192 ) ) ;
#268 = PERSON_AND_ORGANIZATION_ROLE ( 'design_supplier' ) ;
#269 = CARTESIAN_POINT ( 'NONE',  ( 1.750000000000000000, 2.143131898507868297E-16, 0.000000000000000000 ) ) ;
#270 = DATE_AND_TIME ( #42, #107 ) ;
#271 = FACE_OUTER_BOUND ( 'NONE', #83, .T. ) ;
#272 = AXIS2_PLACEMENT_3D ( 'NONE', #176, #357, #208 ) ;
#273 = PERSON_AND_ORGANIZATION_ROLE ( 'classification_officer' ) ;
#274 = CARTESIAN_POINT ( 'NONE',  ( 0.000000000000000000, 0.000000000000000000, 5.499999999999949374 ) ) ;
#275 = CYLINDRICAL_SURFACE ( 'NONE', #256, 1.750000000000000000 ) ;
#276 = ADVANCED_FACE ( 'NONE', ( #153, #271 ), #354, .T. ) ;
#277 = DATE_AND_TIME ( #29, #211 ) ;
#278 = AXIS2_PLACEMENT_3D ( 'NONE', #114, #234, #117 ) ;
#279 = VECTOR ( 'NONE', #284, 1000.000000000000000 ) ;
#280 = VERTEX_POINT ( 'NONE', #67 ) ;
#281 = EDGE_CURVE ( 'NONE', #46, #194, #49, .T. ) ;
#282 = CARTESIAN_POINT ( 'NONE',  ( 0.000000000000000000, 0.000000000000000000, 555.0000000000000000 ) ) ;
#283 = ORIENTED_EDGE ( 'NONE', *, *, #323, .T. ) ;
#284 = DIRECTION ( 'NONE',  ( -0.000000000000000000, -0.000000000000000000, -1.000000000000000000 ) ) ;
#285 = VERTEX_POINT ( 'NONE', #362 ) ;
#286 = CIRCLE ( 'NONE', #132, 3.000000000000000444 ) ;
#287 = EDGE_LOOP ( 'NONE', ( #174, #236 ) ) ;
#288 = CARTESIAN_POINT ( 'NONE',  ( 3.000000000000000444, 3.673940397442060361E-16, 555.0000000000000000 ) ) ;
#289 = DIRECTION ( 'NONE',  ( -0.000000000000000000, -0.000000000000000000, -1.000000000000000000 ) ) ;
#290 = APPROVAL_PERSON_ORGANIZATION ( #187, #178, #212 ) ;
#291 = ORIENTED_EDGE ( 'NONE', *, *, #315, .T. ) ;
#292 = EDGE_CURVE ( 'NONE', #251, #25, #335, .T. ) ;
#293 = EDGE_LOOP ( 'NONE', ( #88, #347, #207, #283 ) ) ;
#294 = CARTESIAN_POINT ( 'NONE',  ( 0.000000000000000000, 0.000000000000000000, 555.0000000000000000 ) ) ;
#295 = CIRCLE ( 'NONE', #13, 3.000000000000000444 ) ;
#296 = LOCAL_TIME ( 17, 37, 40.00000000000000000, #300 ) ;
#297 = CARTESIAN_POINT ( 'NONE',  ( -6.000000000000000888, 0.000000000000000000, 5.000000000000000000 ) ) ;
#298 = ADVANCED_FACE ( 'NONE', ( #364 ), #103, .T. ) ;
#299 = PERSON ( 'NEURÈENÝ', 'NEURÈENÝ', 'NEURÈENÝ', ('NEURÈENÝ'), ('NEURÈENÝ'), ('NEURÈENÝ') ) ;
#300 = COORDINATED_UNIVERSAL_TIME_OFFSET ( 1, 0, .AHEAD. ) ;
#301 = DIRECTION ( 'NONE',  ( -0.000000000000000000, -0.000000000000000000, -1.000000000000000000 ) ) ;
#302 = APPROVAL_DATE_TIME ( #277, #118 ) ;
#303 = DIRECTION ( 'NONE',  ( 0.000000000000000000, 0.000000000000000000, 1.000000000000000000 ) ) ;
#304 = CC_DESIGN_APPROVAL ( #178, ( #233 ) ) ;
#305 = MECHANICAL_CONTEXT ( 'NONE', #57, 'mechanical' ) ;
#306 = PRODUCT_DEFINITION_SHAPE ( 'NONE', 'NONE',  #70 ) ;
#307 = DIRECTION ( 'NONE',  ( -0.000000000000000000, -0.000000000000000000, -1.000000000000000000 ) ) ;
#308 = ORIENTED_EDGE ( 'NONE', *, *, #138, .T. ) ;
#309 = EDGE_CURVE ( 'NONE', #17, #191, #286, .T. ) ;
#310 = ORIENTED_EDGE ( 'NONE', *, *, #309, .F. ) ;
#311 = DIRECTION ( 'NONE',  ( 0.000000000000000000, 0.000000000000000000, 1.000000000000000000 ) ) ;
#312 = ORIENTED_EDGE ( 'NONE', *, *, #12, .T. ) ;
#313 = AXIS2_PLACEMENT_3D ( 'NONE', #350, #85, #321 ) ;
#314 = CC_DESIGN_APPROVAL ( #51, ( #70 ) ) ;
#315 = EDGE_CURVE ( 'NONE', #17, #368, #221, .T. ) ;
#316 = DIRECTION ( 'NONE',  ( 0.000000000000000000, 0.000000000000000000, -1.000000000000000000 ) ) ;
#317 = LINE ( 'NONE', #52, #199 ) ;
#318 = DIRECTION ( 'NONE',  ( -0.000000000000000000, -0.000000000000000000, -1.000000000000000000 ) ) ;
#319 = ORIENTED_EDGE ( 'NONE', *, *, #104, .F. ) ;
#320 = EDGE_CURVE ( 'NONE', #251, #370, #242, .T. ) ;
#321 = DIRECTION ( 'NONE',  ( 1.000000000000000000, 0.000000000000000000, 0.000000000000000000 ) ) ;
#322 = FACE_BOUND ( 'NONE', #197, .T. ) ;
#323 = EDGE_CURVE ( 'NONE', #44, #136, #346, .T. ) ;
#324 = DIRECTION ( 'NONE',  ( 1.000000000000000000, 0.000000000000000000, -0.000000000000000000 ) ) ;
#325 = DIRECTION ( 'NONE',  ( 0.000000000000000000, 0.000000000000000000, 1.000000000000000000 ) ) ;
#326 = CARTESIAN_POINT ( 'NONE',  ( -3.000000000000000444, 0.000000000000000000, 555.0000000000000000 ) ) ;
#327 = COORDINATED_UNIVERSAL_TIME_OFFSET ( 1, 0, .AHEAD. ) ;
#328 = DIRECTION ( 'NONE',  ( 1.000000000000000000, 0.000000000000000000, 0.000000000000000000 ) ) ;
#329 = CALENDAR_DATE ( 2022, 8, 7 ) ;
#330 = DIRECTION ( 'NONE',  ( -0.000000000000000000, -0.000000000000000000, -1.000000000000000000 ) ) ;
#331 = CIRCLE ( 'NONE', #186, 3.000000000000000444 ) ;
#332 = UNCERTAINTY_MEASURE_WITH_UNIT (LENGTH_MEASURE( 1.000000000000000082E-05 ), #82, 'distance_accuracy_value', 'NONE');
#333 = ORIENTED_EDGE ( 'NONE', *, *, #90, .F. ) ;
#334 = PERSON_AND_ORGANIZATION_ROLE ( 'creator' ) ;
#335 = LINE ( 'NONE', #369, #279 ) ;
#336 = CC_DESIGN_PERSON_AND_ORGANIZATION_ASSIGNMENT ( #33, #268, ( #233 ) ) ;
#337 = ORIENTED_EDGE ( 'NONE', *, *, #195, .T. ) ;
#338 = ORIENTED_EDGE ( 'NONE', *, *, #98, .F. ) ;
#339 = AXIS2_PLACEMENT_3D ( 'NONE', #209, #61, #60 ) ;
#340 = APPROVAL_PERSON_ORGANIZATION ( #127, #118, #66 ) ;
#341 = EDGE_LOOP ( 'NONE', ( #22, #133 ) ) ;
#342 = ORIENTED_EDGE ( 'NONE', *, *, #292, .F. ) ;
#343 = ADVANCED_BREP_SHAPE_REPRESENTATION ( 'eb19', ( #149, #14 ), #263 ) ;
#344 = FACE_OUTER_BOUND ( 'NONE', #190, .T. ) ;
#345 = CIRCLE ( 'NONE', #278, 6.000000000000000888 ) ;
#346 = CIRCLE ( 'NONE', #75, 1.750000000000000000 ) ;
#347 = ORIENTED_EDGE ( 'NONE', *, *, #90, .T. ) ;
#348 = ORIENTED_EDGE ( 'NONE', *, *, #104, .T. ) ;
#349 = CC_DESIGN_PERSON_AND_ORGANIZATION_ASSIGNMENT ( #95, #366, ( #31 ) ) ;
#350 = CARTESIAN_POINT ( 'NONE',  ( 0.000000000000000000, 0.000000000000000000, 555.0000000000000000 ) ) ;
#351 = AXIS2_PLACEMENT_3D ( 'NONE', #215, #239, #355 ) ;
#352 = CIRCLE ( 'NONE', #248, 3.500000000000000444 ) ;
#353 = CYLINDRICAL_SURFACE ( 'NONE', #92, 3.000000000000000444 ) ;
#354 = PLANE ( 'NONE',  #210 ) ;
#355 = DIRECTION ( 'NONE',  ( 1.000000000000000000, 0.000000000000000000, 0.000000000000000000 ) ) ;
#356 = PERSON_AND_ORGANIZATION_ROLE ( 'creator' ) ;
#357 = DIRECTION ( 'NONE',  ( 0.000000000000000000, -1.000000000000000000, 0.000000000000000000 ) ) ;
#358 = APPLICATION_PROTOCOL_DEFINITION ( 'international standard', 'config_control_design', 1994, #57 ) ;
#359 = DIRECTION ( 'NONE',  ( 1.000000000000000000, 0.000000000000000000, -0.000000000000000000 ) ) ;
#360 = EDGE_CURVE ( 'NONE', #191, #285, #164, .T. ) ;
#361 = COORDINATED_UNIVERSAL_TIME_OFFSET ( 1, 0, .AHEAD. ) ;
#362 = CARTESIAN_POINT ( 'NONE',  ( -3.000000000000000444, 0.000000000000000000, 5.499999999999949374 ) ) ;
#363 = SECURITY_CLASSIFICATION_LEVEL ( 'unclassified' ) ;
#364 = FACE_OUTER_BOUND ( 'NONE', #108, .T. ) ;
#365 = ADVANCED_FACE ( 'NONE', ( #158 ), #275, .F. ) ;
#366 = PERSON_AND_ORGANIZATION_ROLE ( 'design_owner' ) ;
#367 = DIRECTION ( 'NONE',  ( 1.000000000000000000, 0.000000000000000000, 0.000000000000000000 ) ) ;
#368 = VERTEX_POINT ( 'NONE', #78 ) ;
#369 = CARTESIAN_POINT ( 'NONE',  ( -6.000000000000000888, 0.000000000000000000, 5.000000000000000000 ) ) ;
#370 = VERTEX_POINT ( 'NONE', #139 ) ;
#371 = CIRCLE ( 'NONE', #313, 1.750000000000000000 ) ;
#372 = VECTOR ( 'NONE', #307, 1000.000000000000000 ) ;
#373 = DIRECTION ( 'NONE',  ( 1.000000000000000000, 0.000000000000000000, 0.000000000000000000 ) ) ;
#374 = EDGE_CURVE ( 'NONE', #194, #46, #352, .T. ) ;
#375 = CARTESIAN_POINT ( 'NONE',  ( 0.000000000000000000, 0.000000000000000000, 555.0000000000000000 ) ) ;
#376 = LINE ( 'NONE', #260, #99 ) ;
#377 = AXIS2_PLACEMENT_3D ( 'NONE', #28, #34, #238 ) ;
#378 = EDGE_CURVE ( 'NONE', #204, #44, #317, .T. ) ;
#379 = DIRECTION ( 'NONE',  ( 0.000000000000000000, 0.000000000000000000, -1.000000000000000000 ) ) ;
#380 = PLANE ( 'NONE',  #247 ) ;
#381 = ORIENTED_EDGE ( 'NONE', *, *, #147, .T. ) ;
ENDSEC;
END-ISO-10303-21;
