ISO-10303-21;
HEADER;
FILE_DESCRIPTION (( 'STEP AP203' ),
    '1' );
FILE_NAME ('a4a0.STEP',
    '2022-07-08T14:32:02',
    ( '' ),
    ( '' ),
    'SwSTEP 2.0',
    'SolidWorks 2019',
    '' );
FILE_SCHEMA (( 'CONFIG_CONTROL_DESIGN' ));
ENDSEC;

DATA;
#1 = DIRECTION ( 'NONE',  ( 1.000000000000000000, 0.000000000000000000, 0.000000000000000000 ) ) ;
#2 = CIRCLE ( 'NONE', #108, 4.250000000000000000 ) ;
#3 = CIRCLE ( 'NONE', #127, 6.000000000000000888 ) ;
#4 = CARTESIAN_POINT ( 'NONE',  ( 0.000000000000000000, 0.000000000000000000, 82.00000000000000000 ) ) ;
#5 = ADVANCED_FACE ( 'NONE', ( #288 ), #169, .T. ) ;
#6 = DIRECTION ( 'NONE',  ( 1.224646799147353207E-16, 1.000000000000000000, -0.000000000000000000 ) ) ;
#7 =( NAMED_UNIT ( * ) PLANE_ANGLE_UNIT ( ) SI_UNIT ( $, .RADIAN. ) );
#8 = CARTESIAN_POINT ( 'NONE',  ( 0.000000000000000000, 0.000000000000000000, 82.00000000000000000 ) ) ;
#9 = VERTEX_POINT ( 'NONE', #176 ) ;
#10 = CARTESIAN_POINT ( 'NONE',  ( 0.000000000000000000, 0.000000000000000000, 7.000000000000000000 ) ) ;
#11 = DIRECTION ( 'NONE',  ( 0.000000000000000000, 0.000000000000000000, -1.000000000000000000 ) ) ;
#12 = VERTEX_POINT ( 'NONE', #114 ) ;
#13 = VECTOR ( 'NONE', #91, 1000.000000000000000 ) ;
#14 = FACE_OUTER_BOUND ( 'NONE', #146, .T. ) ;
#15 = ORIENTED_EDGE ( 'NONE', *, *, #305, .F. ) ;
#16 = CALENDAR_DATE ( 2022, 8, 7 ) ;
#17 = LINE ( 'NONE', #140, #378 ) ;
#18 = DIRECTION ( 'NONE',  ( 1.000000000000000000, 0.000000000000000000, 0.000000000000000000 ) ) ;
#19 = DIRECTION ( 'NONE',  ( -1.000000000000000000, 0.000000000000000000, 0.000000000000000000 ) ) ;
#20 = DATE_TIME_ROLE ( 'classification_date' ) ;
#21 = ORIENTED_EDGE ( 'NONE', *, *, #216, .F. ) ;
#22 = ORIENTED_EDGE ( 'NONE', *, *, #230, .F. ) ;
#23 = ORIENTED_EDGE ( 'NONE', *, *, #264, .F. ) ;
#24 = AXIS2_PLACEMENT_3D ( 'NONE', #28, #267, #212 ) ;
#25 = LOCAL_TIME ( 16, 32, 2.000000000000000000, #200 ) ;
#26 = DIRECTION ( 'NONE',  ( -1.000000000000000000, 1.224646799147353454E-16, 0.000000000000000000 ) ) ;
#27 = CARTESIAN_POINT ( 'NONE',  ( 0.000000000000000000, 0.000000000000000000, 0.000000000000000000 ) ) ;
#28 = CARTESIAN_POINT ( 'NONE',  ( 0.000000000000000000, 0.000000000000000000, 0.000000000000000000 ) ) ;
#29 = ADVANCED_FACE ( 'NONE', ( #286 ), #51, .T. ) ;
#30 = APPROVAL_PERSON_ORGANIZATION ( #142, #157, #345 ) ;
#31 = DIRECTION ( 'NONE',  ( 1.000000000000000000, 0.000000000000000000, 0.000000000000000000 ) ) ;
#32 = CARTESIAN_POINT ( 'NONE',  ( -6.700000000000001066, 8.205133554287267548E-16, 7.699999999999998401 ) ) ;
#33 = DIRECTION ( 'NONE',  ( 1.000000000000000000, 0.000000000000000000, 0.000000000000000000 ) ) ;
#34 = ORIENTED_EDGE ( 'NONE', *, *, #347, .T. ) ;
#35 = AXIS2_PLACEMENT_3D ( 'NONE', #272, #60, #271 ) ;
#36 = TOROIDAL_SURFACE ( 'NONE', #55, 6.700000000000001066, 0.6999999999999999556 ) ;
#37 = EDGE_CURVE ( 'NONE', #59, #370, #115, .T. ) ;
#38 = CARTESIAN_POINT ( 'NONE',  ( 0.000000000000000000, 0.000000000000000000, 7.000000000000000000 ) ) ;
#39 = APPLICATION_PROTOCOL_DEFINITION ( 'international standard', 'config_control_design', 1994, #289 ) ;
#40 = VERTEX_POINT ( 'NONE', #320 ) ;
#41 = DIRECTION ( 'NONE',  ( 0.000000000000000000, 0.000000000000000000, 1.000000000000000000 ) ) ;
#42 = CC_DESIGN_PERSON_AND_ORGANIZATION_ASSIGNMENT ( #168, #83, ( #184 ) ) ;
#43 = ORIENTED_EDGE ( 'NONE', *, *, #279, .T. ) ;
#44 = EDGE_CURVE ( 'NONE', #344, #57, #17, .T. ) ;
#45 = CIRCLE ( 'NONE', #97, 4.250000000000000000 ) ;
#46 = CYLINDRICAL_SURFACE ( 'NONE', #322, 4.250000000000000000 ) ;
#47 = ORIENTED_EDGE ( 'NONE', *, *, #145, .F. ) ;
#48 = APPROVAL_STATUS ( 'not_yet_approved' ) ;
#49 = VERTEX_POINT ( 'NONE', #255 ) ;
#50 = SECURITY_CLASSIFICATION_LEVEL ( 'unclassified' ) ;
#51 = CYLINDRICAL_SURFACE ( 'NONE', #363, 10.00000000000000000 ) ;
#52 = PERSON_AND_ORGANIZATION_ROLE ( 'classification_officer' ) ;
#53 = CIRCLE ( 'NONE', #268, 10.00000000000000000 ) ;
#54 = CYLINDRICAL_SURFACE ( 'NONE', #172, 6.000000000000000888 ) ;
#55 = AXIS2_PLACEMENT_3D ( 'NONE', #151, #123, #301 ) ;
#56 = DATE_AND_TIME ( #170, #233 ) ;
#57 = VERTEX_POINT ( 'NONE', #294 ) ;
#58 = APPROVAL_ROLE ( '' ) ;
#59 = VERTEX_POINT ( 'NONE', #229 ) ;
#60 = DIRECTION ( 'NONE',  ( 0.000000000000000000, 0.000000000000000000, 1.000000000000000000 ) ) ;
#61 = CARTESIAN_POINT ( 'NONE',  ( 0.000000000000000000, 0.000000000000000000, 82.00000000000000000 ) ) ;
#62 = DIRECTION ( 'NONE',  ( 1.000000000000000000, 0.000000000000000000, 0.000000000000000000 ) ) ;
#63 = LINE ( 'NONE', #103, #300 ) ;
#64 = CIRCLE ( 'NONE', #141, 6.000000000000000888 ) ;
#65 = CARTESIAN_POINT ( 'NONE',  ( 0.000000000000000000, 0.000000000000000000, 7.699999999999998401 ) ) ;
#66 = MANIFOLD_SOLID_BREP ( 'Odebrat vysunutím3', #321 ) ;
#67 = DIRECTION ( 'NONE',  ( 1.000000000000000000, 0.000000000000000000, 0.000000000000000000 ) ) ;
#68 = CC_DESIGN_DATE_AND_TIME_ASSIGNMENT ( #113, #20, ( #283 ) ) ;
#69 = CARTESIAN_POINT ( 'NONE',  ( -10.00000000000000000, 0.000000000000000000, 7.000000000000000000 ) ) ;
#70 = CIRCLE ( 'NONE', #122, 0.7000000000000000666 ) ;
#71 = CARTESIAN_POINT ( 'NONE',  ( 0.000000000000000000, 0.000000000000000000, 0.000000000000000000 ) ) ;
#72 = EDGE_LOOP ( 'NONE', ( #310, #265, #376, #277 ) ) ;
#73 = CARTESIAN_POINT ( 'NONE',  ( 0.000000000000000000, 0.000000000000000000, 7.699999999999998401 ) ) ;
#74 = ORIENTED_EDGE ( 'NONE', *, *, #259, .F. ) ;
#75 = DIRECTION ( 'NONE',  ( 0.000000000000000000, -1.000000000000000000, 0.000000000000000000 ) ) ;
#76 = AXIS2_PLACEMENT_3D ( 'NONE', #10, #128, #164 ) ;
#77 = FACE_OUTER_BOUND ( 'NONE', #78, .T. ) ;
#78 = EDGE_LOOP ( 'NONE', ( #23, #47 ) ) ;
#79 = ADVANCED_FACE ( 'NONE', ( #110 ), #54, .T. ) ;
#80 = APPROVAL_DATE_TIME ( #342, #105 ) ;
#81 = ORIENTED_EDGE ( 'NONE', *, *, #44, .F. ) ;
#82 = CIRCLE ( 'NONE', #84, 6.000000000000000888 ) ;
#83 = PERSON_AND_ORGANIZATION_ROLE ( 'design_owner' ) ;
#84 = AXIS2_PLACEMENT_3D ( 'NONE', #65, #235, #90 ) ;
#85 = ORIENTED_EDGE ( 'NONE', *, *, #216, .T. ) ;
#86 = PRODUCT_DEFINITION_FORMATION_WITH_SPECIFIED_SOURCE ( 'LIBOVOLNÝ', '', #184, .NOT_KNOWN. ) ;
#87 = EDGE_CURVE ( 'NONE', #107, #261, #45, .T. ) ;
#88 = APPROVAL_DATE_TIME ( #372, #157 ) ;
#89 = DIRECTION ( 'NONE',  ( -1.000000000000000000, 0.000000000000000000, 0.000000000000000000 ) ) ;
#90 = DIRECTION ( 'NONE',  ( 1.000000000000000000, 0.000000000000000000, 0.000000000000000000 ) ) ;
#91 = DIRECTION ( 'NONE',  ( -0.000000000000000000, -0.000000000000000000, -1.000000000000000000 ) ) ;
#92 = AXIS2_PLACEMENT_3D ( 'NONE', #4, #211, #333 ) ;
#93 = CARTESIAN_POINT ( 'NONE',  ( 0.000000000000000000, 0.000000000000000000, 0.000000000000000000 ) ) ;
#94 = ADVANCED_FACE ( 'NONE', ( #326, #77 ), #327, .F. ) ;
#95 = CARTESIAN_POINT ( 'NONE',  ( 10.00000000000000000, 1.224646799147353256E-15, 7.000000000000000000 ) ) ;
#96 = CARTESIAN_POINT ( 'NONE',  ( 0.000000000000000000, 0.000000000000000000, 7.000000000000000000 ) ) ;
#97 = AXIS2_PLACEMENT_3D ( 'NONE', #206, #295, #343 ) ;
#98 = AXIS2_PLACEMENT_3D ( 'NONE', #339, #246, #214 ) ;
#99 = EDGE_CURVE ( 'NONE', #284, #217, #2, .T. ) ;
#100 = ORIENTED_EDGE ( 'NONE', *, *, #374, .F. ) ;
#101 = DIRECTION ( 'NONE',  ( -0.000000000000000000, -0.000000000000000000, -1.000000000000000000 ) ) ;
#102 = VERTEX_POINT ( 'NONE', #242 ) ;
#103 = CARTESIAN_POINT ( 'NONE',  ( 4.250000000000000000, 5.204748896376250699E-16, 82.00000000000000000 ) ) ;
#104 = ORIENTED_EDGE ( 'NONE', *, *, #37, .T. ) ;
#105 = APPROVAL ( #138, 'NEURÈENÝ' ) ;
#106 = PERSON_AND_ORGANIZATION_ROLE ( 'creator' ) ;
#107 = VERTEX_POINT ( 'NONE', #155 ) ;
#108 = AXIS2_PLACEMENT_3D ( 'NONE', #93, #182, #31 ) ;
#109 = VECTOR ( 'NONE', #101, 1000.000000000000000 ) ;
#110 = FACE_OUTER_BOUND ( 'NONE', #348, .T. ) ;
#111 = EDGE_CURVE ( 'NONE', #9, #40, #218, .T. ) ;
#112 = DIRECTION ( 'NONE',  ( -0.000000000000000000, -0.000000000000000000, -1.000000000000000000 ) ) ;
#113 = DATE_AND_TIME ( #116, #25 ) ;
#114 = CARTESIAN_POINT ( 'NONE',  ( -6.000000000000000888, 0.000000000000000000, 82.00000000000000000 ) ) ;
#115 = CIRCLE ( 'NONE', #162, 6.000000000000000888 ) ;
#116 = CALENDAR_DATE ( 2022, 8, 7 ) ;
#117 = ORGANIZATION ( 'NEURÈENÝ', 'NEURÈENÝ', '' ) ;
#118 = DIRECTION ( 'NONE',  ( -1.000000000000000000, 0.000000000000000000, 0.000000000000000000 ) ) ;
#119 = DIRECTION ( 'NONE',  ( -0.000000000000000000, -0.000000000000000000, -1.000000000000000000 ) ) ;
#120 = DIRECTION ( 'NONE',  ( 0.000000000000000000, 0.000000000000000000, 1.000000000000000000 ) ) ;
#121 = CARTESIAN_POINT ( 'NONE',  ( 0.000000000000000000, 0.000000000000000000, 0.000000000000000000 ) ) ;
#122 = AXIS2_PLACEMENT_3D ( 'NONE', #32, #6, #26 ) ;
#123 = DIRECTION ( 'NONE',  ( 0.000000000000000000, 0.000000000000000000, 1.000000000000000000 ) ) ;
#124 = CARTESIAN_POINT ( 'NONE',  ( -4.250000000000000000, 0.000000000000000000, 0.000000000000000000 ) ) ;
#125 = EDGE_CURVE ( 'NONE', #370, #59, #82, .T. ) ;
#126 =( NAMED_UNIT ( * ) SI_UNIT ( $, .STERADIAN. ) SOLID_ANGLE_UNIT ( ) );
#127 = AXIS2_PLACEMENT_3D ( 'NONE', #306, #194, #33 ) ;
#128 = DIRECTION ( 'NONE',  ( -0.000000000000000000, -0.000000000000000000, -1.000000000000000000 ) ) ;
#129 = ORIENTED_EDGE ( 'NONE', *, *, #111, .T. ) ;
#130 = DIRECTION ( 'NONE',  ( 0.000000000000000000, 0.000000000000000000, 1.000000000000000000 ) ) ;
#131 = EDGE_LOOP ( 'NONE', ( #74, #324 ) ) ;
#132 = APPROVAL_PERSON_ORGANIZATION ( #317, #186, #197 ) ;
#133 = AXIS2_PLACEMENT_3D ( 'NONE', #27, #152, #1 ) ;
#134 = UNCERTAINTY_MEASURE_WITH_UNIT (LENGTH_MEASURE( 1.000000000000000082E-05 ), #278, 'distance_accuracy_value', 'NONE');
#135 = APPLICATION_CONTEXT ( 'configuration controlled 3d designs of mechanical parts and assemblies' ) ;
#136 = ORIENTED_EDGE ( 'NONE', *, *, #145, .T. ) ;
#137 = CC_DESIGN_PERSON_AND_ORGANIZATION_ASSIGNMENT ( #291, #106, ( #86 ) ) ;
#138 = APPROVAL_STATUS ( 'not_yet_approved' ) ;
#139 = EDGE_CURVE ( 'NONE', #344, #143, #53, .T. ) ;
#140 = CARTESIAN_POINT ( 'NONE',  ( -10.00000000000000000, 0.000000000000000000, 7.000000000000000000 ) ) ;
#141 = AXIS2_PLACEMENT_3D ( 'NONE', #353, #189, #62 ) ;
#142 = PERSON_AND_ORGANIZATION ( #357, #117 ) ;
#143 = VERTEX_POINT ( 'NONE', #95 ) ;
#144 = COORDINATED_UNIVERSAL_TIME_OFFSET ( 1, 0, .AHEAD. ) ;
#145 = EDGE_CURVE ( 'NONE', #102, #57, #148, .T. ) ;
#146 = EDGE_LOOP ( 'NONE', ( #195, #215, #346, #147 ) ) ;
#147 = ORIENTED_EDGE ( 'NONE', *, *, #270, .T. ) ;
#148 = CIRCLE ( 'NONE', #24, 10.00000000000000000 ) ;
#149 = AXIS2_PLACEMENT_3D ( 'NONE', #73, #362, #335 ) ;
#150 = CARTESIAN_POINT ( 'NONE',  ( 0.000000000000000000, 0.000000000000000000, 7.000000000000000000 ) ) ;
#151 = CARTESIAN_POINT ( 'NONE',  ( 0.000000000000000000, 0.000000000000000000, 7.699999999999998401 ) ) ;
#152 = DIRECTION ( 'NONE',  ( 0.000000000000000000, 0.000000000000000000, 1.000000000000000000 ) ) ;
#153 = PLANE ( 'NONE',  #173 ) ;
#154 = CC_DESIGN_PERSON_AND_ORGANIZATION_ASSIGNMENT ( #203, #205, ( #227 ) ) ;
#155 = CARTESIAN_POINT ( 'NONE',  ( 4.250000000000000000, 5.204748896376250699E-16, 82.00000000000000000 ) ) ;
#156 = CARTESIAN_POINT ( 'NONE',  ( 4.250000000000000000, 5.204748896376250699E-16, 0.000000000000000000 ) ) ;
#157 = APPROVAL ( #48, 'NEURÈENÝ' ) ;
#158 = PLANE ( 'NONE',  #238 ) ;
#159 = EDGE_LOOP ( 'NONE', ( #262, #43, #361, #22 ) ) ;
#160 = DIRECTION ( 'NONE',  ( 0.000000000000000000, 0.000000000000000000, 1.000000000000000000 ) ) ;
#161 = EDGE_LOOP ( 'NONE', ( #337, #179 ) ) ;
#162 = AXIS2_PLACEMENT_3D ( 'NONE', #224, #258, #178 ) ;
#163 = APPROVAL_PERSON_ORGANIZATION ( #323, #105, #58 ) ;
#164 = DIRECTION ( 'NONE',  ( 1.000000000000000000, 0.000000000000000000, 0.000000000000000000 ) ) ;
#165 = EDGE_LOOP ( 'NONE', ( #201, #34 ) ) ;
#166 = ADVANCED_BREP_SHAPE_REPRESENTATION ( 'a4a0', ( #66, #202 ), #328 ) ;
#167 = EDGE_CURVE ( 'NONE', #12, #49, #64, .T. ) ;
#168 = PERSON_AND_ORGANIZATION ( #357, #117 ) ;
#169 = CYLINDRICAL_SURFACE ( 'NONE', #208, 10.00000000000000000 ) ;
#170 = CALENDAR_DATE ( 2022, 8, 7 ) ;
#171 = ORIENTED_EDGE ( 'NONE', *, *, #274, .T. ) ;
#172 = AXIS2_PLACEMENT_3D ( 'NONE', #292, #351, #89 ) ;
#173 = AXIS2_PLACEMENT_3D ( 'NONE', #356, #120, #185 ) ;
#174 = PRODUCT_RELATED_PRODUCT_CATEGORY ( 'detail', '', ( #184 ) ) ;
#175 = DATE_AND_TIME ( #16, #349 ) ;
#176 = CARTESIAN_POINT ( 'NONE',  ( -6.700000000000001066, 8.205133554287267548E-16, 6.999999999999999112 ) ) ;
#177 = COORDINATED_UNIVERSAL_TIME_OFFSET ( 1, 0, .AHEAD. ) ;
#178 = DIRECTION ( 'NONE',  ( 1.000000000000000000, 0.000000000000000000, 0.000000000000000000 ) ) ;
#179 = ORIENTED_EDGE ( 'NONE', *, *, #330, .T. ) ;
#180 = ADVANCED_FACE ( 'NONE', ( #303 ), #36, .F. ) ;
#181 = CC_DESIGN_SECURITY_CLASSIFICATION ( #283, ( #86 ) ) ;
#182 = DIRECTION ( 'NONE',  ( -0.000000000000000000, -0.000000000000000000, -1.000000000000000000 ) ) ;
#183 = DIRECTION ( 'NONE',  ( 1.000000000000000000, 0.000000000000000000, 0.000000000000000000 ) ) ;
#184 = PRODUCT ( 'a4a0', 'a4a0', '', ( #367 ) ) ;
#185 = DIRECTION ( 'NONE',  ( 1.000000000000000000, 0.000000000000000000, -0.000000000000000000 ) ) ;
#186 = APPROVAL ( #287, 'NEURÈENÝ' ) ;
#187 = DIRECTION ( 'NONE',  ( 1.000000000000000000, 0.000000000000000000, 0.000000000000000000 ) ) ;
#188 = CC_DESIGN_APPROVAL ( #186, ( #86 ) ) ;
#189 = DIRECTION ( 'NONE',  ( 0.000000000000000000, 0.000000000000000000, 1.000000000000000000 ) ) ;
#190 = FACE_BOUND ( 'NONE', #276, .T. ) ;
#191 = AXIS2_PLACEMENT_3D ( 'NONE', #61, #298, #183 ) ;
#192 = DIRECTION ( 'NONE',  ( 0.000000000000000000, 0.000000000000000000, -1.000000000000000000 ) ) ;
#193 = LINE ( 'NONE', #359, #196 ) ;
#194 = DIRECTION ( 'NONE',  ( 0.000000000000000000, 0.000000000000000000, 1.000000000000000000 ) ) ;
#195 = ORIENTED_EDGE ( 'NONE', *, *, #274, .F. ) ;
#196 = VECTOR ( 'NONE', #281, 1000.000000000000000 ) ;
#197 = APPROVAL_ROLE ( '' ) ;
#198 = ORIENTED_EDGE ( 'NONE', *, *, #299, .T. ) ;
#199 = ORIENTED_EDGE ( 'NONE', *, *, #99, .F. ) ;
#200 = COORDINATED_UNIVERSAL_TIME_OFFSET ( 1, 0, .AHEAD. ) ;
#201 = ORIENTED_EDGE ( 'NONE', *, *, #167, .T. ) ;
#202 = AXIS2_PLACEMENT_3D ( 'NONE', #71, #130, #18 ) ;
#203 = PERSON_AND_ORGANIZATION ( #357, #117 ) ;
#204 = EDGE_LOOP ( 'NONE', ( #226, #171, #377, #253 ) ) ;
#205 = PERSON_AND_ORGANIZATION_ROLE ( 'creator' ) ;
#206 = CARTESIAN_POINT ( 'NONE',  ( 0.000000000000000000, 0.000000000000000000, 82.00000000000000000 ) ) ;
#207 = CC_DESIGN_DATE_AND_TIME_ASSIGNMENT ( #56, #325, ( #227 ) ) ;
#208 = AXIS2_PLACEMENT_3D ( 'NONE', #380, #318, #118 ) ;
#209 = LINE ( 'NONE', #329, #244 ) ;
#210 = DIRECTION ( 'NONE',  ( 1.000000000000000000, 0.000000000000000000, 0.000000000000000000 ) ) ;
#211 = DIRECTION ( 'NONE',  ( -0.000000000000000000, -0.000000000000000000, -1.000000000000000000 ) ) ;
#212 = DIRECTION ( 'NONE',  ( 1.000000000000000000, 0.000000000000000000, 0.000000000000000000 ) ) ;
#213 = CC_DESIGN_APPROVAL ( #105, ( #283 ) ) ;
#214 = DIRECTION ( 'NONE',  ( -1.000000000000000000, 0.000000000000000000, 0.000000000000000000 ) ) ;
#215 = ORIENTED_EDGE ( 'NONE', *, *, #87, .T. ) ;
#216 = EDGE_CURVE ( 'NONE', #59, #9, #70, .T. ) ;
#217 = VERTEX_POINT ( 'NONE', #124 ) ;
#218 = CIRCLE ( 'NONE', #314, 6.700000000000001066 ) ;
#219 = CIRCLE ( 'NONE', #133, 10.00000000000000000 ) ;
#220 = DIRECTION ( 'NONE',  ( -1.000000000000000000, 0.000000000000000000, 0.000000000000000000 ) ) ;
#221 = EDGE_LOOP ( 'NONE', ( #21, #282, #340, #373 ) ) ;
#222 = ADVANCED_FACE ( 'NONE', ( #266, #381 ), #153, .T. ) ;
#223 = PERSON_AND_ORGANIZATION_ROLE ( 'design_supplier' ) ;
#224 = CARTESIAN_POINT ( 'NONE',  ( 0.000000000000000000, 0.000000000000000000, 7.699999999999998401 ) ) ;
#225 = AXIS2_PLACEMENT_3D ( 'NONE', #243, #160, #67 ) ;
#226 = ORIENTED_EDGE ( 'NONE', *, *, #259, .T. ) ;
#227 = PRODUCT_DEFINITION ( 'NEZNÁMÝ', '', #86, #308 ) ;
#228 = COORDINATED_UNIVERSAL_TIME_OFFSET ( 1, 0, .AHEAD. ) ;
#229 = CARTESIAN_POINT ( 'NONE',  ( -6.000000000000000888, 0.000000000000000000, 7.699999999999998401 ) ) ;
#230 = EDGE_CURVE ( 'NONE', #12, #59, #358, .T. ) ;
#231 = APPROVAL_DATE_TIME ( #175, #186 ) ;
#232 = EDGE_LOOP ( 'NONE', ( #245, #198, #136, #81 ) ) ;
#233 = LOCAL_TIME ( 16, 32, 2.000000000000000000, #144 ) ;
#234 = DIRECTION ( 'NONE',  ( -0.000000000000000000, -0.000000000000000000, -1.000000000000000000 ) ) ;
#235 = DIRECTION ( 'NONE',  ( 0.000000000000000000, 0.000000000000000000, 1.000000000000000000 ) ) ;
#236 = EDGE_CURVE ( 'NONE', #261, #217, #209, .T. ) ;
#237 = CARTESIAN_POINT ( 'NONE',  ( -6.000000000000000888, 0.000000000000000000, 82.00000000000000000 ) ) ;
#238 = AXIS2_PLACEMENT_3D ( 'NONE', #38, #41, #247 ) ;
#239 = FACE_OUTER_BOUND ( 'NONE', #159, .T. ) ;
#240 = CC_DESIGN_PERSON_AND_ORGANIZATION_ASSIGNMENT ( #252, #223, ( #86 ) ) ;
#241 = DIRECTION ( 'NONE',  ( 1.000000000000000000, 0.000000000000000000, 0.000000000000000000 ) ) ;
#242 = CARTESIAN_POINT ( 'NONE',  ( 10.00000000000000000, 1.224646799147353256E-15, 0.000000000000000000 ) ) ;
#243 = CARTESIAN_POINT ( 'NONE',  ( 0.000000000000000000, 0.000000000000000000, 7.000000000000000000 ) ) ;
#244 = VECTOR ( 'NONE', #355, 1000.000000000000000 ) ;
#245 = ORIENTED_EDGE ( 'NONE', *, *, #330, .F. ) ;
#246 = DIRECTION ( 'NONE',  ( 0.000000000000000000, 0.000000000000000000, -1.000000000000000000 ) ) ;
#247 = DIRECTION ( 'NONE',  ( 1.000000000000000000, 0.000000000000000000, -0.000000000000000000 ) ) ;
#248 = ORIENTED_EDGE ( 'NONE', *, *, #270, .F. ) ;
#249 = CC_DESIGN_APPROVAL ( #157, ( #227 ) ) ;
#250 = CC_DESIGN_PERSON_AND_ORGANIZATION_ASSIGNMENT ( #375, #52, ( #283 ) ) ;
#251 = FACE_OUTER_BOUND ( 'NONE', #204, .T. ) ;
#252 = PERSON_AND_ORGANIZATION ( #357, #117 ) ;
#253 = ORIENTED_EDGE ( 'NONE', *, *, #236, .F. ) ;
#254 = CALENDAR_DATE ( 2022, 8, 7 ) ;
#255 = CARTESIAN_POINT ( 'NONE',  ( 6.000000000000000888, 7.347880794884120722E-16, 82.00000000000000000 ) ) ;
#256 = CIRCLE ( 'NONE', #263, 4.250000000000000000 ) ;
#257 = CALENDAR_DATE ( 2022, 8, 7 ) ;
#258 = DIRECTION ( 'NONE',  ( 0.000000000000000000, 0.000000000000000000, 1.000000000000000000 ) ) ;
#259 = EDGE_CURVE ( 'NONE', #261, #107, #316, .T. ) ;
#260 = APPLICATION_PROTOCOL_DEFINITION ( 'international standard', 'config_control_design', 1994, #135 ) ;
#261 = VERTEX_POINT ( 'NONE', #297 ) ;
#262 = ORIENTED_EDGE ( 'NONE', *, *, #347, .F. ) ;
#263 = AXIS2_PLACEMENT_3D ( 'NONE', #121, #269, #187 ) ;
#264 = EDGE_CURVE ( 'NONE', #57, #102, #219, .T. ) ;
#265 = ORIENTED_EDGE ( 'NONE', *, *, #139, .F. ) ;
#266 = FACE_BOUND ( 'NONE', #131, .T. ) ;
#267 = DIRECTION ( 'NONE',  ( 0.000000000000000000, 0.000000000000000000, 1.000000000000000000 ) ) ;
#268 = AXIS2_PLACEMENT_3D ( 'NONE', #96, #352, #210 ) ;
#269 = DIRECTION ( 'NONE',  ( -0.000000000000000000, -0.000000000000000000, -1.000000000000000000 ) ) ;
#270 = EDGE_CURVE ( 'NONE', #217, #284, #256, .T. ) ;
#271 = DIRECTION ( 'NONE',  ( 1.000000000000000000, 0.000000000000000000, -0.000000000000000000 ) ) ;
#272 = CARTESIAN_POINT ( 'NONE',  ( 0.000000000000000000, 0.000000000000000000, 0.000000000000000000 ) ) ;
#273 = ADVANCED_FACE ( 'NONE', ( #239 ), #331, .T. ) ;
#274 = EDGE_CURVE ( 'NONE', #107, #284, #63, .T. ) ;
#275 = FACE_OUTER_BOUND ( 'NONE', #221, .T. ) ;
#276 = EDGE_LOOP ( 'NONE', ( #341, #129 ) ) ;
#277 = ORIENTED_EDGE ( 'NONE', *, *, #264, .T. ) ;
#278 =( LENGTH_UNIT ( ) NAMED_UNIT ( * ) SI_UNIT ( .MILLI., .METRE. ) );
#279 = EDGE_CURVE ( 'NONE', #49, #370, #365, .T. ) ;
#280 = EDGE_LOOP ( 'NONE', ( #312, #85, #100, #15 ) ) ;
#281 = DIRECTION ( 'NONE',  ( -0.000000000000000000, -0.000000000000000000, -1.000000000000000000 ) ) ;
#282 = ORIENTED_EDGE ( 'NONE', *, *, #125, .F. ) ;
#283 = SECURITY_CLASSIFICATION ( '', '', #50 ) ;
#284 = VERTEX_POINT ( 'NONE', #156 ) ;
#285 = COORDINATED_UNIVERSAL_TIME_OFFSET ( 1, 0, .AHEAD. ) ;
#286 = FACE_OUTER_BOUND ( 'NONE', #232, .T. ) ;
#287 = APPROVAL_STATUS ( 'not_yet_approved' ) ;
#288 = FACE_OUTER_BOUND ( 'NONE', #72, .T. ) ;
#289 = APPLICATION_CONTEXT ( 'configuration controlled 3d designs of mechanical parts and assemblies' ) ;
#290 = AXIS2_PLACEMENT_3D ( 'NONE', #309, #75, #11 ) ;
#291 = PERSON_AND_ORGANIZATION ( #357, #117 ) ;
#292 = CARTESIAN_POINT ( 'NONE',  ( 0.000000000000000000, 0.000000000000000000, 82.00000000000000000 ) ) ;
#293 = SHAPE_DEFINITION_REPRESENTATION ( #332, #166 ) ;
#294 = CARTESIAN_POINT ( 'NONE',  ( -10.00000000000000000, 0.000000000000000000, 0.000000000000000000 ) ) ;
#295 = DIRECTION ( 'NONE',  ( 0.000000000000000000, 0.000000000000000000, 1.000000000000000000 ) ) ;
#296 = CARTESIAN_POINT ( 'NONE',  ( 0.000000000000000000, 0.000000000000000000, 7.000000000000000000 ) ) ;
#297 = CARTESIAN_POINT ( 'NONE',  ( -4.250000000000000000, 0.000000000000000000, 82.00000000000000000 ) ) ;
#298 = DIRECTION ( 'NONE',  ( 0.000000000000000000, 0.000000000000000000, 1.000000000000000000 ) ) ;
#299 = EDGE_CURVE ( 'NONE', #143, #102, #193, .T. ) ;
#300 = VECTOR ( 'NONE', #192, 1000.000000000000000 ) ;
#301 = DIRECTION ( 'NONE',  ( 1.000000000000000000, 0.000000000000000000, 0.000000000000000000 ) ) ;
#302 = ADVANCED_FACE ( 'NONE', ( #14 ), #313, .F. ) ;
#303 = FACE_OUTER_BOUND ( 'NONE', #280, .T. ) ;
#304 = ADVANCED_FACE ( 'NONE', ( #190, #311 ), #158, .T. ) ;
#305 = EDGE_CURVE ( 'NONE', #370, #40, #307, .T. ) ;
#306 = CARTESIAN_POINT ( 'NONE',  ( 0.000000000000000000, 0.000000000000000000, 82.00000000000000000 ) ) ;
#307 = CIRCLE ( 'NONE', #290, 0.7000000000000000666 ) ;
#308 = DESIGN_CONTEXT ( 'detailed design', #135, 'design' ) ;
#309 = CARTESIAN_POINT ( 'NONE',  ( 6.700000000000001066, 0.000000000000000000, 7.699999999999998401 ) ) ;
#310 = ORIENTED_EDGE ( 'NONE', *, *, #299, .F. ) ;
#311 = FACE_OUTER_BOUND ( 'NONE', #161, .T. ) ;
#312 = ORIENTED_EDGE ( 'NONE', *, *, #37, .F. ) ;
#313 = CYLINDRICAL_SURFACE ( 'NONE', #98, 4.250000000000000000 ) ;
#314 = AXIS2_PLACEMENT_3D ( 'NONE', #296, #119, #241 ) ;
#315 = ORIENTED_EDGE ( 'NONE', *, *, #230, .T. ) ;
#316 = CIRCLE ( 'NONE', #191, 4.250000000000000000 ) ;
#317 = PERSON_AND_ORGANIZATION ( #357, #117 ) ;
#318 = DIRECTION ( 'NONE',  ( -0.000000000000000000, -0.000000000000000000, -1.000000000000000000 ) ) ;
#319 = EDGE_LOOP ( 'NONE', ( #248, #199 ) ) ;
#320 = CARTESIAN_POINT ( 'NONE',  ( 6.700000000000001066, 0.000000000000000000, 6.999999999999999112 ) ) ;
#321 = CLOSED_SHELL ( 'NONE', ( #368, #180, #273, #29, #5, #304, #94, #79, #222, #338, #302 ) ) ;
#322 = AXIS2_PLACEMENT_3D ( 'NONE', #8, #364, #220 ) ;
#323 = PERSON_AND_ORGANIZATION ( #357, #117 ) ;
#324 = ORIENTED_EDGE ( 'NONE', *, *, #87, .F. ) ;
#325 = DATE_TIME_ROLE ( 'creation_date' ) ;
#326 = FACE_BOUND ( 'NONE', #319, .T. ) ;
#327 = PLANE ( 'NONE',  #35 ) ;
#328 =( GEOMETRIC_REPRESENTATION_CONTEXT ( 3 ) GLOBAL_UNCERTAINTY_ASSIGNED_CONTEXT ( ( #134 ) ) GLOBAL_UNIT_ASSIGNED_CONTEXT ( ( #278, #7, #126 ) ) REPRESENTATION_CONTEXT ( 'NONE', 'WORKASPACE' ) );
#329 = CARTESIAN_POINT ( 'NONE',  ( -4.250000000000000000, 0.000000000000000000, 82.00000000000000000 ) ) ;
#330 = EDGE_CURVE ( 'NONE', #143, #344, #354, .T. ) ;
#331 = CYLINDRICAL_SURFACE ( 'NONE', #92, 6.000000000000000888 ) ;
#332 = PRODUCT_DEFINITION_SHAPE ( 'NONE', 'NONE',  #227 ) ;
#333 = DIRECTION ( 'NONE',  ( -1.000000000000000000, 0.000000000000000000, 0.000000000000000000 ) ) ;
#334 = LOCAL_TIME ( 16, 32, 2.000000000000000000, #285 ) ;
#335 = DIRECTION ( 'NONE',  ( 1.000000000000000000, 0.000000000000000000, 0.000000000000000000 ) ) ;
#336 = CARTESIAN_POINT ( 'NONE',  ( 6.000000000000000888, 7.347880794884120722E-16, 7.699999999999998401 ) ) ;
#337 = ORIENTED_EDGE ( 'NONE', *, *, #139, .T. ) ;
#338 = ADVANCED_FACE ( 'NONE', ( #275 ), #350, .F. ) ;
#339 = CARTESIAN_POINT ( 'NONE',  ( 0.000000000000000000, 0.000000000000000000, 82.00000000000000000 ) ) ;
#340 = ORIENTED_EDGE ( 'NONE', *, *, #305, .T. ) ;
#341 = ORIENTED_EDGE ( 'NONE', *, *, #374, .T. ) ;
#342 = DATE_AND_TIME ( #254, #379 ) ;
#343 = DIRECTION ( 'NONE',  ( 1.000000000000000000, 0.000000000000000000, 0.000000000000000000 ) ) ;
#344 = VERTEX_POINT ( 'NONE', #69 ) ;
#345 = APPROVAL_ROLE ( '' ) ;
#346 = ORIENTED_EDGE ( 'NONE', *, *, #236, .T. ) ;
#347 = EDGE_CURVE ( 'NONE', #49, #12, #3, .T. ) ;
#348 = EDGE_LOOP ( 'NONE', ( #366, #369, #315, #104 ) ) ;
#349 = LOCAL_TIME ( 16, 32, 2.000000000000000000, #228 ) ;
#350 = TOROIDAL_SURFACE ( 'NONE', #149, 6.700000000000001066, 0.6999999999999999556 ) ;
#351 = DIRECTION ( 'NONE',  ( -0.000000000000000000, -0.000000000000000000, -1.000000000000000000 ) ) ;
#352 = DIRECTION ( 'NONE',  ( 0.000000000000000000, 0.000000000000000000, 1.000000000000000000 ) ) ;
#353 = CARTESIAN_POINT ( 'NONE',  ( 0.000000000000000000, 0.000000000000000000, 82.00000000000000000 ) ) ;
#354 = CIRCLE ( 'NONE', #225, 10.00000000000000000 ) ;
#355 = DIRECTION ( 'NONE',  ( 0.000000000000000000, 0.000000000000000000, -1.000000000000000000 ) ) ;
#356 = CARTESIAN_POINT ( 'NONE',  ( 0.000000000000000000, 0.000000000000000000, 82.00000000000000000 ) ) ;
#357 = PERSON ( 'NEURÈENÝ', 'NEURÈENÝ', 'NEURÈENÝ', ('NEURÈENÝ'), ('NEURÈENÝ'), ('NEURÈENÝ') ) ;
#358 = LINE ( 'NONE', #237, #13 ) ;
#359 = CARTESIAN_POINT ( 'NONE',  ( 10.00000000000000000, 1.224646799147353256E-15, 7.000000000000000000 ) ) ;
#360 = CARTESIAN_POINT ( 'NONE',  ( 6.000000000000000888, 7.347880794884120722E-16, 82.00000000000000000 ) ) ;
#361 = ORIENTED_EDGE ( 'NONE', *, *, #125, .T. ) ;
#362 = DIRECTION ( 'NONE',  ( 0.000000000000000000, 0.000000000000000000, 1.000000000000000000 ) ) ;
#363 = AXIS2_PLACEMENT_3D ( 'NONE', #150, #234, #19 ) ;
#364 = DIRECTION ( 'NONE',  ( 0.000000000000000000, 0.000000000000000000, -1.000000000000000000 ) ) ;
#365 = LINE ( 'NONE', #360, #109 ) ;
#366 = ORIENTED_EDGE ( 'NONE', *, *, #279, .F. ) ;
#367 = MECHANICAL_CONTEXT ( 'NONE', #289, 'mechanical' ) ;
#368 = ADVANCED_FACE ( 'NONE', ( #251 ), #46, .F. ) ;
#369 = ORIENTED_EDGE ( 'NONE', *, *, #167, .F. ) ;
#370 = VERTEX_POINT ( 'NONE', #336 ) ;
#371 = CIRCLE ( 'NONE', #76, 6.700000000000001066 ) ;
#372 = DATE_AND_TIME ( #257, #334 ) ;
#373 = ORIENTED_EDGE ( 'NONE', *, *, #111, .F. ) ;
#374 = EDGE_CURVE ( 'NONE', #40, #9, #371, .T. ) ;
#375 = PERSON_AND_ORGANIZATION ( #357, #117 ) ;
#376 = ORIENTED_EDGE ( 'NONE', *, *, #44, .T. ) ;
#377 = ORIENTED_EDGE ( 'NONE', *, *, #99, .T. ) ;
#378 = VECTOR ( 'NONE', #112, 1000.000000000000000 ) ;
#379 = LOCAL_TIME ( 16, 32, 2.000000000000000000, #177 ) ;
#380 = CARTESIAN_POINT ( 'NONE',  ( 0.000000000000000000, 0.000000000000000000, 7.000000000000000000 ) ) ;
#381 = FACE_OUTER_BOUND ( 'NONE', #165, .T. ) ;
ENDSEC;
END-ISO-10303-21;
