ISO-10303-21;
HEADER;
FILE_DESCRIPTION (( 'STEP AP203' ),
    '1' );
FILE_NAME ('de8b.STEP',
    '2022-07-08T14:34:42',
    ( '' ),
    ( '' ),
    'SwSTEP 2.0',
    'SolidWorks 2019',
    '' );
FILE_SCHEMA (( 'CONFIG_CONTROL_DESIGN' ));
ENDSEC;

DATA;
#1 = AXIS2_PLACEMENT_3D ( 'NONE', #199, #171, #339 ) ;
#2 = DIRECTION ( 'NONE',  ( -0.000000000000000000, -0.000000000000000000, -1.000000000000000000 ) ) ;
#3 = SHAPE_DEFINITION_REPRESENTATION ( #133, #108 ) ;
#4 = EDGE_CURVE ( 'NONE', #312, #261, #289, .T. ) ;
#5 = CALENDAR_DATE ( 2022, 8, 7 ) ;
#6 = AXIS2_PLACEMENT_3D ( 'NONE', #242, #293, #56 ) ;
#7 = CARTESIAN_POINT ( 'NONE',  ( 0.000000000000000000, 0.000000000000000000, 0.000000000000000000 ) ) ;
#8 = AXIS2_PLACEMENT_3D ( 'NONE', #310, #45, #49 ) ;
#9 = CC_DESIGN_APPROVAL ( #53, ( #260 ) ) ;
#10 = ORIENTED_EDGE ( 'NONE', *, *, #313, .T. ) ;
#11 = FACE_OUTER_BOUND ( 'NONE', #195, .T. ) ;
#12 = DIRECTION ( 'NONE',  ( 1.000000000000000000, 0.000000000000000000, 0.000000000000000000 ) ) ;
#13 = CARTESIAN_POINT ( 'NONE',  ( 6.700000000000001066, 0.000000000000000000, 7.000000000000006217 ) ) ;
#14 = ORIENTED_EDGE ( 'NONE', *, *, #256, .F. ) ;
#15 = CARTESIAN_POINT ( 'NONE',  ( 0.000000000000000000, 0.000000000000000000, 0.000000000000000000 ) ) ;
#16 = AXIS2_PLACEMENT_3D ( 'NONE', #205, #169, #83 ) ;
#17 = EDGE_LOOP ( 'NONE', ( #364, #46, #227, #160 ) ) ;
#18 = APPROVAL ( #216, 'NEURÈENÝ' ) ;
#19 = VECTOR ( 'NONE', #203, 1000.000000000000000 ) ;
#20 = VERTEX_POINT ( 'NONE', #315 ) ;
#21 = DIRECTION ( 'NONE',  ( 0.000000000000000000, -1.000000000000000000, 0.000000000000000000 ) ) ;
#22 = DIRECTION ( 'NONE',  ( 0.000000000000000000, 0.000000000000000000, 1.000000000000000000 ) ) ;
#23 = DIRECTION ( 'NONE',  ( 1.000000000000000000, 0.000000000000000000, 0.000000000000000000 ) ) ;
#24 = EDGE_CURVE ( 'NONE', #286, #20, #341, .T. ) ;
#25 = DIRECTION ( 'NONE',  ( 1.000000000000000000, 0.000000000000000000, 0.000000000000000000 ) ) ;
#26 = PLANE ( 'NONE',  #225 ) ;
#27 = ORIENTED_EDGE ( 'NONE', *, *, #198, .T. ) ;
#28 = MECHANICAL_CONTEXT ( 'NONE', #243, 'mechanical' ) ;
#29 = CARTESIAN_POINT ( 'NONE',  ( 4.099999999999999645, 5.021051876504146399E-16, 232.0000000000000000 ) ) ;
#30 = EDGE_CURVE ( 'NONE', #360, #276, #374, .T. ) ;
#31 = DIRECTION ( 'NONE',  ( -0.000000000000000000, -0.000000000000000000, -1.000000000000000000 ) ) ;
#32 = CARTESIAN_POINT ( 'NONE',  ( -4.099999999999999645, 0.000000000000000000, 0.000000000000000000 ) ) ;
#33 = DATE_TIME_ROLE ( 'classification_date' ) ;
#34 = APPLICATION_CONTEXT ( 'configuration controlled 3d designs of mechanical parts and assemblies' ) ;
#35 = EDGE_CURVE ( 'NONE', #278, #311, #349, .T. ) ;
#36 = ORIENTED_EDGE ( 'NONE', *, *, #67, .T. ) ;
#37 = APPROVAL_ROLE ( '' ) ;
#38 = LOCAL_TIME ( 16, 34, 42.00000000000000000, #329 ) ;
#39 = DIRECTION ( 'NONE',  ( 1.224646799147353207E-16, 1.000000000000000000, -0.000000000000000000 ) ) ;
#40 = ORIENTED_EDGE ( 'NONE', *, *, #331, .T. ) ;
#41 = ADVANCED_FACE ( 'NONE', ( #215 ), #177, .F. ) ;
#42 = APPROVAL_DATE_TIME ( #188, #130 ) ;
#43 = PLANE ( 'NONE',  #297 ) ;
#44 = ORIENTED_EDGE ( 'NONE', *, *, #186, .F. ) ;
#45 = DIRECTION ( 'NONE',  ( 0.000000000000000000, 0.000000000000000000, 1.000000000000000000 ) ) ;
#46 = ORIENTED_EDGE ( 'NONE', *, *, #125, .T. ) ;
#47 = DIRECTION ( 'NONE',  ( 0.000000000000000000, 0.000000000000000000, 1.000000000000000000 ) ) ;
#48 = ORIENTED_EDGE ( 'NONE', *, *, #287, .T. ) ;
#49 = DIRECTION ( 'NONE',  ( 1.000000000000000000, 0.000000000000000000, 0.000000000000000000 ) ) ;
#50 = ORIENTED_EDGE ( 'NONE', *, *, #24, .T. ) ;
#51 = CARTESIAN_POINT ( 'NONE',  ( 0.000000000000000000, 0.000000000000000000, 7.000000000000000000 ) ) ;
#52 = ORIENTED_EDGE ( 'NONE', *, *, #299, .F. ) ;
#53 = APPROVAL ( #345, 'NEURÈENÝ' ) ;
#54 = CARTESIAN_POINT ( 'NONE',  ( 0.000000000000000000, 0.000000000000000000, 232.0000000000000000 ) ) ;
#55 = EDGE_LOOP ( 'NONE', ( #155, #209, #231, #151 ) ) ;
#56 = DIRECTION ( 'NONE',  ( 1.000000000000000000, 0.000000000000000000, 0.000000000000000000 ) ) ;
#57 = ADVANCED_FACE ( 'NONE', ( #267 ), #122, .F. ) ;
#58 = COORDINATED_UNIVERSAL_TIME_OFFSET ( 1, 0, .AHEAD. ) ;
#59 = CARTESIAN_POINT ( 'NONE',  ( 0.000000000000000000, 0.000000000000000000, 232.0000000000000000 ) ) ;
#60 = VECTOR ( 'NONE', #304, 1000.000000000000000 ) ;
#61 = SECURITY_CLASSIFICATION_LEVEL ( 'unclassified' ) ;
#62 = PRODUCT ( 'de8b', 'de8b', '', ( #28 ) ) ;
#63 = APPROVAL_DATE_TIME ( #176, #18 ) ;
#64 = CARTESIAN_POINT ( 'NONE',  ( 0.000000000000000000, 0.000000000000000000, 232.0000000000000000 ) ) ;
#65 = CARTESIAN_POINT ( 'NONE',  ( -10.00000000000000000, 0.000000000000000000, 7.000000000000000000 ) ) ;
#66 = AXIS2_PLACEMENT_3D ( 'NONE', #104, #21, #145 ) ;
#67 = EDGE_CURVE ( 'NONE', #229, #200, #101, .T. ) ;
#68 = ORIENTED_EDGE ( 'NONE', *, *, #198, .F. ) ;
#69 = CARTESIAN_POINT ( 'NONE',  ( -10.00000000000000000, 0.000000000000000000, 7.000000000000000000 ) ) ;
#70 = AXIS2_PLACEMENT_3D ( 'NONE', #250, #359, #220 ) ;
#71 = PERSON_AND_ORGANIZATION_ROLE ( 'classification_officer' ) ;
#72 = CARTESIAN_POINT ( 'NONE',  ( -6.700000000000001066, 8.205133554287267548E-16, 7.700000000000012612 ) ) ;
#73 = PRODUCT_DEFINITION ( 'NEZNÁMÝ', '', #260, #139 ) ;
#74 = ADVANCED_FACE ( 'NONE', ( #348, #269 ), #26, .T. ) ;
#75 = MANIFOLD_SOLID_BREP ( 'Odebrat vysunutím3', #96 ) ;
#76 = ORIENTED_EDGE ( 'NONE', *, *, #186, .T. ) ;
#77 = FACE_OUTER_BOUND ( 'NONE', #55, .T. ) ;
#78 = ORIENTED_EDGE ( 'NONE', *, *, #353, .T. ) ;
#79 = AXIS2_PLACEMENT_3D ( 'NONE', #251, #361, #100 ) ;
#80 = ORIENTED_EDGE ( 'NONE', *, *, #287, .F. ) ;
#81 = FACE_OUTER_BOUND ( 'NONE', #342, .T. ) ;
#82 = ORIENTED_EDGE ( 'NONE', *, *, #210, .T. ) ;
#83 = DIRECTION ( 'NONE',  ( 1.000000000000000000, 0.000000000000000000, 0.000000000000000000 ) ) ;
#84 = EDGE_LOOP ( 'NONE', ( #175, #336, #50, #80 ) ) ;
#85 = CIRCLE ( 'NONE', #8, 4.099999999999999645 ) ;
#86 =( NAMED_UNIT ( * ) SI_UNIT ( $, .STERADIAN. ) SOLID_ANGLE_UNIT ( ) );
#87 = ORIENTED_EDGE ( 'NONE', *, *, #353, .F. ) ;
#88 = CALENDAR_DATE ( 2022, 8, 7 ) ;
#89 = LINE ( 'NONE', #217, #333 ) ;
#90 = PERSON_AND_ORGANIZATION ( #303, #298 ) ;
#91 = CYLINDRICAL_SURFACE ( 'NONE', #79, 4.099999999999999645 ) ;
#92 = AXIS2_PLACEMENT_3D ( 'NONE', #94, #184, #123 ) ;
#93 = CARTESIAN_POINT ( 'NONE',  ( 0.000000000000000000, 0.000000000000000000, 0.000000000000000000 ) ) ;
#94 = CARTESIAN_POINT ( 'NONE',  ( 0.000000000000000000, 0.000000000000000000, 0.000000000000000000 ) ) ;
#95 = DIRECTION ( 'NONE',  ( 0.000000000000000000, 0.000000000000000000, 1.000000000000000000 ) ) ;
#96 = CLOSED_SHELL ( 'NONE', ( #57, #41, #309, #316, #366, #191, #379, #255, #74, #266, #163 ) ) ;
#97 = EDGE_CURVE ( 'NONE', #276, #360, #170, .T. ) ;
#98 = VECTOR ( 'NONE', #2, 1000.000000000000000 ) ;
#99 = FACE_OUTER_BOUND ( 'NONE', #340, .T. ) ;
#100 = DIRECTION ( 'NONE',  ( -1.000000000000000000, 0.000000000000000000, 0.000000000000000000 ) ) ;
#101 = CIRCLE ( 'NONE', #283, 10.00000000000000000 ) ;
#102 = CC_DESIGN_PERSON_AND_ORGANIZATION_ASSIGNMENT ( #219, #71, ( #314 ) ) ;
#103 = CARTESIAN_POINT ( 'NONE',  ( 6.000000000000000888, 7.347880794884120722E-16, 232.0000000000000000 ) ) ;
#104 = CARTESIAN_POINT ( 'NONE',  ( 6.700000000000001066, 0.000000000000000000, 7.700000000000012612 ) ) ;
#105 = EDGE_LOOP ( 'NONE', ( #44, #27, #301, #279 ) ) ;
#106 = CYLINDRICAL_SURFACE ( 'NONE', #1, 10.00000000000000000 ) ;
#107 = EDGE_LOOP ( 'NONE', ( #36, #40 ) ) ;
#108 = ADVANCED_BREP_SHAPE_REPRESENTATION ( 'de8b', ( #75, #249 ), #120 ) ;
#109 = DIRECTION ( 'NONE',  ( -1.000000000000000000, 0.000000000000000000, 0.000000000000000000 ) ) ;
#110 = ORIENTED_EDGE ( 'NONE', *, *, #35, .T. ) ;
#111 = DIRECTION ( 'NONE',  ( -0.000000000000000000, -0.000000000000000000, -1.000000000000000000 ) ) ;
#112 = ORIENTED_EDGE ( 'NONE', *, *, #142, .T. ) ;
#113 = PERSON_AND_ORGANIZATION ( #303, #298 ) ;
#114 = CC_DESIGN_PERSON_AND_ORGANIZATION_ASSIGNMENT ( #90, #213, ( #260 ) ) ;
#115 = ORIENTED_EDGE ( 'NONE', *, *, #30, .F. ) ;
#116 = PERSON_AND_ORGANIZATION_ROLE ( 'design_owner' ) ;
#117 = FACE_OUTER_BOUND ( 'NONE', #253, .T. ) ;
#118 = EDGE_CURVE ( 'NONE', #330, #233, #270, .T. ) ;
#119 = DIRECTION ( 'NONE',  ( 1.000000000000000000, 0.000000000000000000, 0.000000000000000000 ) ) ;
#120 =( GEOMETRIC_REPRESENTATION_CONTEXT ( 3 ) GLOBAL_UNCERTAINTY_ASSIGNED_CONTEXT ( ( #277 ) ) GLOBAL_UNIT_ASSIGNED_CONTEXT ( ( #228, #319, #86 ) ) REPRESENTATION_CONTEXT ( 'NONE', 'WORKASPACE' ) );
#121 = CALENDAR_DATE ( 2022, 8, 7 ) ;
#122 = CYLINDRICAL_SURFACE ( 'NONE', #241, 4.099999999999999645 ) ;
#123 = DIRECTION ( 'NONE',  ( 1.000000000000000000, 0.000000000000000000, 0.000000000000000000 ) ) ;
#124 = DIRECTION ( 'NONE',  ( 0.000000000000000000, 0.000000000000000000, 1.000000000000000000 ) ) ;
#125 = EDGE_CURVE ( 'NONE', #200, #276, #89, .T. ) ;
#126 = AXIS2_PLACEMENT_3D ( 'NONE', #194, #154, #355 ) ;
#127 = CARTESIAN_POINT ( 'NONE',  ( 10.00000000000000000, 1.224646799147353256E-15, 0.000000000000000000 ) ) ;
#128 = ORIENTED_EDGE ( 'NONE', *, *, #146, .F. ) ;
#129 = ORIENTED_EDGE ( 'NONE', *, *, #142, .F. ) ;
#130 = APPROVAL ( #274, 'NEURÈENÝ' ) ;
#131 = LINE ( 'NONE', #103, #338 ) ;
#132 = AXIS2_PLACEMENT_3D ( 'NONE', #307, #230, #262 ) ;
#133 = PRODUCT_DEFINITION_SHAPE ( 'NONE', 'NONE',  #73 ) ;
#134 = DIRECTION ( 'NONE',  ( 1.000000000000000000, 0.000000000000000000, 0.000000000000000000 ) ) ;
#135 = ORIENTED_EDGE ( 'NONE', *, *, #136, .T. ) ;
#136 = EDGE_CURVE ( 'NONE', #312, #371, #294, .T. ) ;
#137 = DIRECTION ( 'NONE',  ( 1.000000000000000000, 0.000000000000000000, -0.000000000000000000 ) ) ;
#138 = CC_DESIGN_DATE_AND_TIME_ASSIGNMENT ( #246, #33, ( #314 ) ) ;
#139 = DESIGN_CONTEXT ( 'detailed design', #34, 'design' ) ;
#140 = AXIS2_PLACEMENT_3D ( 'NONE', #296, #31, #378 ) ;
#141 = LOCAL_TIME ( 16, 34, 42.00000000000000000, #190 ) ;
#142 = EDGE_CURVE ( 'NONE', #311, #278, #248, .T. ) ;
#143 = LINE ( 'NONE', #201, #60 ) ;
#144 = EDGE_CURVE ( 'NONE', #229, #360, #272, .T. ) ;
#145 = DIRECTION ( 'NONE',  ( 0.000000000000000000, 0.000000000000000000, -1.000000000000000000 ) ) ;
#146 = EDGE_CURVE ( 'NONE', #371, #258, #180, .T. ) ;
#147 = ORIENTED_EDGE ( 'NONE', *, *, #299, .T. ) ;
#148 = DIRECTION ( 'NONE',  ( 1.000000000000000000, 0.000000000000000000, 0.000000000000000000 ) ) ;
#149 = DIRECTION ( 'NONE',  ( 0.000000000000000000, 0.000000000000000000, 1.000000000000000000 ) ) ;
#150 = DIRECTION ( 'NONE',  ( 0.000000000000000000, 0.000000000000000000, 1.000000000000000000 ) ) ;
#151 = ORIENTED_EDGE ( 'NONE', *, *, #30, .T. ) ;
#152 = CARTESIAN_POINT ( 'NONE',  ( -4.099999999999999645, 0.000000000000000000, 232.0000000000000000 ) ) ;
#153 = PERSON_AND_ORGANIZATION ( #303, #298 ) ;
#154 = DIRECTION ( 'NONE',  ( -0.000000000000000000, -0.000000000000000000, -1.000000000000000000 ) ) ;
#155 = ORIENTED_EDGE ( 'NONE', *, *, #125, .F. ) ;
#156 = EDGE_LOOP ( 'NONE', ( #167, #128 ) ) ;
#157 = CALENDAR_DATE ( 2022, 8, 7 ) ;
#158 = CIRCLE ( 'NONE', #268, 6.700000000000001066 ) ;
#159 = CARTESIAN_POINT ( 'NONE',  ( 0.000000000000000000, 0.000000000000000000, 7.000000000000000000 ) ) ;
#160 = ORIENTED_EDGE ( 'NONE', *, *, #144, .F. ) ;
#161 = EDGE_LOOP ( 'NONE', ( #257, #10 ) ) ;
#162 = CARTESIAN_POINT ( 'NONE',  ( 4.099999999999999645, 5.021051876504146399E-16, 232.0000000000000000 ) ) ;
#163 = ADVANCED_FACE ( 'NONE', ( #117 ), #91, .F. ) ;
#164 = CIRCLE ( 'NONE', #356, 6.000000000000000888 ) ;
#165 = CC_DESIGN_PERSON_AND_ORGANIZATION_ASSIGNMENT ( #211, #236, ( #73 ) ) ;
#166 = CARTESIAN_POINT ( 'NONE',  ( 4.099999999999999645, 5.021051876504146399E-16, 0.000000000000000000 ) ) ;
#167 = ORIENTED_EDGE ( 'NONE', *, *, #210, .F. ) ;
#168 = DIRECTION ( 'NONE',  ( -0.000000000000000000, -0.000000000000000000, -1.000000000000000000 ) ) ;
#169 = DIRECTION ( 'NONE',  ( 0.000000000000000000, 0.000000000000000000, 1.000000000000000000 ) ) ;
#170 = CIRCLE ( 'NONE', #381, 10.00000000000000000 ) ;
#171 = DIRECTION ( 'NONE',  ( -0.000000000000000000, -0.000000000000000000, -1.000000000000000000 ) ) ;
#172 = ORIENTED_EDGE ( 'NONE', *, *, #146, .T. ) ;
#173 = CYLINDRICAL_SURFACE ( 'NONE', #343, 6.000000000000000888 ) ;
#174 = CARTESIAN_POINT ( 'NONE',  ( 0.000000000000000000, 0.000000000000000000, 7.700000000000012612 ) ) ;
#175 = ORIENTED_EDGE ( 'NONE', *, *, #35, .F. ) ;
#176 = DATE_AND_TIME ( #239, #322 ) ;
#177 = TOROIDAL_SURFACE ( 'NONE', #6, 6.700000000000001066, 0.6999999999999999556 ) ;
#178 = COORDINATED_UNIVERSAL_TIME_OFFSET ( 1, 0, .AHEAD. ) ;
#179 = CARTESIAN_POINT ( 'NONE',  ( 0.000000000000000000, 0.000000000000000000, 232.0000000000000000 ) ) ;
#180 = CIRCLE ( 'NONE', #140, 4.099999999999999645 ) ;
#181 = CC_DESIGN_APPROVAL ( #18, ( #73 ) ) ;
#182 = COORDINATED_UNIVERSAL_TIME_OFFSET ( 1, 0, .AHEAD. ) ;
#183 = PRODUCT_RELATED_PRODUCT_CATEGORY ( 'detail', '', ( #62 ) ) ;
#184 = DIRECTION ( 'NONE',  ( 0.000000000000000000, 0.000000000000000000, 1.000000000000000000 ) ) ;
#185 = CARTESIAN_POINT ( 'NONE',  ( 0.000000000000000000, 0.000000000000000000, 0.000000000000000000 ) ) ;
#186 = EDGE_CURVE ( 'NONE', #20, #286, #164, .T. ) ;
#187 = VECTOR ( 'NONE', #346, 1000.000000000000000 ) ;
#188 = DATE_AND_TIME ( #157, #38 ) ;
#189 = DIRECTION ( 'NONE',  ( -0.000000000000000000, -0.000000000000000000, -1.000000000000000000 ) ) ;
#190 = COORDINATED_UNIVERSAL_TIME_OFFSET ( 1, 0, .AHEAD. ) ;
#191 = ADVANCED_FACE ( 'NONE', ( #300, #280 ), #43, .T. ) ;
#192 = CIRCLE ( 'NONE', #66, 0.7000000000000000666 ) ;
#193 = DIRECTION ( 'NONE',  ( 1.000000000000000000, 0.000000000000000000, 0.000000000000000000 ) ) ;
#194 = CARTESIAN_POINT ( 'NONE',  ( 0.000000000000000000, 0.000000000000000000, 232.0000000000000000 ) ) ;
#195 = EDGE_LOOP ( 'NONE', ( #14, #129, #48, #76 ) ) ;
#196 = CARTESIAN_POINT ( 'NONE',  ( 6.000000000000000888, 7.347880794884120722E-16, 232.0000000000000000 ) ) ;
#197 = ORIENTED_EDGE ( 'NONE', *, *, #4, .T. ) ;
#198 = EDGE_CURVE ( 'NONE', #20, #233, #254, .T. ) ;
#199 = CARTESIAN_POINT ( 'NONE',  ( 0.000000000000000000, 0.000000000000000000, 7.000000000000000000 ) ) ;
#200 = VERTEX_POINT ( 'NONE', #332 ) ;
#201 = CARTESIAN_POINT ( 'NONE',  ( -6.000000000000000888, 0.000000000000000000, 232.0000000000000000 ) ) ;
#202 = ORIENTED_EDGE ( 'NONE', *, *, #24, .F. ) ;
#203 = DIRECTION ( 'NONE',  ( 0.000000000000000000, 0.000000000000000000, -1.000000000000000000 ) ) ;
#204 = DIRECTION ( 'NONE',  ( 0.000000000000000000, 0.000000000000000000, 1.000000000000000000 ) ) ;
#205 = CARTESIAN_POINT ( 'NONE',  ( 0.000000000000000000, 0.000000000000000000, 232.0000000000000000 ) ) ;
#206 = TOROIDAL_SURFACE ( 'NONE', #70, 6.700000000000001066, 0.6999999999999999556 ) ;
#207 = APPROVAL_PERSON_ORGANIZATION ( #375, #18, #317 ) ;
#208 = APPLICATION_PROTOCOL_DEFINITION ( 'international standard', 'config_control_design', 1994, #243 ) ;
#209 = ORIENTED_EDGE ( 'NONE', *, *, #67, .F. ) ;
#210 = EDGE_CURVE ( 'NONE', #258, #371, #320, .T. ) ;
#211 = PERSON_AND_ORGANIZATION ( #303, #298 ) ;
#212 = CC_DESIGN_PERSON_AND_ORGANIZATION_ASSIGNMENT ( #323, #377, ( #260 ) ) ;
#213 = PERSON_AND_ORGANIZATION_ROLE ( 'design_supplier' ) ;
#214 = DATE_TIME_ROLE ( 'creation_date' ) ;
#215 = FACE_OUTER_BOUND ( 'NONE', #105, .T. ) ;
#216 = APPROVAL_STATUS ( 'not_yet_approved' ) ;
#217 = CARTESIAN_POINT ( 'NONE',  ( 10.00000000000000000, 1.224646799147353256E-15, 7.000000000000000000 ) ) ;
#218 = DIRECTION ( 'NONE',  ( 1.000000000000000000, 0.000000000000000000, 0.000000000000000000 ) ) ;
#219 = PERSON_AND_ORGANIZATION ( #303, #298 ) ;
#220 = DIRECTION ( 'NONE',  ( 1.000000000000000000, 0.000000000000000000, 0.000000000000000000 ) ) ;
#221 = DIRECTION ( 'NONE',  ( -1.000000000000000000, 1.224646799147353454E-16, 0.000000000000000000 ) ) ;
#222 = AXIS2_PLACEMENT_3D ( 'NONE', #15, #204, #137 ) ;
#223 = CARTESIAN_POINT ( 'NONE',  ( 0.000000000000000000, 0.000000000000000000, 7.700000000000012612 ) ) ;
#224 = ORIENTED_EDGE ( 'NONE', *, *, #313, .F. ) ;
#225 = AXIS2_PLACEMENT_3D ( 'NONE', #64, #149, #352 ) ;
#226 = PLANE ( 'NONE',  #222 ) ;
#227 = ORIENTED_EDGE ( 'NONE', *, *, #97, .T. ) ;
#228 =( LENGTH_UNIT ( ) NAMED_UNIT ( * ) SI_UNIT ( .MILLI., .METRE. ) );
#229 = VERTEX_POINT ( 'NONE', #69 ) ;
#230 = DIRECTION ( 'NONE',  ( -0.000000000000000000, -0.000000000000000000, -1.000000000000000000 ) ) ;
#231 = ORIENTED_EDGE ( 'NONE', *, *, #144, .T. ) ;
#232 = AXIS2_PLACEMENT_3D ( 'NONE', #174, #22, #354 ) ;
#233 = VERTEX_POINT ( 'NONE', #252 ) ;
#234 = AXIS2_PLACEMENT_3D ( 'NONE', #51, #47, #134 ) ;
#235 = APPROVAL_PERSON_ORGANIZATION ( #153, #130, #37 ) ;
#236 = PERSON_AND_ORGANIZATION_ROLE ( 'creator' ) ;
#237 = DIRECTION ( 'NONE',  ( -0.000000000000000000, -0.000000000000000000, -1.000000000000000000 ) ) ;
#238 = CC_DESIGN_PERSON_AND_ORGANIZATION_ASSIGNMENT ( #350, #116, ( #62 ) ) ;
#239 = CALENDAR_DATE ( 2022, 8, 7 ) ;
#240 = CARTESIAN_POINT ( 'NONE',  ( 0.000000000000000000, 0.000000000000000000, 232.0000000000000000 ) ) ;
#241 = AXIS2_PLACEMENT_3D ( 'NONE', #240, #321, #273 ) ;
#242 = CARTESIAN_POINT ( 'NONE',  ( 0.000000000000000000, 0.000000000000000000, 7.700000000000012612 ) ) ;
#243 = APPLICATION_CONTEXT ( 'configuration controlled 3d designs of mechanical parts and assemblies' ) ;
#244 = DATE_AND_TIME ( #121, #306 ) ;
#245 = DIRECTION ( 'NONE',  ( -0.000000000000000000, -0.000000000000000000, -1.000000000000000000 ) ) ;
#246 = DATE_AND_TIME ( #5, #141 ) ;
#247 = DIRECTION ( 'NONE',  ( -0.000000000000000000, -0.000000000000000000, -1.000000000000000000 ) ) ;
#248 = CIRCLE ( 'NONE', #326, 6.000000000000000888 ) ;
#249 = AXIS2_PLACEMENT_3D ( 'NONE', #93, #271, #295 ) ;
#250 = CARTESIAN_POINT ( 'NONE',  ( 0.000000000000000000, 0.000000000000000000, 7.700000000000012612 ) ) ;
#251 = CARTESIAN_POINT ( 'NONE',  ( 0.000000000000000000, 0.000000000000000000, 232.0000000000000000 ) ) ;
#252 = CARTESIAN_POINT ( 'NONE',  ( -6.700000000000001066, 8.205133554287267548E-16, 7.000000000000006217 ) ) ;
#253 = EDGE_LOOP ( 'NONE', ( #263, #197, #78, #82 ) ) ;
#254 = CIRCLE ( 'NONE', #351, 0.7000000000000000666 ) ;
#255 = ADVANCED_FACE ( 'NONE', ( #11 ), #325, .T. ) ;
#256 = EDGE_CURVE ( 'NONE', #278, #286, #131, .T. ) ;
#257 = ORIENTED_EDGE ( 'NONE', *, *, #118, .T. ) ;
#258 = VERTEX_POINT ( 'NONE', #32 ) ;
#259 = CIRCLE ( 'NONE', #234, 10.00000000000000000 ) ;
#260 = PRODUCT_DEFINITION_FORMATION_WITH_SPECIFIED_SOURCE ( 'LIBOVOLNÝ', '', #62, .NOT_KNOWN. ) ;
#261 = VERTEX_POINT ( 'NONE', #152 ) ;
#262 = DIRECTION ( 'NONE',  ( -1.000000000000000000, 0.000000000000000000, 0.000000000000000000 ) ) ;
#263 = ORIENTED_EDGE ( 'NONE', *, *, #136, .F. ) ;
#264 = CARTESIAN_POINT ( 'NONE',  ( -4.099999999999999645, 0.000000000000000000, 232.0000000000000000 ) ) ;
#265 = APPLICATION_PROTOCOL_DEFINITION ( 'international standard', 'config_control_design', 1994, #34 ) ;
#266 = ADVANCED_FACE ( 'NONE', ( #99 ), #206, .F. ) ;
#267 = FACE_OUTER_BOUND ( 'NONE', #373, .T. ) ;
#268 = AXIS2_PLACEMENT_3D ( 'NONE', #365, #111, #335 ) ;
#269 = FACE_OUTER_BOUND ( 'NONE', #344, .T. ) ;
#270 = CIRCLE ( 'NONE', #362, 6.700000000000001066 ) ;
#271 = DIRECTION ( 'NONE',  ( 0.000000000000000000, 0.000000000000000000, 1.000000000000000000 ) ) ;
#272 = LINE ( 'NONE', #65, #98 ) ;
#273 = DIRECTION ( 'NONE',  ( -1.000000000000000000, 0.000000000000000000, 0.000000000000000000 ) ) ;
#274 = APPROVAL_STATUS ( 'not_yet_approved' ) ;
#275 = CC_DESIGN_DATE_AND_TIME_ASSIGNMENT ( #244, #214, ( #73 ) ) ;
#276 = VERTEX_POINT ( 'NONE', #127 ) ;
#277 = UNCERTAINTY_MEASURE_WITH_UNIT (LENGTH_MEASURE( 1.000000000000000082E-05 ), #228, 'distance_accuracy_value', 'NONE');
#278 = VERTEX_POINT ( 'NONE', #196 ) ;
#279 = ORIENTED_EDGE ( 'NONE', *, *, #337, .F. ) ;
#280 = FACE_OUTER_BOUND ( 'NONE', #107, .T. ) ;
#281 = CYLINDRICAL_SURFACE ( 'NONE', #132, 10.00000000000000000 ) ;
#282 = FACE_BOUND ( 'NONE', #156, .T. ) ;
#283 = AXIS2_PLACEMENT_3D ( 'NONE', #288, #150, #148 ) ;
#284 = ORIENTED_EDGE ( 'NONE', *, *, #4, .F. ) ;
#285 = FACE_OUTER_BOUND ( 'NONE', #84, .T. ) ;
#286 = VERTEX_POINT ( 'NONE', #368 ) ;
#287 = EDGE_CURVE ( 'NONE', #311, #20, #143, .T. ) ;
#288 = CARTESIAN_POINT ( 'NONE',  ( 0.000000000000000000, 0.000000000000000000, 7.000000000000000000 ) ) ;
#289 = CIRCLE ( 'NONE', #16, 4.099999999999999645 ) ;
#290 = APPROVAL_DATE_TIME ( #324, #53 ) ;
#291 = AXIS2_PLACEMENT_3D ( 'NONE', #7, #247, #12 ) ;
#292 = DIRECTION ( 'NONE',  ( 0.000000000000000000, 0.000000000000000000, 1.000000000000000000 ) ) ;
#293 = DIRECTION ( 'NONE',  ( 0.000000000000000000, 0.000000000000000000, 1.000000000000000000 ) ) ;
#294 = LINE ( 'NONE', #29, #187 ) ;
#295 = DIRECTION ( 'NONE',  ( 1.000000000000000000, 0.000000000000000000, 0.000000000000000000 ) ) ;
#296 = CARTESIAN_POINT ( 'NONE',  ( 0.000000000000000000, 0.000000000000000000, 0.000000000000000000 ) ) ;
#297 = AXIS2_PLACEMENT_3D ( 'NONE', #159, #328, #363 ) ;
#298 = ORGANIZATION ( 'NEURÈENÝ', 'NEURÈENÝ', '' ) ;
#299 = EDGE_CURVE ( 'NONE', #261, #312, #85, .T. ) ;
#300 = FACE_BOUND ( 'NONE', #161, .T. ) ;
#301 = ORIENTED_EDGE ( 'NONE', *, *, #118, .F. ) ;
#302 = CC_DESIGN_SECURITY_CLASSIFICATION ( #314, ( #260 ) ) ;
#303 = PERSON ( 'NEURÈENÝ', 'NEURÈENÝ', 'NEURÈENÝ', ('NEURÈENÝ'), ('NEURÈENÝ'), ('NEURÈENÝ') ) ;
#304 = DIRECTION ( 'NONE',  ( -0.000000000000000000, -0.000000000000000000, -1.000000000000000000 ) ) ;
#305 = AXIS2_PLACEMENT_3D ( 'NONE', #59, #95, #218 ) ;
#306 = LOCAL_TIME ( 16, 34, 42.00000000000000000, #182 ) ;
#307 = CARTESIAN_POINT ( 'NONE',  ( 0.000000000000000000, 0.000000000000000000, 7.000000000000000000 ) ) ;
#308 = ORIENTED_EDGE ( 'NONE', *, *, #337, .T. ) ;
#309 = ADVANCED_FACE ( 'NONE', ( #285 ), #173, .T. ) ;
#310 = CARTESIAN_POINT ( 'NONE',  ( 0.000000000000000000, 0.000000000000000000, 232.0000000000000000 ) ) ;
#311 = VERTEX_POINT ( 'NONE', #334 ) ;
#312 = VERTEX_POINT ( 'NONE', #162 ) ;
#313 = EDGE_CURVE ( 'NONE', #233, #330, #158, .T. ) ;
#314 = SECURITY_CLASSIFICATION ( '', '', #61 ) ;
#315 = CARTESIAN_POINT ( 'NONE',  ( -6.000000000000000888, 0.000000000000000000, 7.700000000000012612 ) ) ;
#316 = ADVANCED_FACE ( 'NONE', ( #367 ), #281, .T. ) ;
#317 = APPROVAL_ROLE ( '' ) ;
#318 = ORIENTED_EDGE ( 'NONE', *, *, #97, .F. ) ;
#319 =( NAMED_UNIT ( * ) PLANE_ANGLE_UNIT ( ) SI_UNIT ( $, .RADIAN. ) );
#320 = CIRCLE ( 'NONE', #291, 4.099999999999999645 ) ;
#321 = DIRECTION ( 'NONE',  ( 0.000000000000000000, 0.000000000000000000, -1.000000000000000000 ) ) ;
#322 = LOCAL_TIME ( 16, 34, 42.00000000000000000, #58 ) ;
#323 = PERSON_AND_ORGANIZATION ( #303, #298 ) ;
#324 = DATE_AND_TIME ( #88, #327 ) ;
#325 = CYLINDRICAL_SURFACE ( 'NONE', #126, 6.000000000000000888 ) ;
#326 = AXIS2_PLACEMENT_3D ( 'NONE', #179, #292, #25 ) ;
#327 = LOCAL_TIME ( 16, 34, 42.00000000000000000, #178 ) ;
#328 = DIRECTION ( 'NONE',  ( 0.000000000000000000, 0.000000000000000000, 1.000000000000000000 ) ) ;
#329 = COORDINATED_UNIVERSAL_TIME_OFFSET ( 1, 0, .AHEAD. ) ;
#330 = VERTEX_POINT ( 'NONE', #13 ) ;
#331 = EDGE_CURVE ( 'NONE', #200, #229, #259, .T. ) ;
#332 = CARTESIAN_POINT ( 'NONE',  ( 10.00000000000000000, 1.224646799147353256E-15, 7.000000000000000000 ) ) ;
#333 = VECTOR ( 'NONE', #237, 1000.000000000000000 ) ;
#334 = CARTESIAN_POINT ( 'NONE',  ( -6.000000000000000888, 0.000000000000000000, 232.0000000000000000 ) ) ;
#335 = DIRECTION ( 'NONE',  ( 1.000000000000000000, 0.000000000000000000, 0.000000000000000000 ) ) ;
#336 = ORIENTED_EDGE ( 'NONE', *, *, #256, .T. ) ;
#337 = EDGE_CURVE ( 'NONE', #286, #330, #192, .T. ) ;
#338 = VECTOR ( 'NONE', #189, 1000.000000000000000 ) ;
#339 = DIRECTION ( 'NONE',  ( -1.000000000000000000, 0.000000000000000000, 0.000000000000000000 ) ) ;
#340 = EDGE_LOOP ( 'NONE', ( #68, #202, #308, #224 ) ) ;
#341 = CIRCLE ( 'NONE', #232, 6.000000000000000888 ) ;
#342 = EDGE_LOOP ( 'NONE', ( #115, #318 ) ) ;
#343 = AXIS2_PLACEMENT_3D ( 'NONE', #54, #168, #109 ) ;
#344 = EDGE_LOOP ( 'NONE', ( #112, #110 ) ) ;
#345 = APPROVAL_STATUS ( 'not_yet_approved' ) ;
#346 = DIRECTION ( 'NONE',  ( 0.000000000000000000, 0.000000000000000000, -1.000000000000000000 ) ) ;
#347 = APPROVAL_ROLE ( '' ) ;
#348 = FACE_BOUND ( 'NONE', #369, .T. ) ;
#349 = CIRCLE ( 'NONE', #305, 6.000000000000000888 ) ;
#350 = PERSON_AND_ORGANIZATION ( #303, #298 ) ;
#351 = AXIS2_PLACEMENT_3D ( 'NONE', #72, #39, #221 ) ;
#352 = DIRECTION ( 'NONE',  ( 1.000000000000000000, 0.000000000000000000, -0.000000000000000000 ) ) ;
#353 = EDGE_CURVE ( 'NONE', #261, #258, #370, .T. ) ;
#354 = DIRECTION ( 'NONE',  ( 1.000000000000000000, 0.000000000000000000, 0.000000000000000000 ) ) ;
#355 = DIRECTION ( 'NONE',  ( -1.000000000000000000, 0.000000000000000000, 0.000000000000000000 ) ) ;
#356 = AXIS2_PLACEMENT_3D ( 'NONE', #223, #124, #193 ) ;
#357 = CC_DESIGN_APPROVAL ( #130, ( #314 ) ) ;
#358 = APPROVAL_PERSON_ORGANIZATION ( #113, #53, #347 ) ;
#359 = DIRECTION ( 'NONE',  ( 0.000000000000000000, 0.000000000000000000, 1.000000000000000000 ) ) ;
#360 = VERTEX_POINT ( 'NONE', #372 ) ;
#361 = DIRECTION ( 'NONE',  ( 0.000000000000000000, 0.000000000000000000, -1.000000000000000000 ) ) ;
#362 = AXIS2_PLACEMENT_3D ( 'NONE', #376, #245, #119 ) ;
#363 = DIRECTION ( 'NONE',  ( 1.000000000000000000, 0.000000000000000000, -0.000000000000000000 ) ) ;
#364 = ORIENTED_EDGE ( 'NONE', *, *, #331, .F. ) ;
#365 = CARTESIAN_POINT ( 'NONE',  ( 0.000000000000000000, 0.000000000000000000, 7.000000000000000000 ) ) ;
#366 = ADVANCED_FACE ( 'NONE', ( #77 ), #106, .T. ) ;
#367 = FACE_OUTER_BOUND ( 'NONE', #17, .T. ) ;
#368 = CARTESIAN_POINT ( 'NONE',  ( 6.000000000000000888, 7.347880794884120722E-16, 7.700000000000012612 ) ) ;
#369 = EDGE_LOOP ( 'NONE', ( #52, #284 ) ) ;
#370 = LINE ( 'NONE', #264, #19 ) ;
#371 = VERTEX_POINT ( 'NONE', #166 ) ;
#372 = CARTESIAN_POINT ( 'NONE',  ( -10.00000000000000000, 0.000000000000000000, 0.000000000000000000 ) ) ;
#373 = EDGE_LOOP ( 'NONE', ( #147, #135, #172, #87 ) ) ;
#374 = CIRCLE ( 'NONE', #92, 10.00000000000000000 ) ;
#375 = PERSON_AND_ORGANIZATION ( #303, #298 ) ;
#376 = CARTESIAN_POINT ( 'NONE',  ( 0.000000000000000000, 0.000000000000000000, 7.000000000000000000 ) ) ;
#377 = PERSON_AND_ORGANIZATION_ROLE ( 'creator' ) ;
#378 = DIRECTION ( 'NONE',  ( 1.000000000000000000, 0.000000000000000000, 0.000000000000000000 ) ) ;
#379 = ADVANCED_FACE ( 'NONE', ( #282, #81 ), #226, .F. ) ;
#380 = DIRECTION ( 'NONE',  ( 0.000000000000000000, 0.000000000000000000, 1.000000000000000000 ) ) ;
#381 = AXIS2_PLACEMENT_3D ( 'NONE', #185, #380, #23 ) ;
ENDSEC;
END-ISO-10303-21;
