ISO-10303-21;
HEADER;
FILE_DESCRIPTION (( 'STEP AP203' ),
    '1' );
FILE_NAME ('3a6a.STEP',
    '2022-07-08T15:44:19',
    ( '' ),
    ( '' ),
    'SwSTEP 2.0',
    'SolidWorks 2019',
    '' );
FILE_SCHEMA (( 'CONFIG_CONTROL_DESIGN' ));
ENDSEC;

DATA;
#1 = EDGE_LOOP ( 'NONE', ( #69, #327, #131, #97 ) ) ;
#2 = FACE_OUTER_BOUND ( 'NONE', #75, .T. ) ;
#3 = VERTEX_POINT ( 'NONE', #197 ) ;
#4 = VERTEX_POINT ( 'NONE', #226 ) ;
#5 = ORIENTED_EDGE ( 'NONE', *, *, #343, .T. ) ;
#6 = CC_DESIGN_PERSON_AND_ORGANIZATION_ASSIGNMENT ( #361, #328, ( #98 ) ) ;
#7 = PLANE ( 'NONE',  #37 ) ;
#8 = CIRCLE ( 'NONE', #205, 1.500000000000000222 ) ;
#9 = CARTESIAN_POINT ( 'NONE',  ( 0.000000000000000000, 0.000000000000000000, 303.0000000000000000 ) ) ;
#10 = PERSON_AND_ORGANIZATION ( #234, #102 ) ;
#11 = PERSON_AND_ORGANIZATION ( #234, #102 ) ;
#12 = CARTESIAN_POINT ( 'NONE',  ( 2.500000000000000000, 3.061616997868383141E-16, 3.300000000000025135 ) ) ;
#13 = CIRCLE ( 'NONE', #281, 2.799999999999999822 ) ;
#14 = MANIFOLD_SOLID_BREP ( 'Odebrat vysunutím3', #355 ) ;
#15 = CIRCLE ( 'NONE', #60, 2.799999999999999822 ) ;
#16 = DIRECTION ( 'NONE',  ( -0.000000000000000000, -0.000000000000000000, -1.000000000000000000 ) ) ;
#17 = CARTESIAN_POINT ( 'NONE',  ( -2.799999999999999822, 3.429011037612588783E-16, 3.300000000000025135 ) ) ;
#18 = ORIENTED_EDGE ( 'NONE', *, *, #253, .T. ) ;
#19 = CALENDAR_DATE ( 2022, 8, 7 ) ;
#20 = DIRECTION ( 'NONE',  ( -0.000000000000000000, -0.000000000000000000, -1.000000000000000000 ) ) ;
#21 = APPROVAL ( #340, 'NEURÈENÝ' ) ;
#22 = VECTOR ( 'NONE', #20, 1000.000000000000000 ) ;
#23 = TOROIDAL_SURFACE ( 'NONE', #333, 2.799999999999999822, 0.2999999999999999889 ) ;
#24 = DIRECTION ( 'NONE',  ( 1.000000000000000000, 0.000000000000000000, 0.000000000000000000 ) ) ;
#25 = ORIENTED_EDGE ( 'NONE', *, *, #71, .F. ) ;
#26 = FACE_OUTER_BOUND ( 'NONE', #217, .T. ) ;
#27 = DIRECTION ( 'NONE',  ( 0.000000000000000000, 0.000000000000000000, 1.000000000000000000 ) ) ;
#28 = DIRECTION ( 'NONE',  ( 0.000000000000000000, 0.000000000000000000, 1.000000000000000000 ) ) ;
#29 = EDGE_LOOP ( 'NONE', ( #352, #191, #178, #294 ) ) ;
#30 = AXIS2_PLACEMENT_3D ( 'NONE', #122, #95, #349 ) ;
#31 = PRODUCT_RELATED_PRODUCT_CATEGORY ( 'detail', '', ( #47 ) ) ;
#32 = ADVANCED_FACE ( 'NONE', ( #305, #369 ), #7, .T. ) ;
#33 = DIRECTION ( 'NONE',  ( -0.000000000000000000, -0.000000000000000000, -1.000000000000000000 ) ) ;
#34 = EDGE_LOOP ( 'NONE', ( #274, #244 ) ) ;
#35 = ORIENTED_EDGE ( 'NONE', *, *, #331, .F. ) ;
#36 = APPLICATION_PROTOCOL_DEFINITION ( 'international standard', 'config_control_design', 1994, #65 ) ;
#37 = AXIS2_PLACEMENT_3D ( 'NONE', #162, #372, #40 ) ;
#38 = ORIENTED_EDGE ( 'NONE', *, *, #79, .T. ) ;
#39 = CARTESIAN_POINT ( 'NONE',  ( -2.799999999999999822, 3.429011037612589276E-16, 3.000000000000012434 ) ) ;
#40 = DIRECTION ( 'NONE',  ( 1.000000000000000000, 0.000000000000000000, -0.000000000000000000 ) ) ;
#41 = APPLICATION_PROTOCOL_DEFINITION ( 'international standard', 'config_control_design', 1994, #174 ) ;
#42 = PLANE ( 'NONE',  #187 ) ;
#43 = EDGE_CURVE ( 'NONE', #241, #350, #165, .T. ) ;
#44 = EDGE_CURVE ( 'NONE', #3, #360, #337, .T. ) ;
#45 = DIRECTION ( 'NONE',  ( 0.000000000000000000, 0.000000000000000000, 1.000000000000000000 ) ) ;
#46 = DIRECTION ( 'NONE',  ( -1.000000000000000000, 0.000000000000000000, 0.000000000000000000 ) ) ;
#47 = PRODUCT ( '3a6a', '3a6a', '', ( #364 ) ) ;
#48 = APPROVAL_DATE_TIME ( #310, #21 ) ;
#49 = DIRECTION ( 'NONE',  ( -1.000000000000000000, 0.000000000000000000, 0.000000000000000000 ) ) ;
#50 = AXIS2_PLACEMENT_3D ( 'NONE', #332, #251, #46 ) ;
#51 = DATE_TIME_ROLE ( 'classification_date' ) ;
#52 = DIRECTION ( 'NONE',  ( -0.000000000000000000, -0.000000000000000000, -1.000000000000000000 ) ) ;
#53 = EDGE_CURVE ( 'NONE', #292, #319, #112, .T. ) ;
#54 = APPROVAL_STATUS ( 'not_yet_approved' ) ;
#55 = FACE_OUTER_BOUND ( 'NONE', #29, .T. ) ;
#56 = VERTEX_POINT ( 'NONE', #39 ) ;
#57 = DIRECTION ( 'NONE',  ( 1.224646799147353207E-16, 1.000000000000000000, -0.000000000000000000 ) ) ;
#58 = DIRECTION ( 'NONE',  ( 1.000000000000000000, 0.000000000000000000, 0.000000000000000000 ) ) ;
#59 = AXIS2_PLACEMENT_3D ( 'NONE', #311, #177, #345 ) ;
#60 = AXIS2_PLACEMENT_3D ( 'NONE', #121, #91, #146 ) ;
#61 = DIRECTION ( 'NONE',  ( 0.000000000000000000, 0.000000000000000000, -1.000000000000000000 ) ) ;
#62 = EDGE_LOOP ( 'NONE', ( #66, #94 ) ) ;
#63 = ORIENTED_EDGE ( 'NONE', *, *, #141, .F. ) ;
#64 = DIRECTION ( 'NONE',  ( 1.000000000000000000, 0.000000000000000000, 0.000000000000000000 ) ) ;
#65 = APPLICATION_CONTEXT ( 'configuration controlled 3d designs of mechanical parts and assemblies' ) ;
#66 = ORIENTED_EDGE ( 'NONE', *, *, #71, .T. ) ;
#67 = AXIS2_PLACEMENT_3D ( 'NONE', #229, #52, #109 ) ;
#68 = CYLINDRICAL_SURFACE ( 'NONE', #30, 5.000000000000000000 ) ;
#69 = ORIENTED_EDGE ( 'NONE', *, *, #190, .F. ) ;
#70 = ORIENTED_EDGE ( 'NONE', *, *, #141, .T. ) ;
#71 = EDGE_CURVE ( 'NONE', #319, #292, #90, .T. ) ;
#72 = DIRECTION ( 'NONE',  ( 0.000000000000000000, 0.000000000000000000, 1.000000000000000000 ) ) ;
#73 = APPROVAL_STATUS ( 'not_yet_approved' ) ;
#74 = PERSON_AND_ORGANIZATION ( #234, #102 ) ;
#75 = EDGE_LOOP ( 'NONE', ( #338, #210, #297, #285 ) ) ;
#76 = FACE_OUTER_BOUND ( 'NONE', #323, .T. ) ;
#77 = DIRECTION ( 'NONE',  ( 1.000000000000000000, 0.000000000000000000, 0.000000000000000000 ) ) ;
#78 = APPROVAL_DATE_TIME ( #344, #378 ) ;
#79 = EDGE_CURVE ( 'NONE', #189, #56, #13, .T. ) ;
#80 = DIRECTION ( 'NONE',  ( 1.000000000000000000, 0.000000000000000000, 0.000000000000000000 ) ) ;
#81 = DIRECTION ( 'NONE',  ( 0.000000000000000000, 0.000000000000000000, -1.000000000000000000 ) ) ;
#82 = CARTESIAN_POINT ( 'NONE',  ( 0.000000000000000000, 0.000000000000000000, 3.300000000000025135 ) ) ;
#83 = VECTOR ( 'NONE', #33, 1000.000000000000000 ) ;
#84 = CARTESIAN_POINT ( 'NONE',  ( 0.000000000000000000, 0.000000000000000000, 0.000000000000000000 ) ) ;
#85 = DIRECTION ( 'NONE',  ( 1.000000000000000000, 0.000000000000000000, 0.000000000000000000 ) ) ;
#86 = EDGE_CURVE ( 'NONE', #360, #3, #118, .T. ) ;
#87 = EDGE_CURVE ( 'NONE', #241, #245, #8, .T. ) ;
#88 = DIRECTION ( 'NONE',  ( -0.000000000000000000, -0.000000000000000000, -1.000000000000000000 ) ) ;
#89 = VERTEX_POINT ( 'NONE', #133 ) ;
#90 = CIRCLE ( 'NONE', #101, 2.500000000000000000 ) ;
#91 = DIRECTION ( 'NONE',  ( -0.000000000000000000, -0.000000000000000000, -1.000000000000000000 ) ) ;
#92 = AXIS2_PLACEMENT_3D ( 'NONE', #267, #188, #381 ) ;
#93 = CYLINDRICAL_SURFACE ( 'NONE', #139, 1.500000000000000222 ) ;
#94 = ORIENTED_EDGE ( 'NONE', *, *, #53, .T. ) ;
#95 = DIRECTION ( 'NONE',  ( -0.000000000000000000, -0.000000000000000000, -1.000000000000000000 ) ) ;
#96 = CIRCLE ( 'NONE', #155, 0.2999999999999999334 ) ;
#97 = ORIENTED_EDGE ( 'NONE', *, *, #253, .F. ) ;
#98 = PRODUCT_DEFINITION ( 'NEZNÁMÝ', '', #166, #321 ) ;
#99 = ORIENTED_EDGE ( 'NONE', *, *, #213, .T. ) ;
#100 =( NAMED_UNIT ( * ) PLANE_ANGLE_UNIT ( ) SI_UNIT ( $, .RADIAN. ) );
#101 = AXIS2_PLACEMENT_3D ( 'NONE', #9, #106, #158 ) ;
#102 = ORGANIZATION ( 'NEURÈENÝ', 'NEURÈENÝ', '' ) ;
#103 = COORDINATED_UNIVERSAL_TIME_OFFSET ( 1, 0, .AHEAD. ) ;
#104 = ADVANCED_FACE ( 'NONE', ( #76 ), #201, .F. ) ;
#105 = EDGE_CURVE ( 'NONE', #4, #89, #224, .T. ) ;
#106 = DIRECTION ( 'NONE',  ( 0.000000000000000000, 0.000000000000000000, 1.000000000000000000 ) ) ;
#107 = CARTESIAN_POINT ( 'NONE',  ( 0.000000000000000000, 0.000000000000000000, 0.000000000000000000 ) ) ;
#108 = CALENDAR_DATE ( 2022, 8, 7 ) ;
#109 = DIRECTION ( 'NONE',  ( -1.000000000000000000, 0.000000000000000000, 0.000000000000000000 ) ) ;
#110 = CARTESIAN_POINT ( 'NONE',  ( -5.000000000000000000, 0.000000000000000000, 3.000000000000000000 ) ) ;
#111 = DIRECTION ( 'NONE',  ( -0.000000000000000000, -0.000000000000000000, -1.000000000000000000 ) ) ;
#112 = CIRCLE ( 'NONE', #163, 2.500000000000000000 ) ;
#113 = DATE_AND_TIME ( #108, #257 ) ;
#114 = DIRECTION ( 'NONE',  ( 0.000000000000000000, 0.000000000000000000, 1.000000000000000000 ) ) ;
#115 = VECTOR ( 'NONE', #246, 1000.000000000000000 ) ;
#116 = ORIENTED_EDGE ( 'NONE', *, *, #87, .F. ) ;
#117 = DIRECTION ( 'NONE',  ( 1.000000000000000000, 0.000000000000000000, 0.000000000000000000 ) ) ;
#118 = CIRCLE ( 'NONE', #330, 5.000000000000000000 ) ;
#119 = FACE_OUTER_BOUND ( 'NONE', #186, .T. ) ;
#120 = ORIENTED_EDGE ( 'NONE', *, *, #43, .T. ) ;
#121 = CARTESIAN_POINT ( 'NONE',  ( 0.000000000000000000, 0.000000000000000000, 3.000000000000000000 ) ) ;
#122 = CARTESIAN_POINT ( 'NONE',  ( 0.000000000000000000, 0.000000000000000000, 3.000000000000000000 ) ) ;
#123 = ADVANCED_FACE ( 'NONE', ( #277, #196 ), #42, .F. ) ;
#124 = ORIENTED_EDGE ( 'NONE', *, *, #159, .F. ) ;
#125 = CARTESIAN_POINT ( 'NONE',  ( -2.500000000000000000, 0.000000000000000000, 303.0000000000000000 ) ) ;
#126 = VECTOR ( 'NONE', #335, 1000.000000000000000 ) ;
#127 = CIRCLE ( 'NONE', #198, 1.500000000000000222 ) ;
#128 = EDGE_LOOP ( 'NONE', ( #38, #237 ) ) ;
#129 = AXIS2_PLACEMENT_3D ( 'NONE', #160, #225, #154 ) ;
#130 = APPROVAL_DATE_TIME ( #195, #135 ) ;
#131 = ORIENTED_EDGE ( 'NONE', *, *, #79, .F. ) ;
#132 = COORDINATED_UNIVERSAL_TIME_OFFSET ( 1, 0, .AHEAD. ) ;
#133 = CARTESIAN_POINT ( 'NONE',  ( -5.000000000000000000, 0.000000000000000000, 3.000000000000000000 ) ) ;
#134 = DIRECTION ( 'NONE',  ( 0.000000000000000000, 0.000000000000000000, 1.000000000000000000 ) ) ;
#135 = APPROVAL ( #73, 'NEURÈENÝ' ) ;
#136 = LOCAL_TIME ( 17, 44, 19.00000000000000000, #228 ) ;
#137 = CC_DESIGN_PERSON_AND_ORGANIZATION_ASSIGNMENT ( #370, #168, ( #166 ) ) ;
#138 = CARTESIAN_POINT ( 'NONE',  ( 0.000000000000000000, 0.000000000000000000, 303.0000000000000000 ) ) ;
#139 = AXIS2_PLACEMENT_3D ( 'NONE', #353, #61, #148 ) ;
#140 = PERSON_AND_ORGANIZATION ( #234, #102 ) ;
#141 = EDGE_CURVE ( 'NONE', #301, #350, #262, .T. ) ;
#142 = CIRCLE ( 'NONE', #358, 2.500000000000000000 ) ;
#143 = CARTESIAN_POINT ( 'NONE',  ( -1.500000000000000222, 0.000000000000000000, 303.0000000000000000 ) ) ;
#144 =( GEOMETRIC_REPRESENTATION_CONTEXT ( 3 ) GLOBAL_UNCERTAINTY_ASSIGNED_CONTEXT ( ( #151 ) ) GLOBAL_UNIT_ASSIGNED_CONTEXT ( ( #351, #100, #223 ) ) REPRESENTATION_CONTEXT ( 'NONE', 'WORKASPACE' ) );
#145 = CARTESIAN_POINT ( 'NONE',  ( -5.000000000000000000, 0.000000000000000000, 0.000000000000000000 ) ) ;
#146 = DIRECTION ( 'NONE',  ( 1.000000000000000000, 0.000000000000000000, 0.000000000000000000 ) ) ;
#147 = ORIENTED_EDGE ( 'NONE', *, *, #242, .T. ) ;
#148 = DIRECTION ( 'NONE',  ( -1.000000000000000000, 0.000000000000000000, 0.000000000000000000 ) ) ;
#149 = DIRECTION ( 'NONE',  ( 1.000000000000000000, 0.000000000000000000, 0.000000000000000000 ) ) ;
#150 = ORIENTED_EDGE ( 'NONE', *, *, #87, .T. ) ;
#151 = UNCERTAINTY_MEASURE_WITH_UNIT (LENGTH_MEASURE( 1.000000000000000082E-05 ), #351, 'distance_accuracy_value', 'NONE');
#152 = EDGE_LOOP ( 'NONE', ( #35, #156, #120, #362 ) ) ;
#153 = ORIENTED_EDGE ( 'NONE', *, *, #190, .T. ) ;
#154 = DIRECTION ( 'NONE',  ( 1.000000000000000000, 0.000000000000000000, 0.000000000000000000 ) ) ;
#155 = AXIS2_PLACEMENT_3D ( 'NONE', #17, #57, #341 ) ;
#156 = ORIENTED_EDGE ( 'NONE', *, *, #206, .T. ) ;
#157 = CARTESIAN_POINT ( 'NONE',  ( 0.000000000000000000, 0.000000000000000000, 303.0000000000000000 ) ) ;
#158 = DIRECTION ( 'NONE',  ( 1.000000000000000000, 0.000000000000000000, 0.000000000000000000 ) ) ;
#159 = EDGE_CURVE ( 'NONE', #290, #56, #96, .T. ) ;
#160 = CARTESIAN_POINT ( 'NONE',  ( 0.000000000000000000, 0.000000000000000000, 0.000000000000000000 ) ) ;
#161 = CARTESIAN_POINT ( 'NONE',  ( 0.000000000000000000, 0.000000000000000000, 3.000000000000000000 ) ) ;
#162 = CARTESIAN_POINT ( 'NONE',  ( 0.000000000000000000, 0.000000000000000000, 303.0000000000000000 ) ) ;
#163 = AXIS2_PLACEMENT_3D ( 'NONE', #329, #134, #303 ) ;
#164 = DIRECTION ( 'NONE',  ( 0.000000000000000000, 0.000000000000000000, 1.000000000000000000 ) ) ;
#165 = LINE ( 'NONE', #279, #126 ) ;
#166 = PRODUCT_DEFINITION_FORMATION_WITH_SPECIFIED_SOURCE ( 'LIBOVOLNÝ', '', #47, .NOT_KNOWN. ) ;
#167 = EDGE_CURVE ( 'NONE', #4, #3, #179, .T. ) ;
#168 = PERSON_AND_ORGANIZATION_ROLE ( 'design_supplier' ) ;
#169 = ORIENTED_EDGE ( 'NONE', *, *, #343, .F. ) ;
#170 = CALENDAR_DATE ( 2022, 8, 7 ) ;
#171 = DIRECTION ( 'NONE',  ( 0.000000000000000000, -1.000000000000000000, 0.000000000000000000 ) ) ;
#172 = AXIS2_PLACEMENT_3D ( 'NONE', #138, #88, #49 ) ;
#173 = CARTESIAN_POINT ( 'NONE',  ( 2.500000000000000000, 3.061616997868383141E-16, 303.0000000000000000 ) ) ;
#174 = APPLICATION_CONTEXT ( 'configuration controlled 3d designs of mechanical parts and assemblies' ) ;
#175 = CC_DESIGN_PERSON_AND_ORGANIZATION_ASSIGNMENT ( #74, #326, ( #47 ) ) ;
#176 = COORDINATED_UNIVERSAL_TIME_OFFSET ( 1, 0, .AHEAD. ) ;
#177 = DIRECTION ( 'NONE',  ( -0.000000000000000000, -0.000000000000000000, -1.000000000000000000 ) ) ;
#178 = ORIENTED_EDGE ( 'NONE', *, *, #227, .T. ) ;
#179 = LINE ( 'NONE', #258, #307 ) ;
#180 = CARTESIAN_POINT ( 'NONE',  ( 0.000000000000000000, 0.000000000000000000, 0.000000000000000000 ) ) ;
#181 = AXIS2_PLACEMENT_3D ( 'NONE', #316, #377, #117 ) ;
#182 = SECURITY_CLASSIFICATION ( '', '', #203 ) ;
#183 = EDGE_LOOP ( 'NONE', ( #314, #99, #5, #276 ) ) ;
#184 = CARTESIAN_POINT ( 'NONE',  ( 0.000000000000000000, 0.000000000000000000, 3.300000000000025135 ) ) ;
#185 = CARTESIAN_POINT ( 'NONE',  ( 0.000000000000000000, 0.000000000000000000, 3.300000000000025135 ) ) ;
#186 = EDGE_LOOP ( 'NONE', ( #124, #169, #18, #356 ) ) ;
#187 = AXIS2_PLACEMENT_3D ( 'NONE', #278, #164, #315 ) ;
#188 = DIRECTION ( 'NONE',  ( 0.000000000000000000, 0.000000000000000000, 1.000000000000000000 ) ) ;
#189 = VERTEX_POINT ( 'NONE', #231 ) ;
#190 = EDGE_CURVE ( 'NONE', #290, #219, #142, .T. ) ;
#191 = ORIENTED_EDGE ( 'NONE', *, *, #242, .F. ) ;
#192 = ORIENTED_EDGE ( 'NONE', *, *, #213, .F. ) ;
#193 = APPROVAL_PERSON_ORGANIZATION ( #11, #21, #260 ) ;
#194 = APPROVAL_ROLE ( '' ) ;
#195 = DATE_AND_TIME ( #367, #250 ) ;
#196 = FACE_OUTER_BOUND ( 'NONE', #34, .T. ) ;
#197 = CARTESIAN_POINT ( 'NONE',  ( 5.000000000000000000, 6.123233995736766282E-16, 0.000000000000000000 ) ) ;
#198 = AXIS2_PLACEMENT_3D ( 'NONE', #287, #114, #209 ) ;
#199 = AXIS2_PLACEMENT_3D ( 'NONE', #240, #270, #24 ) ;
#200 = PERSON_AND_ORGANIZATION ( #234, #102 ) ;
#201 = CYLINDRICAL_SURFACE ( 'NONE', #50, 1.500000000000000222 ) ;
#202 = DIRECTION ( 'NONE',  ( 1.000000000000000000, 0.000000000000000000, 0.000000000000000000 ) ) ;
#203 = SECURITY_CLASSIFICATION_LEVEL ( 'unclassified' ) ;
#204 = CARTESIAN_POINT ( 'NONE',  ( 2.799999999999999822, 0.000000000000000000, 3.300000000000025135 ) ) ;
#205 = AXIS2_PLACEMENT_3D ( 'NONE', #157, #45, #368 ) ;
#206 = EDGE_CURVE ( 'NONE', #245, #241, #127, .T. ) ;
#207 = CIRCLE ( 'NONE', #263, 2.500000000000000000 ) ;
#208 = PERSON_AND_ORGANIZATION_ROLE ( 'creator' ) ;
#209 = DIRECTION ( 'NONE',  ( 1.000000000000000000, 0.000000000000000000, 0.000000000000000000 ) ) ;
#210 = ORIENTED_EDGE ( 'NONE', *, *, #167, .T. ) ;
#211 = CC_DESIGN_PERSON_AND_ORGANIZATION_ASSIGNMENT ( #140, #208, ( #166 ) ) ;
#212 = CARTESIAN_POINT ( 'NONE',  ( 1.500000000000000222, 1.836970198721030181E-16, 303.0000000000000000 ) ) ;
#213 = EDGE_CURVE ( 'NONE', #292, #219, #313, .T. ) ;
#214 = AXIS2_PLACEMENT_3D ( 'NONE', #204, #171, #81 ) ;
#215 = EDGE_LOOP ( 'NONE', ( #192, #25, #325, #153 ) ) ;
#216 = FACE_OUTER_BOUND ( 'NONE', #1, .T. ) ;
#217 = EDGE_LOOP ( 'NONE', ( #147, #266 ) ) ;
#218 = LINE ( 'NONE', #265, #115 ) ;
#219 = VERTEX_POINT ( 'NONE', #12 ) ;
#220 = CARTESIAN_POINT ( 'NONE',  ( -2.500000000000000000, 0.000000000000000000, 303.0000000000000000 ) ) ;
#221 = ORIENTED_EDGE ( 'NONE', *, *, #331, .T. ) ;
#222 = CC_DESIGN_PERSON_AND_ORGANIZATION_ASSIGNMENT ( #339, #375, ( #182 ) ) ;
#223 =( NAMED_UNIT ( * ) SI_UNIT ( $, .STERADIAN. ) SOLID_ANGLE_UNIT ( ) );
#224 = CIRCLE ( 'NONE', #342, 5.000000000000000000 ) ;
#225 = DIRECTION ( 'NONE',  ( 0.000000000000000000, 0.000000000000000000, 1.000000000000000000 ) ) ;
#226 = CARTESIAN_POINT ( 'NONE',  ( 5.000000000000000000, 6.123233995736766282E-16, 3.000000000000000000 ) ) ;
#227 = EDGE_CURVE ( 'NONE', #89, #360, #235, .T. ) ;
#228 = COORDINATED_UNIVERSAL_TIME_OFFSET ( 1, 0, .AHEAD. ) ;
#229 = CARTESIAN_POINT ( 'NONE',  ( 0.000000000000000000, 0.000000000000000000, 303.0000000000000000 ) ) ;
#230 = PRODUCT_DEFINITION_SHAPE ( 'NONE', 'NONE',  #98 ) ;
#231 = CARTESIAN_POINT ( 'NONE',  ( 2.799999999999999822, 0.000000000000000000, 3.000000000000012434 ) ) ;
#232 = CIRCLE ( 'NONE', #199, 1.500000000000000222 ) ;
#233 = APPROVAL_ROLE ( '' ) ;
#234 = PERSON ( 'NEURÈENÝ', 'NEURÈENÝ', 'NEURÈENÝ', ('NEURÈENÝ'), ('NEURÈENÝ'), ('NEURÈENÝ') ) ;
#235 = LINE ( 'NONE', #110, #247 ) ;
#236 = ADVANCED_FACE ( 'NONE', ( #55 ), #309, .T. ) ;
#237 = ORIENTED_EDGE ( 'NONE', *, *, #306, .T. ) ;
#238 = FACE_OUTER_BOUND ( 'NONE', #215, .T. ) ;
#239 = DIRECTION ( 'NONE',  ( 1.000000000000000000, 0.000000000000000000, 0.000000000000000000 ) ) ;
#240 = CARTESIAN_POINT ( 'NONE',  ( 0.000000000000000000, 0.000000000000000000, 0.000000000000000000 ) ) ;
#241 = VERTEX_POINT ( 'NONE', #143 ) ;
#242 = EDGE_CURVE ( 'NONE', #89, #4, #255, .T. ) ;
#243 = ADVANCED_FACE ( 'NONE', ( #238 ), #347, .T. ) ;
#244 = ORIENTED_EDGE ( 'NONE', *, *, #44, .F. ) ;
#245 = VERTEX_POINT ( 'NONE', #212 ) ;
#246 = DIRECTION ( 'NONE',  ( 0.000000000000000000, 0.000000000000000000, -1.000000000000000000 ) ) ;
#247 = VECTOR ( 'NONE', #284, 1000.000000000000000 ) ;
#248 = CC_DESIGN_APPROVAL ( #135, ( #98 ) ) ;
#249 = DATE_AND_TIME ( #302, #288 ) ;
#250 = LOCAL_TIME ( 17, 44, 19.00000000000000000, #132 ) ;
#251 = DIRECTION ( 'NONE',  ( 0.000000000000000000, 0.000000000000000000, -1.000000000000000000 ) ) ;
#252 = ADVANCED_FACE ( 'NONE', ( #259 ), #254, .T. ) ;
#253 = EDGE_CURVE ( 'NONE', #219, #189, #359, .T. ) ;
#254 = CYLINDRICAL_SURFACE ( 'NONE', #67, 2.500000000000000000 ) ;
#255 = CIRCLE ( 'NONE', #181, 5.000000000000000000 ) ;
#256 = CC_DESIGN_DATE_AND_TIME_ASSIGNMENT ( #113, #51, ( #182 ) ) ;
#257 = LOCAL_TIME ( 17, 44, 19.00000000000000000, #308 ) ;
#258 = CARTESIAN_POINT ( 'NONE',  ( 5.000000000000000000, 6.123233995736766282E-16, 3.000000000000000000 ) ) ;
#259 = FACE_OUTER_BOUND ( 'NONE', #183, .T. ) ;
#260 = APPROVAL_ROLE ( '' ) ;
#261 = CARTESIAN_POINT ( 'NONE',  ( 0.000000000000000000, 0.000000000000000000, 3.000000000000000000 ) ) ;
#262 = CIRCLE ( 'NONE', #371, 1.500000000000000222 ) ;
#263 = AXIS2_PLACEMENT_3D ( 'NONE', #296, #379, #239 ) ;
#264 = LINE ( 'NONE', #220, #83 ) ;
#265 = CARTESIAN_POINT ( 'NONE',  ( 1.500000000000000222, 1.836970198721030181E-16, 303.0000000000000000 ) ) ;
#266 = ORIENTED_EDGE ( 'NONE', *, *, #105, .T. ) ;
#267 = CARTESIAN_POINT ( 'NONE',  ( 0.000000000000000000, 0.000000000000000000, 3.000000000000000000 ) ) ;
#268 = CC_DESIGN_APPROVAL ( #378, ( #182 ) ) ;
#269 = EDGE_LOOP ( 'NONE', ( #116, #300 ) ) ;
#270 = DIRECTION ( 'NONE',  ( -0.000000000000000000, -0.000000000000000000, -1.000000000000000000 ) ) ;
#271 = EDGE_LOOP ( 'NONE', ( #322, #63 ) ) ;
#272 = CARTESIAN_POINT ( 'NONE',  ( -1.500000000000000222, 0.000000000000000000, 0.000000000000000000 ) ) ;
#273 = CC_DESIGN_DATE_AND_TIME_ASSIGNMENT ( #249, #334, ( #98 ) ) ;
#274 = ORIENTED_EDGE ( 'NONE', *, *, #86, .F. ) ;
#275 = APPROVAL_PERSON_ORGANIZATION ( #200, #378, #233 ) ;
#276 = ORIENTED_EDGE ( 'NONE', *, *, #336, .F. ) ;
#277 = FACE_BOUND ( 'NONE', #271, .T. ) ;
#278 = CARTESIAN_POINT ( 'NONE',  ( 0.000000000000000000, 0.000000000000000000, 0.000000000000000000 ) ) ;
#279 = CARTESIAN_POINT ( 'NONE',  ( -1.500000000000000222, 0.000000000000000000, 303.0000000000000000 ) ) ;
#280 = ADVANCED_FACE ( 'NONE', ( #374 ), #93, .F. ) ;
#281 = AXIS2_PLACEMENT_3D ( 'NONE', #261, #346, #85 ) ;
#282 = CC_DESIGN_APPROVAL ( #21, ( #166 ) ) ;
#283 = ADVANCED_BREP_SHAPE_REPRESENTATION ( '3a6a', ( #14, #129 ), #144 ) ;
#284 = DIRECTION ( 'NONE',  ( -0.000000000000000000, -0.000000000000000000, -1.000000000000000000 ) ) ;
#285 = ORIENTED_EDGE ( 'NONE', *, *, #227, .F. ) ;
#286 = ADVANCED_FACE ( 'NONE', ( #216 ), #23, .F. ) ;
#287 = CARTESIAN_POINT ( 'NONE',  ( 0.000000000000000000, 0.000000000000000000, 303.0000000000000000 ) ) ;
#288 = LOCAL_TIME ( 17, 44, 19.00000000000000000, #103 ) ;
#289 = PLANE ( 'NONE',  #92 ) ;
#290 = VERTEX_POINT ( 'NONE', #291 ) ;
#291 = CARTESIAN_POINT ( 'NONE',  ( -2.500000000000000000, 0.000000000000000000, 3.300000000000025135 ) ) ;
#292 = VERTEX_POINT ( 'NONE', #299 ) ;
#293 = CARTESIAN_POINT ( 'NONE',  ( 1.500000000000000222, 1.836970198721030181E-16, 0.000000000000000000 ) ) ;
#294 = ORIENTED_EDGE ( 'NONE', *, *, #86, .T. ) ;
#295 = LOCAL_TIME ( 17, 44, 19.00000000000000000, #176 ) ;
#296 = CARTESIAN_POINT ( 'NONE',  ( 0.000000000000000000, 0.000000000000000000, 3.300000000000025135 ) ) ;
#297 = ORIENTED_EDGE ( 'NONE', *, *, #44, .T. ) ;
#298 = ADVANCED_FACE ( 'NONE', ( #320, #26 ), #289, .T. ) ;
#299 = CARTESIAN_POINT ( 'NONE',  ( 2.500000000000000000, 3.061616997868383141E-16, 303.0000000000000000 ) ) ;
#300 = ORIENTED_EDGE ( 'NONE', *, *, #206, .F. ) ;
#301 = VERTEX_POINT ( 'NONE', #293 ) ;
#302 = CALENDAR_DATE ( 2022, 8, 7 ) ;
#303 = DIRECTION ( 'NONE',  ( 1.000000000000000000, 0.000000000000000000, 0.000000000000000000 ) ) ;
#304 = DIRECTION ( 'NONE',  ( 1.000000000000000000, 0.000000000000000000, 0.000000000000000000 ) ) ;
#305 = FACE_BOUND ( 'NONE', #269, .T. ) ;
#306 = EDGE_CURVE ( 'NONE', #56, #189, #15, .T. ) ;
#307 = VECTOR ( 'NONE', #16, 1000.000000000000000 ) ;
#308 = COORDINATED_UNIVERSAL_TIME_OFFSET ( 1, 0, .AHEAD. ) ;
#309 = CYLINDRICAL_SURFACE ( 'NONE', #59, 5.000000000000000000 ) ;
#310 = DATE_AND_TIME ( #19, #295 ) ;
#311 = CARTESIAN_POINT ( 'NONE',  ( 0.000000000000000000, 0.000000000000000000, 3.000000000000000000 ) ) ;
#312 = CC_DESIGN_SECURITY_CLASSIFICATION ( #182, ( #166 ) ) ;
#313 = LINE ( 'NONE', #173, #22 ) ;
#314 = ORIENTED_EDGE ( 'NONE', *, *, #53, .F. ) ;
#315 = DIRECTION ( 'NONE',  ( 1.000000000000000000, 0.000000000000000000, -0.000000000000000000 ) ) ;
#316 = CARTESIAN_POINT ( 'NONE',  ( 0.000000000000000000, 0.000000000000000000, 3.000000000000000000 ) ) ;
#317 = AXIS2_PLACEMENT_3D ( 'NONE', #107, #365, #77 ) ;
#318 = TOROIDAL_SURFACE ( 'NONE', #366, 2.799999999999999822, 0.2999999999999999889 ) ;
#319 = VERTEX_POINT ( 'NONE', #125 ) ;
#320 = FACE_BOUND ( 'NONE', #128, .T. ) ;
#321 = DESIGN_CONTEXT ( 'detailed design', #65, 'design' ) ;
#322 = ORIENTED_EDGE ( 'NONE', *, *, #357, .F. ) ;
#323 = EDGE_LOOP ( 'NONE', ( #150, #221, #70, #380 ) ) ;
#324 = APPROVAL_PERSON_ORGANIZATION ( #10, #135, #194 ) ;
#325 = ORIENTED_EDGE ( 'NONE', *, *, #336, .T. ) ;
#326 = PERSON_AND_ORGANIZATION_ROLE ( 'design_owner' ) ;
#327 = ORIENTED_EDGE ( 'NONE', *, *, #159, .T. ) ;
#328 = PERSON_AND_ORGANIZATION_ROLE ( 'creator' ) ;
#329 = CARTESIAN_POINT ( 'NONE',  ( 0.000000000000000000, 0.000000000000000000, 303.0000000000000000 ) ) ;
#330 = AXIS2_PLACEMENT_3D ( 'NONE', #180, #28, #149 ) ;
#331 = EDGE_CURVE ( 'NONE', #245, #301, #218, .T. ) ;
#332 = CARTESIAN_POINT ( 'NONE',  ( 0.000000000000000000, 0.000000000000000000, 303.0000000000000000 ) ) ;
#333 = AXIS2_PLACEMENT_3D ( 'NONE', #184, #348, #64 ) ;
#334 = DATE_TIME_ROLE ( 'creation_date' ) ;
#335 = DIRECTION ( 'NONE',  ( 0.000000000000000000, 0.000000000000000000, -1.000000000000000000 ) ) ;
#336 = EDGE_CURVE ( 'NONE', #319, #290, #264, .T. ) ;
#337 = CIRCLE ( 'NONE', #317, 5.000000000000000000 ) ;
#338 = ORIENTED_EDGE ( 'NONE', *, *, #105, .F. ) ;
#339 = PERSON_AND_ORGANIZATION ( #234, #102 ) ;
#340 = APPROVAL_STATUS ( 'not_yet_approved' ) ;
#341 = DIRECTION ( 'NONE',  ( -1.000000000000000000, 1.224646799147353207E-16, 0.000000000000000000 ) ) ;
#342 = AXIS2_PLACEMENT_3D ( 'NONE', #161, #72, #304 ) ;
#343 = EDGE_CURVE ( 'NONE', #219, #290, #207, .T. ) ;
#344 = DATE_AND_TIME ( #170, #136 ) ;
#345 = DIRECTION ( 'NONE',  ( -1.000000000000000000, 0.000000000000000000, 0.000000000000000000 ) ) ;
#346 = DIRECTION ( 'NONE',  ( -0.000000000000000000, -0.000000000000000000, -1.000000000000000000 ) ) ;
#347 = CYLINDRICAL_SURFACE ( 'NONE', #172, 2.500000000000000000 ) ;
#348 = DIRECTION ( 'NONE',  ( 0.000000000000000000, 0.000000000000000000, 1.000000000000000000 ) ) ;
#349 = DIRECTION ( 'NONE',  ( -1.000000000000000000, 0.000000000000000000, 0.000000000000000000 ) ) ;
#350 = VERTEX_POINT ( 'NONE', #272 ) ;
#351 =( LENGTH_UNIT ( ) NAMED_UNIT ( * ) SI_UNIT ( .MILLI., .METRE. ) );
#352 = ORIENTED_EDGE ( 'NONE', *, *, #167, .F. ) ;
#353 = CARTESIAN_POINT ( 'NONE',  ( 0.000000000000000000, 0.000000000000000000, 303.0000000000000000 ) ) ;
#354 = ADVANCED_FACE ( 'NONE', ( #119 ), #318, .F. ) ;
#355 = CLOSED_SHELL ( 'NONE', ( #104, #286, #252, #363, #236, #298, #123, #243, #32, #354, #280 ) ) ;
#356 = ORIENTED_EDGE ( 'NONE', *, *, #306, .F. ) ;
#357 = EDGE_CURVE ( 'NONE', #350, #301, #232, .T. ) ;
#358 = AXIS2_PLACEMENT_3D ( 'NONE', #82, #376, #80 ) ;
#359 = CIRCLE ( 'NONE', #214, 0.2999999999999999334 ) ;
#360 = VERTEX_POINT ( 'NONE', #145 ) ;
#361 = PERSON_AND_ORGANIZATION ( #234, #102 ) ;
#362 = ORIENTED_EDGE ( 'NONE', *, *, #357, .T. ) ;
#363 = ADVANCED_FACE ( 'NONE', ( #2 ), #68, .T. ) ;
#364 = MECHANICAL_CONTEXT ( 'NONE', #174, 'mechanical' ) ;
#365 = DIRECTION ( 'NONE',  ( 0.000000000000000000, 0.000000000000000000, 1.000000000000000000 ) ) ;
#366 = AXIS2_PLACEMENT_3D ( 'NONE', #185, #27, #58 ) ;
#367 = CALENDAR_DATE ( 2022, 8, 7 ) ;
#368 = DIRECTION ( 'NONE',  ( 1.000000000000000000, 0.000000000000000000, 0.000000000000000000 ) ) ;
#369 = FACE_OUTER_BOUND ( 'NONE', #62, .T. ) ;
#370 = PERSON_AND_ORGANIZATION ( #234, #102 ) ;
#371 = AXIS2_PLACEMENT_3D ( 'NONE', #84, #111, #202 ) ;
#372 = DIRECTION ( 'NONE',  ( 0.000000000000000000, 0.000000000000000000, 1.000000000000000000 ) ) ;
#373 = SHAPE_DEFINITION_REPRESENTATION ( #230, #283 ) ;
#374 = FACE_OUTER_BOUND ( 'NONE', #152, .T. ) ;
#375 = PERSON_AND_ORGANIZATION_ROLE ( 'classification_officer' ) ;
#376 = DIRECTION ( 'NONE',  ( 0.000000000000000000, 0.000000000000000000, 1.000000000000000000 ) ) ;
#377 = DIRECTION ( 'NONE',  ( 0.000000000000000000, 0.000000000000000000, 1.000000000000000000 ) ) ;
#378 = APPROVAL ( #54, 'NEURÈENÝ' ) ;
#379 = DIRECTION ( 'NONE',  ( 0.000000000000000000, 0.000000000000000000, 1.000000000000000000 ) ) ;
#380 = ORIENTED_EDGE ( 'NONE', *, *, #43, .F. ) ;
#381 = DIRECTION ( 'NONE',  ( 1.000000000000000000, 0.000000000000000000, -0.000000000000000000 ) ) ;
ENDSEC;
END-ISO-10303-21;
