ISO-10303-21;
HEADER;
FILE_DESCRIPTION (( 'STEP AP203' ),
    '1' );
FILE_NAME ('1f50.STEP',
    '2022-07-08T15:53:10',
    ( '' ),
    ( '' ),
    'SwSTEP 2.0',
    'SolidWorks 2019',
    '' );
FILE_SCHEMA (( 'CONFIG_CONTROL_DESIGN' ));
ENDSEC;

DATA;
#1 = EDGE_CURVE ( 'NONE', #373, #318, #205, .T. ) ;
#2 = CARTESIAN_POINT ( 'NONE',  ( 2.500000000000000000, 3.061616997868383141E-16, 153.0000000000000000 ) ) ;
#3 = VERTEX_POINT ( 'NONE', #262 ) ;
#4 = UNCERTAINTY_MEASURE_WITH_UNIT (LENGTH_MEASURE( 1.000000000000000082E-05 ), #152, 'distance_accuracy_value', 'NONE');
#5 = ADVANCED_FACE ( 'NONE', ( #331, #9 ), #31, .T. ) ;
#6 = CALENDAR_DATE ( 2022, 8, 7 ) ;
#7 = CIRCLE ( 'NONE', #137, 1.000000000000000000 ) ;
#8 = APPROVAL_PERSON_ORGANIZATION ( #133, #188, #47 ) ;
#9 = FACE_OUTER_BOUND ( 'NONE', #186, .T. ) ;
#10 = DATE_TIME_ROLE ( 'classification_date' ) ;
#11 = FACE_OUTER_BOUND ( 'NONE', #178, .T. ) ;
#12 = CIRCLE ( 'NONE', #32, 2.500000000000000000 ) ;
#13 = DIRECTION ( 'NONE',  ( -1.000000000000000000, 0.000000000000000000, 0.000000000000000000 ) ) ;
#14 = LOCAL_TIME ( 17, 53, 10.00000000000000000, #174 ) ;
#15 = ORIENTED_EDGE ( 'NONE', *, *, #64, .T. ) ;
#16 = FACE_OUTER_BOUND ( 'NONE', #56, .T. ) ;
#17 = EDGE_CURVE ( 'NONE', #198, #311, #12, .T. ) ;
#18 = ORIENTED_EDGE ( 'NONE', *, *, #241, .T. ) ;
#19 = CARTESIAN_POINT ( 'NONE',  ( 0.000000000000000000, 0.000000000000000000, 0.000000000000000000 ) ) ;
#20 = PERSON_AND_ORGANIZATION_ROLE ( 'design_owner' ) ;
#21 = DIRECTION ( 'NONE',  ( 0.000000000000000000, 0.000000000000000000, -1.000000000000000000 ) ) ;
#22 = ADVANCED_FACE ( 'NONE', ( #86 ), #171, .F. ) ;
#23 = DATE_AND_TIME ( #345, #117 ) ;
#24 = CIRCLE ( 'NONE', #235, 1.000000000000000000 ) ;
#25 = CARTESIAN_POINT ( 'NONE',  ( -2.799999999999999822, 3.429011037612589276E-16, 2.999999999999998668 ) ) ;
#26 = ORIENTED_EDGE ( 'NONE', *, *, #243, .F. ) ;
#27 = VECTOR ( 'NONE', #140, 1000.000000000000000 ) ;
#28 = APPLICATION_PROTOCOL_DEFINITION ( 'international standard', 'config_control_design', 1994, #203 ) ;
#29 = CARTESIAN_POINT ( 'NONE',  ( -2.500000000000000000, 0.000000000000000000, 3.299999999999997158 ) ) ;
#30 = APPROVAL_STATUS ( 'not_yet_approved' ) ;
#31 = PLANE ( 'NONE',  #264 ) ;
#32 = AXIS2_PLACEMENT_3D ( 'NONE', #351, #233, #353 ) ;
#33 = CYLINDRICAL_SURFACE ( 'NONE', #197, 2.500000000000000000 ) ;
#34 = CALENDAR_DATE ( 2022, 8, 7 ) ;
#35 = CARTESIAN_POINT ( 'NONE',  ( 0.000000000000000000, 0.000000000000000000, 153.0000000000000000 ) ) ;
#36 = FACE_OUTER_BOUND ( 'NONE', #206, .T. ) ;
#37 = DIRECTION ( 'NONE',  ( 0.000000000000000000, 0.000000000000000000, 1.000000000000000000 ) ) ;
#38 = CIRCLE ( 'NONE', #220, 2.799999999999999822 ) ;
#39 = ORIENTED_EDGE ( 'NONE', *, *, #85, .F. ) ;
#40 = EDGE_LOOP ( 'NONE', ( #155, #167, #350, #272 ) ) ;
#41 = DIRECTION ( 'NONE',  ( 0.000000000000000000, -1.000000000000000000, 0.000000000000000000 ) ) ;
#42 = DIRECTION ( 'NONE',  ( 0.000000000000000000, 0.000000000000000000, 1.000000000000000000 ) ) ;
#43 = DIRECTION ( 'NONE',  ( 0.000000000000000000, 0.000000000000000000, 1.000000000000000000 ) ) ;
#44 = PRODUCT_DEFINITION_SHAPE ( 'NONE', 'NONE',  #165 ) ;
#45 = ORGANIZATION ( 'NEURÈENÝ', 'NEURÈENÝ', '' ) ;
#46 = CARTESIAN_POINT ( 'NONE',  ( -2.799999999999999822, 3.429011037612588783E-16, 3.299999999999997158 ) ) ;
#47 = APPROVAL_ROLE ( '' ) ;
#48 = DIRECTION ( 'NONE',  ( 1.000000000000000000, 0.000000000000000000, 0.000000000000000000 ) ) ;
#49 = APPROVAL ( #30, 'NEURÈENÝ' ) ;
#50 = DIRECTION ( 'NONE',  ( 0.000000000000000000, 0.000000000000000000, 1.000000000000000000 ) ) ;
#51 = DIRECTION ( 'NONE',  ( 1.000000000000000000, 0.000000000000000000, -0.000000000000000000 ) ) ;
#52 = DIRECTION ( 'NONE',  ( 1.000000000000000000, 0.000000000000000000, 0.000000000000000000 ) ) ;
#53 = CARTESIAN_POINT ( 'NONE',  ( 2.500000000000000000, 3.061616997868383141E-16, 3.299999999999997158 ) ) ;
#54 = VERTEX_POINT ( 'NONE', #303 ) ;
#55 = EDGE_CURVE ( 'NONE', #146, #373, #357, .T. ) ;
#56 = EDGE_LOOP ( 'NONE', ( #270, #169, #275, #136 ) ) ;
#57 = EDGE_CURVE ( 'NONE', #54, #308, #217, .T. ) ;
#58 = AXIS2_PLACEMENT_3D ( 'NONE', #151, #42, #310 ) ;
#59 = ORIENTED_EDGE ( 'NONE', *, *, #304, .T. ) ;
#60 = COORDINATED_UNIVERSAL_TIME_OFFSET ( 1, 0, .AHEAD. ) ;
#61 = DIRECTION ( 'NONE',  ( 0.000000000000000000, 0.000000000000000000, 1.000000000000000000 ) ) ;
#62 = AXIS2_PLACEMENT_3D ( 'NONE', #168, #102, #286 ) ;
#63 = LOCAL_TIME ( 17, 53, 10.00000000000000000, #103 ) ;
#64 = EDGE_CURVE ( 'NONE', #121, #81, #271, .T. ) ;
#65 = ORIENTED_EDGE ( 'NONE', *, *, #185, .F. ) ;
#66 = CARTESIAN_POINT ( 'NONE',  ( -1.000000000000000000, 0.000000000000000000, 0.000000000000000000 ) ) ;
#67 = ORIENTED_EDGE ( 'NONE', *, *, #293, .T. ) ;
#68 = DIRECTION ( 'NONE',  ( 0.000000000000000000, 0.000000000000000000, 1.000000000000000000 ) ) ;
#69 = DIRECTION ( 'NONE',  ( 1.000000000000000000, 0.000000000000000000, 0.000000000000000000 ) ) ;
#70 = FACE_OUTER_BOUND ( 'NONE', #40, .T. ) ;
#71 = DIRECTION ( 'NONE',  ( 1.000000000000000000, 0.000000000000000000, 0.000000000000000000 ) ) ;
#72 = CYLINDRICAL_SURFACE ( 'NONE', #157, 1.000000000000000000 ) ;
#73 = SECURITY_CLASSIFICATION_LEVEL ( 'unclassified' ) ;
#74 = CALENDAR_DATE ( 2022, 8, 7 ) ;
#75 = PRODUCT ( '1f50', '1f50', '', ( #374 ) ) ;
#76 = DIRECTION ( 'NONE',  ( -0.000000000000000000, -0.000000000000000000, -1.000000000000000000 ) ) ;
#77 = ORIENTED_EDGE ( 'NONE', *, *, #274, .T. ) ;
#78 = VECTOR ( 'NONE', #122, 1000.000000000000000 ) ;
#79 = ADVANCED_FACE ( 'NONE', ( #306 ), #100, .F. ) ;
#80 = DIRECTION ( 'NONE',  ( 0.000000000000000000, 0.000000000000000000, 1.000000000000000000 ) ) ;
#81 = VERTEX_POINT ( 'NONE', #221 ) ;
#82 = ORIENTED_EDGE ( 'NONE', *, *, #274, .F. ) ;
#83 = PERSON_AND_ORGANIZATION ( #112, #45 ) ;
#84 = DIRECTION ( 'NONE',  ( 0.000000000000000000, 0.000000000000000000, 1.000000000000000000 ) ) ;
#85 = EDGE_CURVE ( 'NONE', #308, #307, #193, .T. ) ;
#86 = FACE_OUTER_BOUND ( 'NONE', #230, .T. ) ;
#87 = DESIGN_CONTEXT ( 'detailed design', #296, 'design' ) ;
#88 = CC_DESIGN_PERSON_AND_ORGANIZATION_ASSIGNMENT ( #110, #330, ( #339 ) ) ;
#89 = DIRECTION ( 'NONE',  ( -0.000000000000000000, -0.000000000000000000, -1.000000000000000000 ) ) ;
#90 = EDGE_CURVE ( 'NONE', #54, #380, #375, .T. ) ;
#91 = ORIENTED_EDGE ( 'NONE', *, *, #313, .T. ) ;
#92 = DIRECTION ( 'NONE',  ( -0.000000000000000000, -0.000000000000000000, -1.000000000000000000 ) ) ;
#93 = CC_DESIGN_DATE_AND_TIME_ASSIGNMENT ( #352, #10, ( #339 ) ) ;
#94 = DIRECTION ( 'NONE',  ( 0.000000000000000000, 0.000000000000000000, -1.000000000000000000 ) ) ;
#95 = DIRECTION ( 'NONE',  ( -0.000000000000000000, -0.000000000000000000, -1.000000000000000000 ) ) ;
#96 = ORIENTED_EDGE ( 'NONE', *, *, #64, .F. ) ;
#97 = AXIS2_PLACEMENT_3D ( 'NONE', #187, #361, #224 ) ;
#98 = CYLINDRICAL_SURFACE ( 'NONE', #97, 5.000000000000000000 ) ;
#99 = DIRECTION ( 'NONE',  ( 0.000000000000000000, 0.000000000000000000, 1.000000000000000000 ) ) ;
#100 = TOROIDAL_SURFACE ( 'NONE', #154, 2.799999999999999822, 0.2999999999999999889 ) ;
#101 = PERSON_AND_ORGANIZATION ( #112, #45 ) ;
#102 = DIRECTION ( 'NONE',  ( 0.000000000000000000, 0.000000000000000000, 1.000000000000000000 ) ) ;
#103 = COORDINATED_UNIVERSAL_TIME_OFFSET ( 1, 0, .AHEAD. ) ;
#104 = EDGE_LOOP ( 'NONE', ( #301, #15 ) ) ;
#105 = COORDINATED_UNIVERSAL_TIME_OFFSET ( 1, 0, .AHEAD. ) ;
#106 = AXIS2_PLACEMENT_3D ( 'NONE', #358, #95, #69 ) ;
#107 = EDGE_LOOP ( 'NONE', ( #82, #344 ) ) ;
#108 = AXIS2_PLACEMENT_3D ( 'NONE', #302, #41, #94 ) ;
#109 = APPROVAL_STATUS ( 'not_yet_approved' ) ;
#110 = PERSON_AND_ORGANIZATION ( #112, #45 ) ;
#111 = EDGE_CURVE ( 'NONE', #164, #190, #212, .T. ) ;
#112 = PERSON ( 'NEURÈENÝ', 'NEURÈENÝ', 'NEURÈENÝ', ('NEURÈENÝ'), ('NEURÈENÝ'), ('NEURÈENÝ') ) ;
#113 = CARTESIAN_POINT ( 'NONE',  ( 5.000000000000000000, 6.123233995736766282E-16, 3.000000000000000000 ) ) ;
#114 = SHAPE_DEFINITION_REPRESENTATION ( #44, #267 ) ;
#115 = DIRECTION ( 'NONE',  ( 1.000000000000000000, 0.000000000000000000, 0.000000000000000000 ) ) ;
#116 = CC_DESIGN_PERSON_AND_ORGANIZATION_ASSIGNMENT ( #202, #128, ( #343 ) ) ;
#117 = LOCAL_TIME ( 17, 53, 10.00000000000000000, #254 ) ;
#118 = CARTESIAN_POINT ( 'NONE',  ( 1.000000000000000000, 1.224646799147353207E-16, 0.000000000000000000 ) ) ;
#119 = ADVANCED_FACE ( 'NONE', ( #200, #316 ), #319, .T. ) ;
#120 =( NAMED_UNIT ( * ) PLANE_ANGLE_UNIT ( ) SI_UNIT ( $, .RADIAN. ) );
#121 = VERTEX_POINT ( 'NONE', #25 ) ;
#122 = DIRECTION ( 'NONE',  ( -0.000000000000000000, -0.000000000000000000, -1.000000000000000000 ) ) ;
#123 = CIRCLE ( 'NONE', #176, 0.2999999999999999334 ) ;
#124 = CC_DESIGN_APPROVAL ( #188, ( #165 ) ) ;
#125 = DIRECTION ( 'NONE',  ( -0.000000000000000000, -0.000000000000000000, -1.000000000000000000 ) ) ;
#126 = ORIENTED_EDGE ( 'NONE', *, *, #55, .T. ) ;
#127 = EDGE_CURVE ( 'NONE', #311, #190, #279, .T. ) ;
#128 = PERSON_AND_ORGANIZATION_ROLE ( 'design_supplier' ) ;
#129 = AXIS2_PLACEMENT_3D ( 'NONE', #309, #43, #71 ) ;
#130 = ORIENTED_EDGE ( 'NONE', *, *, #185, .T. ) ;
#131 = DIRECTION ( 'NONE',  ( -0.000000000000000000, -0.000000000000000000, -1.000000000000000000 ) ) ;
#132 =( NAMED_UNIT ( * ) SI_UNIT ( $, .STERADIAN. ) SOLID_ANGLE_UNIT ( ) );
#133 = PERSON_AND_ORGANIZATION ( #112, #45 ) ;
#134 = FACE_OUTER_BOUND ( 'NONE', #215, .T. ) ;
#135 = ORIENTED_EDGE ( 'NONE', *, *, #222, .T. ) ;
#136 = ORIENTED_EDGE ( 'NONE', *, *, #372, .T. ) ;
#137 = AXIS2_PLACEMENT_3D ( 'NONE', #19, #125, #246 ) ;
#138 = CARTESIAN_POINT ( 'NONE',  ( -2.500000000000000000, 0.000000000000000000, 153.0000000000000000 ) ) ;
#139 = ORIENTED_EDGE ( 'NONE', *, *, #177, .F. ) ;
#140 = DIRECTION ( 'NONE',  ( -0.000000000000000000, -0.000000000000000000, -1.000000000000000000 ) ) ;
#141 = CARTESIAN_POINT ( 'NONE',  ( 0.000000000000000000, 0.000000000000000000, 0.000000000000000000 ) ) ;
#142 = CARTESIAN_POINT ( 'NONE',  ( 0.000000000000000000, 0.000000000000000000, 153.0000000000000000 ) ) ;
#143 = APPROVAL_DATE_TIME ( #207, #49 ) ;
#144 = AXIS2_PLACEMENT_3D ( 'NONE', #141, #211, #175 ) ;
#145 = EDGE_CURVE ( 'NONE', #81, #121, #38, .T. ) ;
#146 = VERTEX_POINT ( 'NONE', #228 ) ;
#147 = CARTESIAN_POINT ( 'NONE',  ( 2.500000000000000000, 3.061616997868383141E-16, 153.0000000000000000 ) ) ;
#148 = VECTOR ( 'NONE', #349, 1000.000000000000000 ) ;
#149 = DIRECTION ( 'NONE',  ( 1.000000000000000000, 0.000000000000000000, 0.000000000000000000 ) ) ;
#150 = TOROIDAL_SURFACE ( 'NONE', #129, 2.799999999999999822, 0.2999999999999999889 ) ;
#151 = CARTESIAN_POINT ( 'NONE',  ( 0.000000000000000000, 0.000000000000000000, 153.0000000000000000 ) ) ;
#152 =( LENGTH_UNIT ( ) NAMED_UNIT ( * ) SI_UNIT ( .MILLI., .METRE. ) );
#153 = DIRECTION ( 'NONE',  ( 1.000000000000000000, 0.000000000000000000, 0.000000000000000000 ) ) ;
#154 = AXIS2_PLACEMENT_3D ( 'NONE', #253, #50, #191 ) ;
#155 = ORIENTED_EDGE ( 'NONE', *, *, #222, .F. ) ;
#156 = DIRECTION ( 'NONE',  ( 1.000000000000000000, 0.000000000000000000, 0.000000000000000000 ) ) ;
#157 = AXIS2_PLACEMENT_3D ( 'NONE', #216, #219, #312 ) ;
#158 = CC_DESIGN_SECURITY_CLASSIFICATION ( #339, ( #343 ) ) ;
#159 = ORIENTED_EDGE ( 'NONE', *, *, #177, .T. ) ;
#160 = PERSON_AND_ORGANIZATION_ROLE ( 'creator' ) ;
#161 = APPLICATION_PROTOCOL_DEFINITION ( 'international standard', 'config_control_design', 1994, #296 ) ;
#162 = MANIFOLD_SOLID_BREP ( 'Odebrat vysunutím3', #346 ) ;
#163 = AXIS2_PLACEMENT_3D ( 'NONE', #378, #226, #173 ) ;
#164 = VERTEX_POINT ( 'NONE', #53 ) ;
#165 = PRODUCT_DEFINITION ( 'NEZNÁMÝ', '', #343, #87 ) ;
#166 = DIRECTION ( 'NONE',  ( 0.000000000000000000, 0.000000000000000000, 1.000000000000000000 ) ) ;
#167 = ORIENTED_EDGE ( 'NONE', *, *, #341, .T. ) ;
#168 = CARTESIAN_POINT ( 'NONE',  ( 0.000000000000000000, 0.000000000000000000, 0.000000000000000000 ) ) ;
#169 = ORIENTED_EDGE ( 'NONE', *, *, #57, .T. ) ;
#170 = AXIS2_PLACEMENT_3D ( 'NONE', #261, #326, #115 ) ;
#171 = CYLINDRICAL_SURFACE ( 'NONE', #184, 1.000000000000000000 ) ;
#172 = CC_DESIGN_PERSON_AND_ORGANIZATION_ASSIGNMENT ( #83, #160, ( #343 ) ) ;
#173 = DIRECTION ( 'NONE',  ( -1.000000000000000000, 0.000000000000000000, 0.000000000000000000 ) ) ;
#174 = COORDINATED_UNIVERSAL_TIME_OFFSET ( 1, 0, .AHEAD. ) ;
#175 = DIRECTION ( 'NONE',  ( 1.000000000000000000, 0.000000000000000000, -0.000000000000000000 ) ) ;
#176 = AXIS2_PLACEMENT_3D ( 'NONE', #46, #273, #334 ) ;
#177 = EDGE_CURVE ( 'NONE', #373, #146, #180, .T. ) ;
#178 = EDGE_LOOP ( 'NONE', ( #325, #182, #295, #194 ) ) ;
#179 = DIRECTION ( 'NONE',  ( 1.000000000000000000, 0.000000000000000000, 0.000000000000000000 ) ) ;
#180 = CIRCLE ( 'NONE', #342, 5.000000000000000000 ) ;
#181 = APPROVAL_PERSON_ORGANIZATION ( #282, #213, #247 ) ;
#182 = ORIENTED_EDGE ( 'NONE', *, *, #243, .T. ) ;
#183 = LINE ( 'NONE', #340, #78 ) ;
#184 = AXIS2_PLACEMENT_3D ( 'NONE', #329, #21, #362 ) ;
#185 = EDGE_CURVE ( 'NONE', #318, #3, #337, .T. ) ;
#186 = EDGE_LOOP ( 'NONE', ( #18, #287 ) ) ;
#187 = CARTESIAN_POINT ( 'NONE',  ( 0.000000000000000000, 0.000000000000000000, 3.000000000000000000 ) ) ;
#188 = APPROVAL ( #280, 'NEURÈENÝ' ) ;
#189 = AXIS2_PLACEMENT_3D ( 'NONE', #209, #61, #297 ) ;
#190 = VERTEX_POINT ( 'NONE', #29 ) ;
#191 = DIRECTION ( 'NONE',  ( 1.000000000000000000, 0.000000000000000000, 0.000000000000000000 ) ) ;
#192 = ADVANCED_FACE ( 'NONE', ( #134 ), #255, .T. ) ;
#193 = LINE ( 'NONE', #232, #148 ) ;
#194 = ORIENTED_EDGE ( 'NONE', *, *, #127, .F. ) ;
#195 = APPROVAL_DATE_TIME ( #23, #188 ) ;
#196 = CARTESIAN_POINT ( 'NONE',  ( 0.000000000000000000, 0.000000000000000000, 3.000000000000000000 ) ) ;
#197 = AXIS2_PLACEMENT_3D ( 'NONE', #35, #89, #332 ) ;
#198 = VERTEX_POINT ( 'NONE', #147 ) ;
#199 = CARTESIAN_POINT ( 'NONE',  ( 0.000000000000000000, 0.000000000000000000, 0.000000000000000000 ) ) ;
#200 = FACE_BOUND ( 'NONE', #104, .T. ) ;
#201 = EDGE_LOOP ( 'NONE', ( #239, #245, #258, #91 ) ) ;
#202 = PERSON_AND_ORGANIZATION ( #112, #45 ) ;
#203 = APPLICATION_CONTEXT ( 'configuration controlled 3d designs of mechanical parts and assemblies' ) ;
#204 = CARTESIAN_POINT ( 'NONE',  ( 0.000000000000000000, 0.000000000000000000, 3.000000000000000000 ) ) ;
#205 = LINE ( 'NONE', #113, #27 ) ;
#206 = EDGE_LOOP ( 'NONE', ( #26, #251, #360, #135 ) ) ;
#207 = DATE_AND_TIME ( #34, #14 ) ;
#208 = AXIS2_PLACEMENT_3D ( 'NONE', #199, #323, #52 ) ;
#209 = CARTESIAN_POINT ( 'NONE',  ( 0.000000000000000000, 0.000000000000000000, 3.299999999999997158 ) ) ;
#210 = ADVANCED_FACE ( 'NONE', ( #11 ), #33, .T. ) ;
#211 = DIRECTION ( 'NONE',  ( 0.000000000000000000, 0.000000000000000000, 1.000000000000000000 ) ) ;
#212 = CIRCLE ( 'NONE', #252, 2.500000000000000000 ) ;
#213 = APPROVAL ( #109, 'NEURÈENÝ' ) ;
#214 = AXIS2_PLACEMENT_3D ( 'NONE', #266, #244, #13 ) ;
#215 = EDGE_LOOP ( 'NONE', ( #139, #367, #130, #288 ) ) ;
#216 = CARTESIAN_POINT ( 'NONE',  ( 0.000000000000000000, 0.000000000000000000, 153.0000000000000000 ) ) ;
#217 = CIRCLE ( 'NONE', #58, 1.000000000000000000 ) ;
#218 = ORIENTED_EDGE ( 'NONE', *, *, #293, .F. ) ;
#219 = DIRECTION ( 'NONE',  ( 0.000000000000000000, 0.000000000000000000, -1.000000000000000000 ) ) ;
#220 = AXIS2_PLACEMENT_3D ( 'NONE', #324, #131, #250 ) ;
#221 = CARTESIAN_POINT ( 'NONE',  ( 2.799999999999999822, 0.000000000000000000, 2.999999999999998668 ) ) ;
#222 = EDGE_CURVE ( 'NONE', #190, #164, #291, .T. ) ;
#223 = CARTESIAN_POINT ( 'NONE',  ( 0.000000000000000000, 0.000000000000000000, 0.000000000000000000 ) ) ;
#224 = DIRECTION ( 'NONE',  ( -1.000000000000000000, 0.000000000000000000, 0.000000000000000000 ) ) ;
#225 = EDGE_LOOP ( 'NONE', ( #314, #65 ) ) ;
#226 = DIRECTION ( 'NONE',  ( -0.000000000000000000, -0.000000000000000000, -1.000000000000000000 ) ) ;
#227 = CC_DESIGN_APPROVAL ( #49, ( #339 ) ) ;
#228 = CARTESIAN_POINT ( 'NONE',  ( -5.000000000000000000, 0.000000000000000000, 3.000000000000000000 ) ) ;
#229 = AXIS2_PLACEMENT_3D ( 'NONE', #196, #84, #51 ) ;
#230 = EDGE_LOOP ( 'NONE', ( #77, #284, #67, #39 ) ) ;
#231 = DATE_AND_TIME ( #74, #281 ) ;
#232 = CARTESIAN_POINT ( 'NONE',  ( -1.000000000000000000, 0.000000000000000000, 153.0000000000000000 ) ) ;
#233 = DIRECTION ( 'NONE',  ( 0.000000000000000000, 0.000000000000000000, 1.000000000000000000 ) ) ;
#234 = ORIENTED_EDGE ( 'NONE', *, *, #111, .F. ) ;
#235 = AXIS2_PLACEMENT_3D ( 'NONE', #276, #68, #156 ) ;
#236 = DIRECTION ( 'NONE',  ( 0.000000000000000000, 0.000000000000000000, 1.000000000000000000 ) ) ;
#237 = ORIENTED_EDGE ( 'NONE', *, *, #341, .F. ) ;
#238 = DIRECTION ( 'NONE',  ( -0.000000000000000000, -0.000000000000000000, -1.000000000000000000 ) ) ;
#239 = ORIENTED_EDGE ( 'NONE', *, *, #1, .F. ) ;
#240 = CARTESIAN_POINT ( 'NONE',  ( -1.000000000000000000, 0.000000000000000000, 153.0000000000000000 ) ) ;
#241 = EDGE_CURVE ( 'NONE', #311, #198, #298, .T. ) ;
#242 = EDGE_LOOP ( 'NONE', ( #370, #218 ) ) ;
#243 = EDGE_CURVE ( 'NONE', #198, #164, #263, .T. ) ;
#244 = DIRECTION ( 'NONE',  ( -0.000000000000000000, -0.000000000000000000, -1.000000000000000000 ) ) ;
#245 = ORIENTED_EDGE ( 'NONE', *, *, #55, .F. ) ;
#246 = DIRECTION ( 'NONE',  ( 1.000000000000000000, 0.000000000000000000, 0.000000000000000000 ) ) ;
#247 = APPROVAL_ROLE ( '' ) ;
#248 = ADVANCED_FACE ( 'NONE', ( #354, #260 ), #294, .F. ) ;
#249 = PERSON_AND_ORGANIZATION_ROLE ( 'creator' ) ;
#250 = DIRECTION ( 'NONE',  ( 1.000000000000000000, 0.000000000000000000, 0.000000000000000000 ) ) ;
#251 = ORIENTED_EDGE ( 'NONE', *, *, #241, .F. ) ;
#252 = AXIS2_PLACEMENT_3D ( 'NONE', #290, #80, #48 ) ;
#253 = CARTESIAN_POINT ( 'NONE',  ( 0.000000000000000000, 0.000000000000000000, 3.299999999999997158 ) ) ;
#254 = COORDINATED_UNIVERSAL_TIME_OFFSET ( 1, 0, .AHEAD. ) ;
#255 = CYLINDRICAL_SURFACE ( 'NONE', #163, 5.000000000000000000 ) ;
#256 = EDGE_LOOP ( 'NONE', ( #126, #159 ) ) ;
#257 = DIRECTION ( 'NONE',  ( 1.000000000000000000, 0.000000000000000000, 0.000000000000000000 ) ) ;
#258 = ORIENTED_EDGE ( 'NONE', *, *, #321, .T. ) ;
#259 = DIRECTION ( 'NONE',  ( 1.000000000000000000, 0.000000000000000000, -0.000000000000000000 ) ) ;
#260 = FACE_OUTER_BOUND ( 'NONE', #225, .T. ) ;
#261 = CARTESIAN_POINT ( 'NONE',  ( 0.000000000000000000, 0.000000000000000000, 153.0000000000000000 ) ) ;
#262 = CARTESIAN_POINT ( 'NONE',  ( -5.000000000000000000, 0.000000000000000000, 0.000000000000000000 ) ) ;
#263 = LINE ( 'NONE', #2, #327 ) ;
#264 = AXIS2_PLACEMENT_3D ( 'NONE', #142, #236, #259 ) ;
#265 = ADVANCED_FACE ( 'NONE', ( #70 ), #150, .F. ) ;
#266 = CARTESIAN_POINT ( 'NONE',  ( 0.000000000000000000, 0.000000000000000000, 153.0000000000000000 ) ) ;
#267 = ADVANCED_BREP_SHAPE_REPRESENTATION ( '1f50', ( #162, #208 ), #292 ) ;
#268 = CARTESIAN_POINT ( 'NONE',  ( 5.000000000000000000, 6.123233995736766282E-16, 3.000000000000000000 ) ) ;
#269 = LOCAL_TIME ( 17, 53, 10.00000000000000000, #60 ) ;
#270 = ORIENTED_EDGE ( 'NONE', *, *, #90, .F. ) ;
#271 = CIRCLE ( 'NONE', #106, 2.799999999999999822 ) ;
#272 = ORIENTED_EDGE ( 'NONE', *, *, #304, .F. ) ;
#273 = DIRECTION ( 'NONE',  ( 1.224646799147353207E-16, 1.000000000000000000, -0.000000000000000000 ) ) ;
#274 = EDGE_CURVE ( 'NONE', #308, #54, #24, .T. ) ;
#275 = ORIENTED_EDGE ( 'NONE', *, *, #85, .T. ) ;
#276 = CARTESIAN_POINT ( 'NONE',  ( 0.000000000000000000, 0.000000000000000000, 153.0000000000000000 ) ) ;
#277 = PERSON_AND_ORGANIZATION ( #112, #45 ) ;
#278 = ADVANCED_FACE ( 'NONE', ( #338 ), #98, .T. ) ;
#279 = LINE ( 'NONE', #138, #371 ) ;
#280 = APPROVAL_STATUS ( 'not_yet_approved' ) ;
#281 = LOCAL_TIME ( 17, 53, 10.00000000000000000, #105 ) ;
#282 = PERSON_AND_ORGANIZATION ( #112, #45 ) ;
#283 = CARTESIAN_POINT ( 'NONE',  ( 1.000000000000000000, 1.224646799147353207E-16, 153.0000000000000000 ) ) ;
#284 = ORIENTED_EDGE ( 'NONE', *, *, #90, .T. ) ;
#285 = AXIS2_PLACEMENT_3D ( 'NONE', #366, #37, #153 ) ;
#286 = DIRECTION ( 'NONE',  ( 1.000000000000000000, 0.000000000000000000, 0.000000000000000000 ) ) ;
#287 = ORIENTED_EDGE ( 'NONE', *, *, #17, .T. ) ;
#288 = ORIENTED_EDGE ( 'NONE', *, *, #321, .F. ) ;
#289 = APPROVAL_ROLE ( '' ) ;
#290 = CARTESIAN_POINT ( 'NONE',  ( 0.000000000000000000, 0.000000000000000000, 3.299999999999997158 ) ) ;
#291 = CIRCLE ( 'NONE', #189, 2.500000000000000000 ) ;
#292 =( GEOMETRIC_REPRESENTATION_CONTEXT ( 3 ) GLOBAL_UNCERTAINTY_ASSIGNED_CONTEXT ( ( #4 ) ) GLOBAL_UNIT_ASSIGNED_CONTEXT ( ( #152, #120, #132 ) ) REPRESENTATION_CONTEXT ( 'NONE', 'WORKASPACE' ) );
#293 = EDGE_CURVE ( 'NONE', #380, #307, #7, .T. ) ;
#294 = PLANE ( 'NONE',  #144 ) ;
#295 = ORIENTED_EDGE ( 'NONE', *, *, #111, .T. ) ;
#296 = APPLICATION_CONTEXT ( 'configuration controlled 3d designs of mechanical parts and assemblies' ) ;
#297 = DIRECTION ( 'NONE',  ( 1.000000000000000000, 0.000000000000000000, 0.000000000000000000 ) ) ;
#298 = CIRCLE ( 'NONE', #170, 2.500000000000000000 ) ;
#299 = CC_DESIGN_APPROVAL ( #213, ( #343 ) ) ;
#300 = CC_DESIGN_PERSON_AND_ORGANIZATION_ASSIGNMENT ( #101, #249, ( #165 ) ) ;
#301 = ORIENTED_EDGE ( 'NONE', *, *, #145, .T. ) ;
#302 = CARTESIAN_POINT ( 'NONE',  ( 2.799999999999999822, 0.000000000000000000, 3.299999999999997158 ) ) ;
#303 = CARTESIAN_POINT ( 'NONE',  ( 1.000000000000000000, 1.224646799147353207E-16, 153.0000000000000000 ) ) ;
#304 = EDGE_CURVE ( 'NONE', #164, #81, #355, .T. ) ;
#305 = CARTESIAN_POINT ( 'NONE',  ( 5.000000000000000000, 6.123233995736766282E-16, 0.000000000000000000 ) ) ;
#306 = FACE_OUTER_BOUND ( 'NONE', #363, .T. ) ;
#307 = VERTEX_POINT ( 'NONE', #66 ) ;
#308 = VERTEX_POINT ( 'NONE', #240 ) ;
#309 = CARTESIAN_POINT ( 'NONE',  ( 0.000000000000000000, 0.000000000000000000, 3.299999999999997158 ) ) ;
#310 = DIRECTION ( 'NONE',  ( 1.000000000000000000, 0.000000000000000000, 0.000000000000000000 ) ) ;
#311 = VERTEX_POINT ( 'NONE', #336 ) ;
#312 = DIRECTION ( 'NONE',  ( -1.000000000000000000, 0.000000000000000000, 0.000000000000000000 ) ) ;
#313 = EDGE_CURVE ( 'NONE', #3, #318, #322, .T. ) ;
#314 = ORIENTED_EDGE ( 'NONE', *, *, #313, .F. ) ;
#315 = CALENDAR_DATE ( 2022, 8, 7 ) ;
#316 = FACE_OUTER_BOUND ( 'NONE', #256, .T. ) ;
#317 = CC_DESIGN_DATE_AND_TIME_ASSIGNMENT ( #320, #377, ( #165 ) ) ;
#318 = VERTEX_POINT ( 'NONE', #305 ) ;
#319 = PLANE ( 'NONE',  #229 ) ;
#320 = DATE_AND_TIME ( #315, #63 ) ;
#321 = EDGE_CURVE ( 'NONE', #146, #3, #183, .T. ) ;
#322 = CIRCLE ( 'NONE', #364, 5.000000000000000000 ) ;
#323 = DIRECTION ( 'NONE',  ( 0.000000000000000000, 0.000000000000000000, 1.000000000000000000 ) ) ;
#324 = CARTESIAN_POINT ( 'NONE',  ( 0.000000000000000000, 0.000000000000000000, 3.000000000000000000 ) ) ;
#325 = ORIENTED_EDGE ( 'NONE', *, *, #17, .F. ) ;
#326 = DIRECTION ( 'NONE',  ( 0.000000000000000000, 0.000000000000000000, 1.000000000000000000 ) ) ;
#327 = VECTOR ( 'NONE', #238, 1000.000000000000000 ) ;
#328 = AXIS2_PLACEMENT_3D ( 'NONE', #356, #92, #149 ) ;
#329 = CARTESIAN_POINT ( 'NONE',  ( 0.000000000000000000, 0.000000000000000000, 153.0000000000000000 ) ) ;
#330 = PERSON_AND_ORGANIZATION_ROLE ( 'classification_officer' ) ;
#331 = FACE_BOUND ( 'NONE', #107, .T. ) ;
#332 = DIRECTION ( 'NONE',  ( -1.000000000000000000, 0.000000000000000000, 0.000000000000000000 ) ) ;
#333 = CC_DESIGN_PERSON_AND_ORGANIZATION_ASSIGNMENT ( #277, #20, ( #75 ) ) ;
#334 = DIRECTION ( 'NONE',  ( -1.000000000000000000, 1.224646799147353207E-16, 0.000000000000000000 ) ) ;
#335 = ADVANCED_FACE ( 'NONE', ( #16 ), #72, .F. ) ;
#336 = CARTESIAN_POINT ( 'NONE',  ( -2.500000000000000000, 0.000000000000000000, 153.0000000000000000 ) ) ;
#337 = CIRCLE ( 'NONE', #62, 5.000000000000000000 ) ;
#338 = FACE_OUTER_BOUND ( 'NONE', #201, .T. ) ;
#339 = SECURITY_CLASSIFICATION ( '', '', #73 ) ;
#340 = CARTESIAN_POINT ( 'NONE',  ( -5.000000000000000000, 0.000000000000000000, 3.000000000000000000 ) ) ;
#341 = EDGE_CURVE ( 'NONE', #190, #121, #123, .T. ) ;
#342 = AXIS2_PLACEMENT_3D ( 'NONE', #204, #166, #257 ) ;
#343 = PRODUCT_DEFINITION_FORMATION_WITH_SPECIFIED_SOURCE ( 'LIBOVOLNÝ', '', #75, .NOT_KNOWN. ) ;
#344 = ORIENTED_EDGE ( 'NONE', *, *, #57, .F. ) ;
#345 = CALENDAR_DATE ( 2022, 8, 7 ) ;
#346 = CLOSED_SHELL ( 'NONE', ( #22, #265, #210, #192, #278, #119, #248, #369, #5, #79, #335 ) ) ;
#347 = DIRECTION ( 'NONE',  ( 0.000000000000000000, 0.000000000000000000, -1.000000000000000000 ) ) ;
#348 = APPROVAL_PERSON_ORGANIZATION ( #381, #49, #289 ) ;
#349 = DIRECTION ( 'NONE',  ( 0.000000000000000000, 0.000000000000000000, -1.000000000000000000 ) ) ;
#350 = ORIENTED_EDGE ( 'NONE', *, *, #145, .F. ) ;
#351 = CARTESIAN_POINT ( 'NONE',  ( 0.000000000000000000, 0.000000000000000000, 153.0000000000000000 ) ) ;
#352 = DATE_AND_TIME ( #6, #269 ) ;
#353 = DIRECTION ( 'NONE',  ( 1.000000000000000000, 0.000000000000000000, 0.000000000000000000 ) ) ;
#354 = FACE_BOUND ( 'NONE', #242, .T. ) ;
#355 = CIRCLE ( 'NONE', #108, 0.2999999999999999334 ) ;
#356 = CARTESIAN_POINT ( 'NONE',  ( 0.000000000000000000, 0.000000000000000000, 0.000000000000000000 ) ) ;
#357 = CIRCLE ( 'NONE', #285, 5.000000000000000000 ) ;
#358 = CARTESIAN_POINT ( 'NONE',  ( 0.000000000000000000, 0.000000000000000000, 3.000000000000000000 ) ) ;
#359 = PRODUCT_RELATED_PRODUCT_CATEGORY ( 'detail', '', ( #75 ) ) ;
#360 = ORIENTED_EDGE ( 'NONE', *, *, #127, .T. ) ;
#361 = DIRECTION ( 'NONE',  ( -0.000000000000000000, -0.000000000000000000, -1.000000000000000000 ) ) ;
#362 = DIRECTION ( 'NONE',  ( -1.000000000000000000, 0.000000000000000000, 0.000000000000000000 ) ) ;
#363 = EDGE_LOOP ( 'NONE', ( #237, #234, #59, #96 ) ) ;
#364 = AXIS2_PLACEMENT_3D ( 'NONE', #223, #99, #179 ) ;
#365 = CYLINDRICAL_SURFACE ( 'NONE', #214, 2.500000000000000000 ) ;
#366 = CARTESIAN_POINT ( 'NONE',  ( 0.000000000000000000, 0.000000000000000000, 3.000000000000000000 ) ) ;
#367 = ORIENTED_EDGE ( 'NONE', *, *, #1, .T. ) ;
#368 = APPROVAL_DATE_TIME ( #231, #213 ) ;
#369 = ADVANCED_FACE ( 'NONE', ( #36 ), #365, .T. ) ;
#370 = ORIENTED_EDGE ( 'NONE', *, *, #372, .F. ) ;
#371 = VECTOR ( 'NONE', #76, 1000.000000000000000 ) ;
#372 = EDGE_CURVE ( 'NONE', #307, #380, #379, .T. ) ;
#373 = VERTEX_POINT ( 'NONE', #268 ) ;
#374 = MECHANICAL_CONTEXT ( 'NONE', #203, 'mechanical' ) ;
#375 = LINE ( 'NONE', #283, #376 ) ;
#376 = VECTOR ( 'NONE', #347, 1000.000000000000000 ) ;
#377 = DATE_TIME_ROLE ( 'creation_date' ) ;
#378 = CARTESIAN_POINT ( 'NONE',  ( 0.000000000000000000, 0.000000000000000000, 3.000000000000000000 ) ) ;
#379 = CIRCLE ( 'NONE', #328, 1.000000000000000000 ) ;
#380 = VERTEX_POINT ( 'NONE', #118 ) ;
#381 = PERSON_AND_ORGANIZATION ( #112, #45 ) ;
ENDSEC;
END-ISO-10303-21;
