ISO-10303-21;
HEADER;
FILE_DESCRIPTION (( 'STEP AP203' ),
    '1' );
FILE_NAME ('04e0.STEP',
    '2022-07-08T15:12:11',
    ( '' ),
    ( '' ),
    'SwSTEP 2.0',
    'SolidWorks 2019',
    '' );
FILE_SCHEMA (( 'CONFIG_CONTROL_DESIGN' ));
ENDSEC;

DATA;
#1 = CARTESIAN_POINT ( 'NONE',  ( 6.000000000000000888, 7.347880794884120722E-16, 307.0000000000000000 ) ) ;
#2 = ORIENTED_EDGE ( 'NONE', *, *, #67, .T. ) ;
#3 = ADVANCED_FACE ( 'NONE', ( #256, #317 ), #162, .T. ) ;
#4 = AXIS2_PLACEMENT_3D ( 'NONE', #169, #165, #288 ) ;
#5 = DIRECTION ( 'NONE',  ( 1.000000000000000000, 0.000000000000000000, -0.000000000000000000 ) ) ;
#6 = VECTOR ( 'NONE', #32, 1000.000000000000000 ) ;
#7 = ORIENTED_EDGE ( 'NONE', *, *, #11, .T. ) ;
#8 = LOCAL_TIME ( 17, 12, 11.00000000000000000, #248 ) ;
#9 = VERTEX_POINT ( 'NONE', #131 ) ;
#10 = FACE_BOUND ( 'NONE', #309, .T. ) ;
#11 = EDGE_CURVE ( 'NONE', #153, #330, #377, .T. ) ;
#12 = ORIENTED_EDGE ( 'NONE', *, *, #11, .F. ) ;
#13 = DIRECTION ( 'NONE',  ( 0.000000000000000000, 0.000000000000000000, 1.000000000000000000 ) ) ;
#14 = FACE_OUTER_BOUND ( 'NONE', #34, .T. ) ;
#15 = LINE ( 'NONE', #197, #208 ) ;
#16 = DIRECTION ( 'NONE',  ( 1.000000000000000000, 0.000000000000000000, -0.000000000000000000 ) ) ;
#17 = TOROIDAL_SURFACE ( 'NONE', #260, 6.500000000000000888, 0.5000000000000000000 ) ;
#18 = APPROVAL_DATE_TIME ( #106, #287 ) ;
#19 = DIRECTION ( 'NONE',  ( 0.000000000000000000, 0.000000000000000000, 1.000000000000000000 ) ) ;
#20 = DIRECTION ( 'NONE',  ( 1.000000000000000000, 0.000000000000000000, 0.000000000000000000 ) ) ;
#21 = DIRECTION ( 'NONE',  ( 1.000000000000000000, 0.000000000000000000, 0.000000000000000000 ) ) ;
#22 = CC_DESIGN_APPROVAL ( #142, ( #117 ) ) ;
#23 = DIRECTION ( 'NONE',  ( -0.000000000000000000, -0.000000000000000000, -1.000000000000000000 ) ) ;
#24 = DIRECTION ( 'NONE',  ( 0.000000000000000000, -1.000000000000000000, 0.000000000000000000 ) ) ;
#25 = ORGANIZATION ( 'NEURÈENÝ', 'NEURÈENÝ', '' ) ;
#26 = PLANE ( 'NONE',  #214 ) ;
#27 = ORIENTED_EDGE ( 'NONE', *, *, #215, .F. ) ;
#28 = ADVANCED_FACE ( 'NONE', ( #14 ), #159, .T. ) ;
#29 = APPLICATION_PROTOCOL_DEFINITION ( 'international standard', 'config_control_design', 1994, #204 ) ;
#30 = ORIENTED_EDGE ( 'NONE', *, *, #92, .F. ) ;
#31 = VECTOR ( 'NONE', #312, 1000.000000000000000 ) ;
#32 = DIRECTION ( 'NONE',  ( -0.000000000000000000, -0.000000000000000000, -1.000000000000000000 ) ) ;
#33 = CIRCLE ( 'NONE', #231, 0.5000000000000004441 ) ;
#34 = EDGE_LOOP ( 'NONE', ( #12, #72, #152, #30 ) ) ;
#35 = LOCAL_TIME ( 17, 12, 11.00000000000000000, #190 ) ;
#36 = EDGE_CURVE ( 'NONE', #308, #217, #278, .T. ) ;
#37 = DIRECTION ( 'NONE',  ( -0.000000000000000000, -0.000000000000000000, -1.000000000000000000 ) ) ;
#38 = ORIENTED_EDGE ( 'NONE', *, *, #304, .T. ) ;
#39 = APPROVAL_DATE_TIME ( #255, #142 ) ;
#40 = ORIENTED_EDGE ( 'NONE', *, *, #145, .T. ) ;
#41 = AXIS2_PLACEMENT_3D ( 'NONE', #163, #253, #47 ) ;
#42 = DATE_AND_TIME ( #305, #130 ) ;
#43 = VERTEX_POINT ( 'NONE', #109 ) ;
#44 = DIRECTION ( 'NONE',  ( -0.000000000000000000, -0.000000000000000000, -1.000000000000000000 ) ) ;
#45 = EDGE_CURVE ( 'NONE', #330, #153, #173, .T. ) ;
#46 = PERSON_AND_ORGANIZATION ( #319, #25 ) ;
#47 = DIRECTION ( 'NONE',  ( 1.000000000000000000, 0.000000000000000000, 0.000000000000000000 ) ) ;
#48 = FACE_OUTER_BOUND ( 'NONE', #122, .T. ) ;
#49 = VECTOR ( 'NONE', #37, 1000.000000000000000 ) ;
#50 = ADVANCED_FACE ( 'NONE', ( #251 ), #363, .T. ) ;
#51 = CARTESIAN_POINT ( 'NONE',  ( 6.000000000000000888, 7.347880794884120722E-16, 7.500000000000007105 ) ) ;
#52 = DIRECTION ( 'NONE',  ( 0.000000000000000000, 0.000000000000000000, 1.000000000000000000 ) ) ;
#53 = CC_DESIGN_PERSON_AND_ORGANIZATION_ASSIGNMENT ( #46, #283, ( #344 ) ) ;
#54 = CARTESIAN_POINT ( 'NONE',  ( 0.000000000000000000, 0.000000000000000000, 0.000000000000000000 ) ) ;
#55 = DIRECTION ( 'NONE',  ( 1.000000000000000000, 0.000000000000000000, 0.000000000000000000 ) ) ;
#56 = EDGE_CURVE ( 'NONE', #127, #70, #205, .T. ) ;
#57 = CARTESIAN_POINT ( 'NONE',  ( 10.00000000000000000, 1.224646799147353256E-15, 7.000000000000000000 ) ) ;
#58 = DESIGN_CONTEXT ( 'detailed design', #204, 'design' ) ;
#59 = APPROVAL_ROLE ( '' ) ;
#60 = CLOSED_SHELL ( 'NONE', ( #252, #125, #50, #28, #224, #3, #331, #229, #148, #293, #75 ) ) ;
#61 = TOROIDAL_SURFACE ( 'NONE', #272, 6.500000000000000888, 0.5000000000000000000 ) ;
#62 = CARTESIAN_POINT ( 'NONE',  ( -10.00000000000000000, 0.000000000000000000, 7.000000000000000000 ) ) ;
#63 = ORIENTED_EDGE ( 'NONE', *, *, #119, .F. ) ;
#64 = DIRECTION ( 'NONE',  ( 1.000000000000000000, 0.000000000000000000, 0.000000000000000000 ) ) ;
#65 = ORIENTED_EDGE ( 'NONE', *, *, #346, .F. ) ;
#66 = EDGE_LOOP ( 'NONE', ( #199, #274, #38, #185 ) ) ;
#67 = EDGE_CURVE ( 'NONE', #43, #254, #310, .T. ) ;
#68 = CARTESIAN_POINT ( 'NONE',  ( 0.000000000000000000, 0.000000000000000000, 7.500000000000007105 ) ) ;
#69 = AXIS2_PLACEMENT_3D ( 'NONE', #147, #146, #261 ) ;
#70 = VERTEX_POINT ( 'NONE', #135 ) ;
#71 = CALENDAR_DATE ( 2022, 8, 7 ) ;
#72 = ORIENTED_EDGE ( 'NONE', *, *, #119, .T. ) ;
#73 = PERSON_AND_ORGANIZATION_ROLE ( 'creator' ) ;
#74 = ORIENTED_EDGE ( 'NONE', *, *, #137, .F. ) ;
#75 = ADVANCED_FACE ( 'NONE', ( #48 ), #340, .F. ) ;
#76 = CARTESIAN_POINT ( 'NONE',  ( 0.000000000000000000, 0.000000000000000000, 307.0000000000000000 ) ) ;
#77 = CIRCLE ( 'NONE', #139, 10.00000000000000000 ) ;
#78 = PERSON_AND_ORGANIZATION ( #319, #25 ) ;
#79 = DIRECTION ( 'NONE',  ( -1.000000000000000000, 0.000000000000000000, 0.000000000000000000 ) ) ;
#80 = PERSON_AND_ORGANIZATION_ROLE ( 'classification_officer' ) ;
#81 = ORIENTED_EDGE ( 'NONE', *, *, #304, .F. ) ;
#82 = EDGE_CURVE ( 'NONE', #43, #124, #249, .T. ) ;
#83 = CARTESIAN_POINT ( 'NONE',  ( 0.000000000000000000, 0.000000000000000000, 7.000000000000000000 ) ) ;
#84 = LOCAL_TIME ( 17, 12, 11.00000000000000000, #180 ) ;
#85 = CC_DESIGN_SECURITY_CLASSIFICATION ( #117, ( #344 ) ) ;
#86 = DIRECTION ( 'NONE',  ( -1.000000000000000000, 0.000000000000000000, 0.000000000000000000 ) ) ;
#87 = FACE_OUTER_BOUND ( 'NONE', #300, .T. ) ;
#88 = CARTESIAN_POINT ( 'NONE',  ( 0.000000000000000000, 0.000000000000000000, 7.500000000000007105 ) ) ;
#89 = EDGE_CURVE ( 'NONE', #70, #127, #240, .T. ) ;
#90 = AXIS2_PLACEMENT_3D ( 'NONE', #91, #209, #20 ) ;
#91 = CARTESIAN_POINT ( 'NONE',  ( 0.000000000000000000, 0.000000000000000000, 7.000000000000000000 ) ) ;
#92 = EDGE_CURVE ( 'NONE', #330, #188, #15, .T. ) ;
#93 = CARTESIAN_POINT ( 'NONE',  ( -6.000000000000000888, 0.000000000000000000, 7.500000000000007105 ) ) ;
#94 = VERTEX_POINT ( 'NONE', #313 ) ;
#95 = AXIS2_PLACEMENT_3D ( 'NONE', #151, #245, #329 ) ;
#96 = EDGE_LOOP ( 'NONE', ( #65, #359, #381, #241 ) ) ;
#97 = PERSON_AND_ORGANIZATION ( #319, #25 ) ;
#98 = EDGE_LOOP ( 'NONE', ( #192, #298 ) ) ;
#99 = COORDINATED_UNIVERSAL_TIME_OFFSET ( 1, 0, .AHEAD. ) ;
#100 = CIRCLE ( 'NONE', #95, 6.000000000000000888 ) ;
#101 = ORIENTED_EDGE ( 'NONE', *, *, #82, .T. ) ;
#102 = CARTESIAN_POINT ( 'NONE',  ( -2.500000000000000000, 0.000000000000000000, 307.0000000000000000 ) ) ;
#103 = DIRECTION ( 'NONE',  ( -0.000000000000000000, -0.000000000000000000, -1.000000000000000000 ) ) ;
#104 = DIRECTION ( 'NONE',  ( -0.000000000000000000, -0.000000000000000000, -1.000000000000000000 ) ) ;
#105 = VECTOR ( 'NONE', #177, 1000.000000000000000 ) ;
#106 = DATE_AND_TIME ( #280, #35 ) ;
#107 = DIRECTION ( 'NONE',  ( 0.000000000000000000, 0.000000000000000000, 1.000000000000000000 ) ) ;
#108 = CC_DESIGN_PERSON_AND_ORGANIZATION_ASSIGNMENT ( #97, #126, ( #375 ) ) ;
#109 = CARTESIAN_POINT ( 'NONE',  ( -2.500000000000000000, 0.000000000000000000, 307.0000000000000000 ) ) ;
#110 = AXIS2_PLACEMENT_3D ( 'NONE', #134, #138, #365 ) ;
#111 = CARTESIAN_POINT ( 'NONE',  ( 0.000000000000000000, 0.000000000000000000, 307.0000000000000000 ) ) ;
#112 = VECTOR ( 'NONE', #203, 1000.000000000000000 ) ;
#113 = CARTESIAN_POINT ( 'NONE',  ( 0.000000000000000000, 0.000000000000000000, 307.0000000000000000 ) ) ;
#114 = CYLINDRICAL_SURFACE ( 'NONE', #123, 2.500000000000000000 ) ;
#115 = FACE_OUTER_BOUND ( 'NONE', #191, .T. ) ;
#116 = AXIS2_PLACEMENT_3D ( 'NONE', #234, #52, #118 ) ;
#117 = SECURITY_CLASSIFICATION ( '', '', #164 ) ;
#118 = DIRECTION ( 'NONE',  ( 1.000000000000000000, 0.000000000000000000, 0.000000000000000000 ) ) ;
#119 = EDGE_CURVE ( 'NONE', #153, #9, #222, .T. ) ;
#120 = DIRECTION ( 'NONE',  ( 0.000000000000000000, 0.000000000000000000, 1.000000000000000000 ) ) ;
#121 = MECHANICAL_CONTEXT ( 'NONE', #257, 'mechanical' ) ;
#122 = EDGE_LOOP ( 'NONE', ( #129, #277, #101, #40 ) ) ;
#123 = AXIS2_PLACEMENT_3D ( 'NONE', #113, #345, #86 ) ;
#124 = VERTEX_POINT ( 'NONE', #149 ) ;
#125 = ADVANCED_FACE ( 'NONE', ( #115 ), #17, .F. ) ;
#126 = PERSON_AND_ORGANIZATION_ROLE ( 'creator' ) ;
#127 = VERTEX_POINT ( 'NONE', #294 ) ;
#128 = DIRECTION ( 'NONE',  ( 0.000000000000000000, 0.000000000000000000, 1.000000000000000000 ) ) ;
#129 = ORIENTED_EDGE ( 'NONE', *, *, #132, .F. ) ;
#130 = LOCAL_TIME ( 17, 12, 11.00000000000000000, #99 ) ;
#131 = CARTESIAN_POINT ( 'NONE',  ( 10.00000000000000000, 1.224646799147353256E-15, 0.000000000000000000 ) ) ;
#132 = EDGE_CURVE ( 'NONE', #254, #94, #350, .T. ) ;
#133 = PERSON_AND_ORGANIZATION ( #319, #25 ) ;
#134 = CARTESIAN_POINT ( 'NONE',  ( 0.000000000000000000, 0.000000000000000000, 7.000000000000000000 ) ) ;
#135 = CARTESIAN_POINT ( 'NONE',  ( -6.000000000000000888, 0.000000000000000000, 307.0000000000000000 ) ) ;
#136 = PERSON_AND_ORGANIZATION ( #319, #25 ) ;
#137 = EDGE_CURVE ( 'NONE', #9, #188, #265, .T. ) ;
#138 = DIRECTION ( 'NONE',  ( -0.000000000000000000, -0.000000000000000000, -1.000000000000000000 ) ) ;
#139 = AXIS2_PLACEMENT_3D ( 'NONE', #318, #352, #264 ) ;
#140 = DATE_AND_TIME ( #226, #8 ) ;
#141 = ORIENTED_EDGE ( 'NONE', *, *, #82, .F. ) ;
#142 = APPROVAL ( #307, 'NEURÈENÝ' ) ;
#143 = DIRECTION ( 'NONE',  ( 1.000000000000000000, 0.000000000000000000, 0.000000000000000000 ) ) ;
#144 = DIRECTION ( 'NONE',  ( 0.000000000000000000, 0.000000000000000000, 1.000000000000000000 ) ) ;
#145 = EDGE_CURVE ( 'NONE', #124, #94, #236, .T. ) ;
#146 = DIRECTION ( 'NONE',  ( 0.000000000000000000, 0.000000000000000000, 1.000000000000000000 ) ) ;
#147 = CARTESIAN_POINT ( 'NONE',  ( 0.000000000000000000, 0.000000000000000000, 307.0000000000000000 ) ) ;
#148 = ADVANCED_FACE ( 'NONE', ( #378, #174 ), #292, .T. ) ;
#149 = CARTESIAN_POINT ( 'NONE',  ( -2.500000000000000000, 0.000000000000000000, 0.000000000000000000 ) ) ;
#150 = AXIS2_PLACEMENT_3D ( 'NONE', #218, #332, #64 ) ;
#151 = CARTESIAN_POINT ( 'NONE',  ( 0.000000000000000000, 0.000000000000000000, 7.500000000000007105 ) ) ;
#152 = ORIENTED_EDGE ( 'NONE', *, *, #137, .T. ) ;
#153 = VERTEX_POINT ( 'NONE', #323 ) ;
#154 = EDGE_CURVE ( 'NONE', #221, #217, #33, .T. ) ;
#155 = ORIENTED_EDGE ( 'NONE', *, *, #189, .F. ) ;
#156 = PERSON_AND_ORGANIZATION ( #319, #25 ) ;
#157 = EDGE_LOOP ( 'NONE', ( #315, #362 ) ) ;
#158 = SHAPE_DEFINITION_REPRESENTATION ( #349, #166 ) ;
#159 = CYLINDRICAL_SURFACE ( 'NONE', #110, 10.00000000000000000 ) ;
#160 = AXIS2_PLACEMENT_3D ( 'NONE', #368, #104, #343 ) ;
#161 = AXIS2_PLACEMENT_3D ( 'NONE', #321, #233, #348 ) ;
#162 = PLANE ( 'NONE',  #167 ) ;
#163 = CARTESIAN_POINT ( 'NONE',  ( 0.000000000000000000, 0.000000000000000000, 7.000000000000000000 ) ) ;
#164 = SECURITY_CLASSIFICATION_LEVEL ( 'unclassified' ) ;
#165 = DIRECTION ( 'NONE',  ( 0.000000000000000000, 0.000000000000000000, -1.000000000000000000 ) ) ;
#166 = ADVANCED_BREP_SHAPE_REPRESENTATION ( '04e0', ( #237, #150 ), #322 ) ;
#167 = AXIS2_PLACEMENT_3D ( 'NONE', #83, #281, #16 ) ;
#168 = PRODUCT ( '04e0', '04e0', '', ( #121 ) ) ;
#169 = CARTESIAN_POINT ( 'NONE',  ( 0.000000000000000000, 0.000000000000000000, 307.0000000000000000 ) ) ;
#170 = CIRCLE ( 'NONE', #116, 2.500000000000000000 ) ;
#171 = CARTESIAN_POINT ( 'NONE',  ( 0.000000000000000000, 0.000000000000000000, 7.000000000000000000 ) ) ;
#172 = CARTESIAN_POINT ( 'NONE',  ( 0.000000000000000000, 0.000000000000000000, 7.500000000000007105 ) ) ;
#173 = CIRCLE ( 'NONE', #355, 10.00000000000000000 ) ;
#174 = FACE_OUTER_BOUND ( 'NONE', #98, .T. ) ;
#175 = AXIS2_PLACEMENT_3D ( 'NONE', #360, #178, #268 ) ;
#176 = DIRECTION ( 'NONE',  ( 0.000000000000000000, 0.000000000000000000, 1.000000000000000000 ) ) ;
#177 = DIRECTION ( 'NONE',  ( -0.000000000000000000, -0.000000000000000000, -1.000000000000000000 ) ) ;
#178 = DIRECTION ( 'NONE',  ( 1.224646799147353207E-16, 1.000000000000000000, -0.000000000000000000 ) ) ;
#179 = CIRCLE ( 'NONE', #161, 2.500000000000000000 ) ;
#180 = COORDINATED_UNIVERSAL_TIME_OFFSET ( 1, 0, .AHEAD. ) ;
#181 = ORIENTED_EDGE ( 'NONE', *, *, #346, .T. ) ;
#182 = CARTESIAN_POINT ( 'NONE',  ( -6.000000000000000888, 0.000000000000000000, 307.0000000000000000 ) ) ;
#183 = ORIENTED_EDGE ( 'NONE', *, *, #189, .T. ) ;
#184 =( NAMED_UNIT ( * ) PLANE_ANGLE_UNIT ( ) SI_UNIT ( $, .RADIAN. ) );
#185 = ORIENTED_EDGE ( 'NONE', *, *, #282, .T. ) ;
#186 = CARTESIAN_POINT ( 'NONE',  ( 0.000000000000000000, 0.000000000000000000, 0.000000000000000000 ) ) ;
#187 = CC_DESIGN_APPROVAL ( #287, ( #344 ) ) ;
#188 = VERTEX_POINT ( 'NONE', #374 ) ;
#189 = EDGE_CURVE ( 'NONE', #188, #9, #77, .T. ) ;
#190 = COORDINATED_UNIVERSAL_TIME_OFFSET ( 1, 0, .AHEAD. ) ;
#191 = EDGE_LOOP ( 'NONE', ( #335, #181, #27, #269 ) ) ;
#192 = ORIENTED_EDGE ( 'NONE', *, *, #89, .T. ) ;
#193 = AXIS2_PLACEMENT_3D ( 'NONE', #76, #228, #225 ) ;
#194 = DATE_TIME_ROLE ( 'creation_date' ) ;
#195 = ORIENTED_EDGE ( 'NONE', *, *, #372, .T. ) ;
#196 = APPROVAL_ROLE ( '' ) ;
#197 = CARTESIAN_POINT ( 'NONE',  ( -10.00000000000000000, 0.000000000000000000, 7.000000000000000000 ) ) ;
#198 = DIRECTION ( 'NONE',  ( 1.000000000000000000, 0.000000000000000000, 0.000000000000000000 ) ) ;
#199 = ORIENTED_EDGE ( 'NONE', *, *, #372, .F. ) ;
#200 = AXIS2_PLACEMENT_3D ( 'NONE', #320, #144, #143 ) ;
#201 = APPROVAL_PERSON_ORGANIZATION ( #336, #142, #196 ) ;
#202 = DIRECTION ( 'NONE',  ( -0.000000000000000000, -0.000000000000000000, -1.000000000000000000 ) ) ;
#203 = DIRECTION ( 'NONE',  ( 0.000000000000000000, 0.000000000000000000, -1.000000000000000000 ) ) ;
#204 = APPLICATION_CONTEXT ( 'configuration controlled 3d designs of mechanical parts and assemblies' ) ;
#205 = CIRCLE ( 'NONE', #371, 6.000000000000000888 ) ;
#206 = DIRECTION ( 'NONE',  ( 0.000000000000000000, 0.000000000000000000, 1.000000000000000000 ) ) ;
#207 = EDGE_CURVE ( 'NONE', #254, #43, #170, .T. ) ;
#208 = VECTOR ( 'NONE', #44, 1000.000000000000000 ) ;
#209 = DIRECTION ( 'NONE',  ( -0.000000000000000000, -0.000000000000000000, -1.000000000000000000 ) ) ;
#210 = UNCERTAINTY_MEASURE_WITH_UNIT (LENGTH_MEASURE( 1.000000000000000082E-05 ), #356, 'distance_accuracy_value', 'NONE');
#211 = DIRECTION ( 'NONE',  ( 1.000000000000000000, 0.000000000000000000, 0.000000000000000000 ) ) ;
#212 = DIRECTION ( 'NONE',  ( 1.000000000000000000, 0.000000000000000000, 0.000000000000000000 ) ) ;
#213 = ORIENTED_EDGE ( 'NONE', *, *, #145, .F. ) ;
#214 = AXIS2_PLACEMENT_3D ( 'NONE', #186, #128, #5 ) ;
#215 = EDGE_CURVE ( 'NONE', #217, #308, #324, .T. ) ;
#216 =( NAMED_UNIT ( * ) SI_UNIT ( $, .STERADIAN. ) SOLID_ANGLE_UNIT ( ) );
#217 = VERTEX_POINT ( 'NONE', #238 ) ;
#218 = CARTESIAN_POINT ( 'NONE',  ( 0.000000000000000000, 0.000000000000000000, 0.000000000000000000 ) ) ;
#219 = ORIENTED_EDGE ( 'NONE', *, *, #67, .F. ) ;
#220 = AXIS2_PLACEMENT_3D ( 'NONE', #88, #206, #55 ) ;
#221 = VERTEX_POINT ( 'NONE', #51 ) ;
#222 = LINE ( 'NONE', #57, #105 ) ;
#223 = CARTESIAN_POINT ( 'NONE',  ( 0.000000000000000000, 0.000000000000000000, 307.0000000000000000 ) ) ;
#224 = ADVANCED_FACE ( 'NONE', ( #87 ), #259, .T. ) ;
#225 = DIRECTION ( 'NONE',  ( 1.000000000000000000, 0.000000000000000000, 0.000000000000000000 ) ) ;
#226 = CALENDAR_DATE ( 2022, 8, 7 ) ;
#227 = CARTESIAN_POINT ( 'NONE',  ( 0.000000000000000000, 0.000000000000000000, 307.0000000000000000 ) ) ;
#228 = DIRECTION ( 'NONE',  ( 0.000000000000000000, 0.000000000000000000, 1.000000000000000000 ) ) ;
#229 = ADVANCED_FACE ( 'NONE', ( #370 ), #373, .T. ) ;
#230 = FACE_OUTER_BOUND ( 'NONE', #239, .T. ) ;
#231 = AXIS2_PLACEMENT_3D ( 'NONE', #295, #24, #232 ) ;
#232 = DIRECTION ( 'NONE',  ( 0.000000000000000000, 0.000000000000000000, -1.000000000000000000 ) ) ;
#233 = DIRECTION ( 'NONE',  ( -0.000000000000000000, -0.000000000000000000, -1.000000000000000000 ) ) ;
#234 = CARTESIAN_POINT ( 'NONE',  ( 0.000000000000000000, 0.000000000000000000, 307.0000000000000000 ) ) ;
#235 = CC_DESIGN_DATE_AND_TIME_ASSIGNMENT ( #140, #250, ( #117 ) ) ;
#236 = CIRCLE ( 'NONE', #316, 2.500000000000000000 ) ;
#237 = MANIFOLD_SOLID_BREP ( 'Odebrat vysunutím3', #60 ) ;
#238 = CARTESIAN_POINT ( 'NONE',  ( 6.500000000000000888, 0.000000000000000000, 7.000000000000002665 ) ) ;
#239 = EDGE_LOOP ( 'NONE', ( #2, #361, #302, #141 ) ) ;
#240 = CIRCLE ( 'NONE', #279, 6.000000000000000888 ) ;
#241 = ORIENTED_EDGE ( 'NONE', *, *, #36, .F. ) ;
#242 = LOCAL_TIME ( 17, 12, 11.00000000000000000, #364 ) ;
#243 = EDGE_LOOP ( 'NONE', ( #325, #195, #337, #81 ) ) ;
#244 = ORIENTED_EDGE ( 'NONE', *, *, #92, .T. ) ;
#245 = DIRECTION ( 'NONE',  ( 0.000000000000000000, 0.000000000000000000, 1.000000000000000000 ) ) ;
#246 = ORIENTED_EDGE ( 'NONE', *, *, #207, .F. ) ;
#247 = APPROVAL_PERSON_ORGANIZATION ( #270, #314, #59 ) ;
#248 = COORDINATED_UNIVERSAL_TIME_OFFSET ( 1, 0, .AHEAD. ) ;
#249 = LINE ( 'NONE', #102, #31 ) ;
#250 = DATE_TIME_ROLE ( 'classification_date' ) ;
#251 = FACE_OUTER_BOUND ( 'NONE', #243, .T. ) ;
#252 = ADVANCED_FACE ( 'NONE', ( #230 ), #114, .F. ) ;
#253 = DIRECTION ( 'NONE',  ( 0.000000000000000000, 0.000000000000000000, 1.000000000000000000 ) ) ;
#254 = VERTEX_POINT ( 'NONE', #347 ) ;
#255 = DATE_AND_TIME ( #71, #242 ) ;
#256 = FACE_BOUND ( 'NONE', #157, .T. ) ;
#257 = APPLICATION_CONTEXT ( 'configuration controlled 3d designs of mechanical parts and assemblies' ) ;
#258 = DIRECTION ( 'NONE',  ( -1.000000000000000000, 0.000000000000000000, 0.000000000000000000 ) ) ;
#259 = CYLINDRICAL_SURFACE ( 'NONE', #303, 10.00000000000000000 ) ;
#260 = AXIS2_PLACEMENT_3D ( 'NONE', #172, #176, #21 ) ;
#261 = DIRECTION ( 'NONE',  ( 1.000000000000000000, 0.000000000000000000, -0.000000000000000000 ) ) ;
#262 = DIRECTION ( 'NONE',  ( -1.000000000000000000, 0.000000000000000000, 0.000000000000000000 ) ) ;
#263 = CC_DESIGN_PERSON_AND_ORGANIZATION_ASSIGNMENT ( #133, #80, ( #117 ) ) ;
#264 = DIRECTION ( 'NONE',  ( 1.000000000000000000, 0.000000000000000000, 0.000000000000000000 ) ) ;
#265 = CIRCLE ( 'NONE', #200, 10.00000000000000000 ) ;
#266 = APPROVAL_STATUS ( 'not_yet_approved' ) ;
#267 = EDGE_CURVE ( 'NONE', #94, #124, #179, .T. ) ;
#268 = DIRECTION ( 'NONE',  ( -1.000000000000000000, 1.224646799147351482E-16, 0.000000000000000000 ) ) ;
#269 = ORIENTED_EDGE ( 'NONE', *, *, #154, .F. ) ;
#270 = PERSON_AND_ORGANIZATION ( #319, #25 ) ;
#271 = EDGE_LOOP ( 'NONE', ( #219, #246 ) ) ;
#272 = AXIS2_PLACEMENT_3D ( 'NONE', #68, #120, #212 ) ;
#273 = CC_DESIGN_PERSON_AND_ORGANIZATION_ASSIGNMENT ( #156, #358, ( #168 ) ) ;
#274 = ORIENTED_EDGE ( 'NONE', *, *, #89, .F. ) ;
#275 = CARTESIAN_POINT ( 'NONE',  ( -6.500000000000000888, 7.960204194457796463E-16, 7.000000000000002665 ) ) ;
#276 = EDGE_LOOP ( 'NONE', ( #155, #74 ) ) ;
#277 = ORIENTED_EDGE ( 'NONE', *, *, #207, .T. ) ;
#278 = CIRCLE ( 'NONE', #160, 6.500000000000000888 ) ;
#279 = AXIS2_PLACEMENT_3D ( 'NONE', #286, #19, #284 ) ;
#280 = CALENDAR_DATE ( 2022, 8, 7 ) ;
#281 = DIRECTION ( 'NONE',  ( 0.000000000000000000, 0.000000000000000000, 1.000000000000000000 ) ) ;
#282 = EDGE_CURVE ( 'NONE', #306, #221, #339, .T. ) ;
#283 = PERSON_AND_ORGANIZATION_ROLE ( 'design_supplier' ) ;
#284 = DIRECTION ( 'NONE',  ( 1.000000000000000000, 0.000000000000000000, 0.000000000000000000 ) ) ;
#285 = APPROVAL_STATUS ( 'not_yet_approved' ) ;
#286 = CARTESIAN_POINT ( 'NONE',  ( 0.000000000000000000, 0.000000000000000000, 307.0000000000000000 ) ) ;
#287 = APPROVAL ( #285, 'NEURÈENÝ' ) ;
#288 = DIRECTION ( 'NONE',  ( -1.000000000000000000, 0.000000000000000000, 0.000000000000000000 ) ) ;
#289 = CC_DESIGN_PERSON_AND_ORGANIZATION_ASSIGNMENT ( #136, #73, ( #344 ) ) ;
#290 = DIRECTION ( 'NONE',  ( -0.000000000000000000, -0.000000000000000000, -1.000000000000000000 ) ) ;
#291 = CARTESIAN_POINT ( 'NONE',  ( 2.500000000000000000, 3.061616997868383141E-16, 307.0000000000000000 ) ) ;
#292 = PLANE ( 'NONE',  #69 ) ;
#293 = ADVANCED_FACE ( 'NONE', ( #376 ), #61, .F. ) ;
#294 = CARTESIAN_POINT ( 'NONE',  ( 6.000000000000000888, 7.347880794884120722E-16, 307.0000000000000000 ) ) ;
#295 = CARTESIAN_POINT ( 'NONE',  ( 6.500000000000000888, 0.000000000000000000, 7.500000000000007105 ) ) ;
#296 = CC_DESIGN_APPROVAL ( #314, ( #375 ) ) ;
#297 = APPROVAL_DATE_TIME ( #380, #314 ) ;
#298 = ORIENTED_EDGE ( 'NONE', *, *, #56, .T. ) ;
#299 = LINE ( 'NONE', #1, #6 ) ;
#300 = EDGE_LOOP ( 'NONE', ( #63, #328, #244, #183 ) ) ;
#301 = LINE ( 'NONE', #182, #49 ) ;
#302 = ORIENTED_EDGE ( 'NONE', *, *, #267, .T. ) ;
#303 = AXIS2_PLACEMENT_3D ( 'NONE', #171, #290, #258 ) ;
#304 = EDGE_CURVE ( 'NONE', #70, #306, #301, .T. ) ;
#305 = CALENDAR_DATE ( 2022, 8, 7 ) ;
#306 = VERTEX_POINT ( 'NONE', #93 ) ;
#307 = APPROVAL_STATUS ( 'not_yet_approved' ) ;
#308 = VERTEX_POINT ( 'NONE', #275 ) ;
#309 = EDGE_LOOP ( 'NONE', ( #213, #333 ) ) ;
#310 = CIRCLE ( 'NONE', #193, 2.500000000000000000 ) ;
#311 = CIRCLE ( 'NONE', #175, 0.5000000000000004441 ) ;
#312 = DIRECTION ( 'NONE',  ( 0.000000000000000000, 0.000000000000000000, -1.000000000000000000 ) ) ;
#313 = CARTESIAN_POINT ( 'NONE',  ( 2.500000000000000000, 3.061616997868383141E-16, 0.000000000000000000 ) ) ;
#314 = APPROVAL ( #266, 'NEURÈENÝ' ) ;
#315 = ORIENTED_EDGE ( 'NONE', *, *, #215, .T. ) ;
#316 = AXIS2_PLACEMENT_3D ( 'NONE', #54, #23, #211 ) ;
#317 = FACE_OUTER_BOUND ( 'NONE', #342, .T. ) ;
#318 = CARTESIAN_POINT ( 'NONE',  ( 0.000000000000000000, 0.000000000000000000, 0.000000000000000000 ) ) ;
#319 = PERSON ( 'NEURÈENÝ', 'NEURÈENÝ', 'NEURÈENÝ', ('NEURÈENÝ'), ('NEURÈENÝ'), ('NEURÈENÝ') ) ;
#320 = CARTESIAN_POINT ( 'NONE',  ( 0.000000000000000000, 0.000000000000000000, 0.000000000000000000 ) ) ;
#321 = CARTESIAN_POINT ( 'NONE',  ( 0.000000000000000000, 0.000000000000000000, 0.000000000000000000 ) ) ;
#322 =( GEOMETRIC_REPRESENTATION_CONTEXT ( 3 ) GLOBAL_UNCERTAINTY_ASSIGNED_CONTEXT ( ( #210 ) ) GLOBAL_UNIT_ASSIGNED_CONTEXT ( ( #356, #184, #216 ) ) REPRESENTATION_CONTEXT ( 'NONE', 'WORKASPACE' ) );
#323 = CARTESIAN_POINT ( 'NONE',  ( 10.00000000000000000, 1.224646799147353256E-15, 7.000000000000000000 ) ) ;
#324 = CIRCLE ( 'NONE', #90, 6.500000000000000888 ) ;
#325 = ORIENTED_EDGE ( 'NONE', *, *, #56, .F. ) ;
#326 = APPROVAL_PERSON_ORGANIZATION ( #78, #287, #367 ) ;
#327 = FACE_OUTER_BOUND ( 'NONE', #276, .T. ) ;
#328 = ORIENTED_EDGE ( 'NONE', *, *, #45, .F. ) ;
#329 = DIRECTION ( 'NONE',  ( 1.000000000000000000, 0.000000000000000000, 0.000000000000000000 ) ) ;
#330 = VERTEX_POINT ( 'NONE', #62 ) ;
#331 = ADVANCED_FACE ( 'NONE', ( #10, #327 ), #26, .F. ) ;
#332 = DIRECTION ( 'NONE',  ( 0.000000000000000000, 0.000000000000000000, 1.000000000000000000 ) ) ;
#333 = ORIENTED_EDGE ( 'NONE', *, *, #267, .F. ) ;
#334 = AXIS2_PLACEMENT_3D ( 'NONE', #111, #202, #262 ) ;
#335 = ORIENTED_EDGE ( 'NONE', *, *, #282, .F. ) ;
#336 = PERSON_AND_ORGANIZATION ( #319, #25 ) ;
#337 = ORIENTED_EDGE ( 'NONE', *, *, #341, .T. ) ;
#338 = CARTESIAN_POINT ( 'NONE',  ( 0.000000000000000000, 0.000000000000000000, 7.000000000000000000 ) ) ;
#339 = CIRCLE ( 'NONE', #220, 6.000000000000000888 ) ;
#340 = CYLINDRICAL_SURFACE ( 'NONE', #4, 2.500000000000000000 ) ;
#341 = EDGE_CURVE ( 'NONE', #221, #306, #100, .T. ) ;
#342 = EDGE_LOOP ( 'NONE', ( #354, #7 ) ) ;
#343 = DIRECTION ( 'NONE',  ( 1.000000000000000000, 0.000000000000000000, 0.000000000000000000 ) ) ;
#344 = PRODUCT_DEFINITION_FORMATION_WITH_SPECIFIED_SOURCE ( 'LIBOVOLNÝ', '', #168, .NOT_KNOWN. ) ;
#345 = DIRECTION ( 'NONE',  ( 0.000000000000000000, 0.000000000000000000, -1.000000000000000000 ) ) ;
#346 = EDGE_CURVE ( 'NONE', #306, #308, #311, .T. ) ;
#347 = CARTESIAN_POINT ( 'NONE',  ( 2.500000000000000000, 3.061616997868383141E-16, 307.0000000000000000 ) ) ;
#348 = DIRECTION ( 'NONE',  ( 1.000000000000000000, 0.000000000000000000, 0.000000000000000000 ) ) ;
#349 = PRODUCT_DEFINITION_SHAPE ( 'NONE', 'NONE',  #375 ) ;
#350 = LINE ( 'NONE', #291, #112 ) ;
#351 = CC_DESIGN_DATE_AND_TIME_ASSIGNMENT ( #42, #194, ( #375 ) ) ;
#352 = DIRECTION ( 'NONE',  ( 0.000000000000000000, 0.000000000000000000, 1.000000000000000000 ) ) ;
#353 = APPLICATION_PROTOCOL_DEFINITION ( 'international standard', 'config_control_design', 1994, #257 ) ;
#354 = ORIENTED_EDGE ( 'NONE', *, *, #45, .T. ) ;
#355 = AXIS2_PLACEMENT_3D ( 'NONE', #338, #107, #198 ) ;
#356 =( LENGTH_UNIT ( ) NAMED_UNIT ( * ) SI_UNIT ( .MILLI., .METRE. ) );
#357 = CALENDAR_DATE ( 2022, 8, 7 ) ;
#358 = PERSON_AND_ORGANIZATION_ROLE ( 'design_owner' ) ;
#359 = ORIENTED_EDGE ( 'NONE', *, *, #341, .F. ) ;
#360 = CARTESIAN_POINT ( 'NONE',  ( -6.500000000000000888, 7.960204194457796463E-16, 7.500000000000007105 ) ) ;
#361 = ORIENTED_EDGE ( 'NONE', *, *, #132, .T. ) ;
#362 = ORIENTED_EDGE ( 'NONE', *, *, #36, .T. ) ;
#363 = CYLINDRICAL_SURFACE ( 'NONE', #366, 6.000000000000000888 ) ;
#364 = COORDINATED_UNIVERSAL_TIME_OFFSET ( 1, 0, .AHEAD. ) ;
#365 = DIRECTION ( 'NONE',  ( -1.000000000000000000, 0.000000000000000000, 0.000000000000000000 ) ) ;
#366 = AXIS2_PLACEMENT_3D ( 'NONE', #227, #103, #79 ) ;
#367 = APPROVAL_ROLE ( '' ) ;
#368 = CARTESIAN_POINT ( 'NONE',  ( 0.000000000000000000, 0.000000000000000000, 7.000000000000000000 ) ) ;
#369 = DIRECTION ( 'NONE',  ( 1.000000000000000000, 0.000000000000000000, 0.000000000000000000 ) ) ;
#370 = FACE_OUTER_BOUND ( 'NONE', #66, .T. ) ;
#371 = AXIS2_PLACEMENT_3D ( 'NONE', #223, #13, #369 ) ;
#372 = EDGE_CURVE ( 'NONE', #127, #221, #299, .T. ) ;
#373 = CYLINDRICAL_SURFACE ( 'NONE', #334, 6.000000000000000888 ) ;
#374 = CARTESIAN_POINT ( 'NONE',  ( -10.00000000000000000, 0.000000000000000000, 0.000000000000000000 ) ) ;
#375 = PRODUCT_DEFINITION ( 'NEZNÁMÝ', '', #344, #58 ) ;
#376 = FACE_OUTER_BOUND ( 'NONE', #96, .T. ) ;
#377 = CIRCLE ( 'NONE', #41, 10.00000000000000000 ) ;
#378 = FACE_BOUND ( 'NONE', #271, .T. ) ;
#379 = PRODUCT_RELATED_PRODUCT_CATEGORY ( 'detail', '', ( #168 ) ) ;
#380 = DATE_AND_TIME ( #357, #84 ) ;
#381 = ORIENTED_EDGE ( 'NONE', *, *, #154, .T. ) ;
ENDSEC;
END-ISO-10303-21;
