ISO-10303-21;
HEADER;
FILE_DESCRIPTION (( 'STEP AP203' ),
    '1' );
FILE_NAME ('57f1.STEP',
    '2022-07-08T15:32:19',
    ( '' ),
    ( '' ),
    'SwSTEP 2.0',
    'SolidWorks 2019',
    '' );
FILE_SCHEMA (( 'CONFIG_CONTROL_DESIGN' ));
ENDSEC;

DATA;
#1 = CYLINDRICAL_SURFACE ( 'NONE', #370, 4.000000000000000000 ) ;
#2 = CARTESIAN_POINT ( 'NONE',  ( 4.000000000000000000, 4.898587196589412829E-16, 130.0000000000000000 ) ) ;
#3 = DIRECTION ( 'NONE',  ( 0.000000000000000000, 0.000000000000000000, -1.000000000000000000 ) ) ;
#4 = AXIS2_PLACEMENT_3D ( 'NONE', #350, #90, #54 ) ;
#5 = FACE_OUTER_BOUND ( 'NONE', #118, .T. ) ;
#6 = ADVANCED_FACE ( 'NONE', ( #232 ), #348, .F. ) ;
#7 = AXIS2_PLACEMENT_3D ( 'NONE', #87, #265, #66 ) ;
#8 =( NAMED_UNIT ( * ) PLANE_ANGLE_UNIT ( ) SI_UNIT ( $, .RADIAN. ) );
#9 = CC_DESIGN_APPROVAL ( #68, ( #126 ) ) ;
#10 = EDGE_LOOP ( 'NONE', ( #277, #342, #201, #192 ) ) ;
#11 = ORIENTED_EDGE ( 'NONE', *, *, #251, .T. ) ;
#12 =( NAMED_UNIT ( * ) SI_UNIT ( $, .STERADIAN. ) SOLID_ANGLE_UNIT ( ) );
#13 = VERTEX_POINT ( 'NONE', #114 ) ;
#14 = APPROVAL_PERSON_ORGANIZATION ( #341, #59, #227 ) ;
#15 = CARTESIAN_POINT ( 'NONE',  ( 0.000000000000000000, 0.000000000000000000, 5.000000000000000000 ) ) ;
#16 = VERTEX_POINT ( 'NONE', #112 ) ;
#17 = DIRECTION ( 'NONE',  ( -1.000000000000000000, 1.224646799147351482E-16, 0.000000000000000000 ) ) ;
#18 = EDGE_CURVE ( 'NONE', #16, #263, #43, .T. ) ;
#19 = DATE_AND_TIME ( #85, #285 ) ;
#20 = ORIENTED_EDGE ( 'NONE', *, *, #177, .F. ) ;
#21 = CC_DESIGN_APPROVAL ( #380, ( #261 ) ) ;
#22 = PERSON_AND_ORGANIZATION_ROLE ( 'creator' ) ;
#23 = CARTESIAN_POINT ( 'NONE',  ( -4.500000000000000888, 5.510910596163089556E-16, 5.500000000000005329 ) ) ;
#24 = PERSON_AND_ORGANIZATION ( #329, #147 ) ;
#25 = ORIENTED_EDGE ( 'NONE', *, *, #33, .F. ) ;
#26 = ADVANCED_FACE ( 'NONE', ( #292, #226 ), #86, .F. ) ;
#27 = DIRECTION ( 'NONE',  ( -0.000000000000000000, -0.000000000000000000, -1.000000000000000000 ) ) ;
#28 = CIRCLE ( 'NONE', #312, 4.000000000000000000 ) ;
#29 = APPLICATION_CONTEXT ( 'configuration controlled 3d designs of mechanical parts and assemblies' ) ;
#30 = LINE ( 'NONE', #351, #92 ) ;
#31 = FACE_OUTER_BOUND ( 'NONE', #102, .T. ) ;
#32 = CIRCLE ( 'NONE', #7, 2.000000000000000000 ) ;
#33 = EDGE_CURVE ( 'NONE', #146, #116, #242, .T. ) ;
#34 = FACE_OUTER_BOUND ( 'NONE', #214, .T. ) ;
#35 = CARTESIAN_POINT ( 'NONE',  ( -7.000000000000000000, 0.000000000000000000, 0.000000000000000000 ) ) ;
#36 = DIRECTION ( 'NONE',  ( -0.000000000000000000, -0.000000000000000000, -1.000000000000000000 ) ) ;
#37 = EDGE_CURVE ( 'NONE', #243, #16, #95, .T. ) ;
#38 = DIRECTION ( 'NONE',  ( 0.000000000000000000, 0.000000000000000000, 1.000000000000000000 ) ) ;
#39 = CIRCLE ( 'NONE', #302, 4.500000000000000888 ) ;
#40 = EDGE_LOOP ( 'NONE', ( #222, #186 ) ) ;
#41 = LINE ( 'NONE', #301, #62 ) ;
#42 = ORIENTED_EDGE ( 'NONE', *, *, #130, .T. ) ;
#43 = CIRCLE ( 'NONE', #4, 0.5000000000000004441 ) ;
#44 = CARTESIAN_POINT ( 'NONE',  ( 0.000000000000000000, 0.000000000000000000, 5.000000000000000000 ) ) ;
#45 = ORIENTED_EDGE ( 'NONE', *, *, #270, .T. ) ;
#46 = DIRECTION ( 'NONE',  ( 0.000000000000000000, 0.000000000000000000, -1.000000000000000000 ) ) ;
#47 = EDGE_LOOP ( 'NONE', ( #166, #280 ) ) ;
#48 = VECTOR ( 'NONE', #36, 1000.000000000000000 ) ;
#49 = EDGE_CURVE ( 'NONE', #243, #333, #331, .T. ) ;
#50 = DATE_AND_TIME ( #313, #338 ) ;
#51 = DIRECTION ( 'NONE',  ( -1.000000000000000000, 0.000000000000000000, 0.000000000000000000 ) ) ;
#52 = EDGE_CURVE ( 'NONE', #307, #13, #100, .T. ) ;
#53 = APPROVAL_ROLE ( '' ) ;
#54 = DIRECTION ( 'NONE',  ( 0.000000000000000000, 0.000000000000000000, -1.000000000000000000 ) ) ;
#55 = TOROIDAL_SURFACE ( 'NONE', #247, 4.500000000000000888, 0.5000000000000000000 ) ;
#56 = APPLICATION_PROTOCOL_DEFINITION ( 'international standard', 'config_control_design', 1994, #29 ) ;
#57 = LINE ( 'NONE', #170, #314 ) ;
#58 = AXIS2_PLACEMENT_3D ( 'NONE', #379, #203, #318 ) ;
#59 = APPROVAL ( #259, 'NEURÈENÝ' ) ;
#60 = EDGE_LOOP ( 'NONE', ( #171, #204 ) ) ;
#61 = ORIENTED_EDGE ( 'NONE', *, *, #251, .F. ) ;
#62 = VECTOR ( 'NONE', #46, 1000.000000000000000 ) ;
#63 = CYLINDRICAL_SURFACE ( 'NONE', #278, 2.000000000000000000 ) ;
#64 = DIRECTION ( 'NONE',  ( 0.000000000000000000, 0.000000000000000000, 1.000000000000000000 ) ) ;
#65 = EDGE_CURVE ( 'NONE', #307, #183, #57, .T. ) ;
#66 = DIRECTION ( 'NONE',  ( 1.000000000000000000, 0.000000000000000000, 0.000000000000000000 ) ) ;
#67 = DESIGN_CONTEXT ( 'detailed design', #29, 'design' ) ;
#68 = APPROVAL ( #316, 'NEURÈENÝ' ) ;
#69 = ADVANCED_FACE ( 'NONE', ( #315 ), #224, .T. ) ;
#70 = DIRECTION ( 'NONE',  ( 1.000000000000000000, 0.000000000000000000, 0.000000000000000000 ) ) ;
#71 = CARTESIAN_POINT ( 'NONE',  ( 7.000000000000000000, 8.572527594031473190E-16, 0.000000000000000000 ) ) ;
#72 = CC_DESIGN_PERSON_AND_ORGANIZATION_ASSIGNMENT ( #108, #22, ( #279 ) ) ;
#73 = ORIENTED_EDGE ( 'NONE', *, *, #18, .F. ) ;
#74 = FACE_OUTER_BOUND ( 'NONE', #78, .T. ) ;
#75 = ORIENTED_EDGE ( 'NONE', *, *, #130, .F. ) ;
#76 = CARTESIAN_POINT ( 'NONE',  ( -4.500000000000000888, 5.510910596163088569E-16, 5.000000000000002665 ) ) ;
#77 = CARTESIAN_POINT ( 'NONE',  ( 0.000000000000000000, 0.000000000000000000, 130.0000000000000000 ) ) ;
#78 = EDGE_LOOP ( 'NONE', ( #274, #133, #241, #73 ) ) ;
#79 = AXIS2_PLACEMENT_3D ( 'NONE', #205, #180, #151 ) ;
#80 = ORIENTED_EDGE ( 'NONE', *, *, #200, .F. ) ;
#81 = PRODUCT_DEFINITION_SHAPE ( 'NONE', 'NONE',  #261 ) ;
#82 = APPROVAL_STATUS ( 'not_yet_approved' ) ;
#83 = DIRECTION ( 'NONE',  ( -0.000000000000000000, -0.000000000000000000, -1.000000000000000000 ) ) ;
#84 = EDGE_CURVE ( 'NONE', #231, #183, #361, .T. ) ;
#85 = CALENDAR_DATE ( 2022, 8, 7 ) ;
#86 = PLANE ( 'NONE',  #58 ) ;
#87 = CARTESIAN_POINT ( 'NONE',  ( 0.000000000000000000, 0.000000000000000000, 0.000000000000000000 ) ) ;
#88 = DIRECTION ( 'NONE',  ( 0.000000000000000000, 0.000000000000000000, -1.000000000000000000 ) ) ;
#89 = AXIS2_PLACEMENT_3D ( 'NONE', #287, #320, #196 ) ;
#90 = DIRECTION ( 'NONE',  ( 0.000000000000000000, -1.000000000000000000, 0.000000000000000000 ) ) ;
#91 = DIRECTION ( 'NONE',  ( 0.000000000000000000, 0.000000000000000000, -1.000000000000000000 ) ) ;
#92 = VECTOR ( 'NONE', #91, 1000.000000000000000 ) ;
#93 = CARTESIAN_POINT ( 'NONE',  ( 2.000000000000000000, 2.449293598294706414E-16, 130.0000000000000000 ) ) ;
#94 = FACE_OUTER_BOUND ( 'NONE', #10, .T. ) ;
#95 = CIRCLE ( 'NONE', #89, 4.000000000000000000 ) ;
#96 = DIRECTION ( 'NONE',  ( 1.000000000000000000, 0.000000000000000000, 0.000000000000000000 ) ) ;
#97 = CARTESIAN_POINT ( 'NONE',  ( 0.000000000000000000, 0.000000000000000000, 5.000000000000000000 ) ) ;
#98 = CARTESIAN_POINT ( 'NONE',  ( 0.000000000000000000, 0.000000000000000000, 5.500000000000005329 ) ) ;
#99 = EDGE_LOOP ( 'NONE', ( #61, #332, #310, #260 ) ) ;
#100 = CIRCLE ( 'NONE', #143, 7.000000000000000000 ) ;
#101 = MECHANICAL_CONTEXT ( 'NONE', #215, 'mechanical' ) ;
#102 = EDGE_LOOP ( 'NONE', ( #80, #129, #188, #334 ) ) ;
#103 = EDGE_CURVE ( 'NONE', #116, #146, #32, .T. ) ;
#104 = EDGE_CURVE ( 'NONE', #263, #333, #321, .T. ) ;
#105 = FACE_OUTER_BOUND ( 'NONE', #145, .T. ) ;
#106 = EDGE_LOOP ( 'NONE', ( #75, #141 ) ) ;
#107 = DIRECTION ( 'NONE',  ( 1.000000000000000000, 0.000000000000000000, 0.000000000000000000 ) ) ;
#108 = PERSON_AND_ORGANIZATION ( #329, #147 ) ;
#109 = TOROIDAL_SURFACE ( 'NONE', #140, 4.500000000000000888, 0.5000000000000000000 ) ;
#110 = DIRECTION ( 'NONE',  ( -0.000000000000000000, -0.000000000000000000, -1.000000000000000000 ) ) ;
#111 = COORDINATED_UNIVERSAL_TIME_OFFSET ( 1, 0, .AHEAD. ) ;
#112 = CARTESIAN_POINT ( 'NONE',  ( 4.000000000000000000, 4.898587196589412829E-16, 5.500000000000005329 ) ) ;
#113 = CLOSED_SHELL ( 'NONE', ( #6, #349, #211, #153, #258, #246, #26, #69, #281, #305, #136 ) ) ;
#114 = CARTESIAN_POINT ( 'NONE',  ( -7.000000000000000000, 0.000000000000000000, 5.000000000000000000 ) ) ;
#115 = PERSON_AND_ORGANIZATION_ROLE ( 'design_supplier' ) ;
#116 = VERTEX_POINT ( 'NONE', #269 ) ;
#117 = AXIS2_PLACEMENT_3D ( 'NONE', #77, #156, #107 ) ;
#118 = EDGE_LOOP ( 'NONE', ( #45, #373 ) ) ;
#119 = EDGE_CURVE ( 'NONE', #16, #243, #157, .T. ) ;
#120 = AXIS2_PLACEMENT_3D ( 'NONE', #23, #142, #17 ) ;
#121 = DIRECTION ( 'NONE',  ( 0.000000000000000000, 0.000000000000000000, 1.000000000000000000 ) ) ;
#122 = PLANE ( 'NONE',  #158 ) ;
#123 = DIRECTION ( 'NONE',  ( -0.000000000000000000, -0.000000000000000000, -1.000000000000000000 ) ) ;
#124 = DIRECTION ( 'NONE',  ( 0.000000000000000000, 0.000000000000000000, 1.000000000000000000 ) ) ;
#125 = CARTESIAN_POINT ( 'NONE',  ( 0.000000000000000000, 0.000000000000000000, 130.0000000000000000 ) ) ;
#126 = SECURITY_CLASSIFICATION ( '', '', #195 ) ;
#127 = ORIENTED_EDGE ( 'NONE', *, *, #103, .T. ) ;
#128 = MANIFOLD_SOLID_BREP ( 'Odebrat vysunutím3', #113 ) ;
#129 = ORIENTED_EDGE ( 'NONE', *, *, #134, .T. ) ;
#130 = EDGE_CURVE ( 'NONE', #199, #245, #131, .T. ) ;
#131 = CIRCLE ( 'NONE', #345, 2.000000000000000000 ) ;
#132 = DIRECTION ( 'NONE',  ( 0.000000000000000000, 0.000000000000000000, 1.000000000000000000 ) ) ;
#133 = ORIENTED_EDGE ( 'NONE', *, *, #49, .T. ) ;
#134 = EDGE_CURVE ( 'NONE', #245, #199, #206, .T. ) ;
#135 = DIRECTION ( 'NONE',  ( 0.000000000000000000, 0.000000000000000000, 1.000000000000000000 ) ) ;
#136 = ADVANCED_FACE ( 'NONE', ( #31 ), #63, .F. ) ;
#137 = DATE_TIME_ROLE ( 'creation_date' ) ;
#138 = CARTESIAN_POINT ( 'NONE',  ( 0.000000000000000000, 0.000000000000000000, 5.000000000000000000 ) ) ;
#139 = COORDINATED_UNIVERSAL_TIME_OFFSET ( 1, 0, .AHEAD. ) ;
#140 = AXIS2_PLACEMENT_3D ( 'NONE', #98, #213, #367 ) ;
#141 = ORIENTED_EDGE ( 'NONE', *, *, #134, .F. ) ;
#142 = DIRECTION ( 'NONE',  ( 1.224646799147353207E-16, 1.000000000000000000, -0.000000000000000000 ) ) ;
#143 = AXIS2_PLACEMENT_3D ( 'NONE', #138, #252, #368 ) ;
#144 = CALENDAR_DATE ( 2022, 8, 7 ) ;
#145 = EDGE_LOOP ( 'NONE', ( #221, #335, #375, #255 ) ) ;
#146 = VERTEX_POINT ( 'NONE', #358 ) ;
#147 = ORGANIZATION ( 'NEURÈENÝ', 'NEURÈENÝ', '' ) ;
#148 = DIRECTION ( 'NONE',  ( -0.000000000000000000, -0.000000000000000000, -1.000000000000000000 ) ) ;
#149 = PRODUCT ( '57f1', '57f1', '', ( #101 ) ) ;
#150 = DIRECTION ( 'NONE',  ( -0.000000000000000000, -0.000000000000000000, -1.000000000000000000 ) ) ;
#151 = DIRECTION ( 'NONE',  ( 1.000000000000000000, 0.000000000000000000, 0.000000000000000000 ) ) ;
#152 = DIRECTION ( 'NONE',  ( 1.000000000000000000, 0.000000000000000000, 0.000000000000000000 ) ) ;
#153 = ADVANCED_FACE ( 'NONE', ( #236 ), #154, .T. ) ;
#154 = CYLINDRICAL_SURFACE ( 'NONE', #253, 7.000000000000000000 ) ;
#155 = AXIS2_PLACEMENT_3D ( 'NONE', #319, #27, #317 ) ;
#156 = DIRECTION ( 'NONE',  ( 0.000000000000000000, 0.000000000000000000, 1.000000000000000000 ) ) ;
#157 = CIRCLE ( 'NONE', #369, 4.000000000000000000 ) ;
#158 = AXIS2_PLACEMENT_3D ( 'NONE', #353, #207, #267 ) ;
#159 = ORIENTED_EDGE ( 'NONE', *, *, #65, .T. ) ;
#160 = DIRECTION ( 'NONE',  ( 0.000000000000000000, 0.000000000000000000, 1.000000000000000000 ) ) ;
#161 = ORIENTED_EDGE ( 'NONE', *, *, #200, .T. ) ;
#162 =( LENGTH_UNIT ( ) NAMED_UNIT ( * ) SI_UNIT ( .MILLI., .METRE. ) );
#163 = APPROVAL_PERSON_ORGANIZATION ( #225, #68, #53 ) ;
#164 = DATE_AND_TIME ( #144, #193 ) ;
#165 = DATE_TIME_ROLE ( 'classification_date' ) ;
#166 = ORIENTED_EDGE ( 'NONE', *, *, #309, .T. ) ;
#167 = CALENDAR_DATE ( 2022, 8, 7 ) ;
#168 = DIRECTION ( 'NONE',  ( -1.000000000000000000, 0.000000000000000000, 0.000000000000000000 ) ) ;
#169 = COORDINATED_UNIVERSAL_TIME_OFFSET ( 1, 0, .AHEAD. ) ;
#170 = CARTESIAN_POINT ( 'NONE',  ( 7.000000000000000000, 8.572527594031473190E-16, 5.000000000000000000 ) ) ;
#171 = ORIENTED_EDGE ( 'NONE', *, *, #84, .F. ) ;
#172 = EDGE_LOOP ( 'NONE', ( #42, #161, #127, #194 ) ) ;
#173 = LOCAL_TIME ( 17, 32, 19.00000000000000000, #256 ) ;
#174 = EDGE_CURVE ( 'NONE', #333, #263, #39, .T. ) ;
#175 = CARTESIAN_POINT ( 'NONE',  ( -4.000000000000000000, 0.000000000000000000, 5.500000000000005329 ) ) ;
#176 = UNCERTAINTY_MEASURE_WITH_UNIT (LENGTH_MEASURE( 1.000000000000000082E-05 ), #162, 'distance_accuracy_value', 'NONE');
#177 = EDGE_CURVE ( 'NONE', #363, #365, #28, .T. ) ;
#178 = CARTESIAN_POINT ( 'NONE',  ( 0.000000000000000000, 0.000000000000000000, 130.0000000000000000 ) ) ;
#179 = CC_DESIGN_PERSON_AND_ORGANIZATION_ASSIGNMENT ( #374, #115, ( #279 ) ) ;
#180 = DIRECTION ( 'NONE',  ( 0.000000000000000000, 0.000000000000000000, 1.000000000000000000 ) ) ;
#181 = CARTESIAN_POINT ( 'NONE',  ( 0.000000000000000000, 0.000000000000000000, 130.0000000000000000 ) ) ;
#182 = CARTESIAN_POINT ( 'NONE',  ( 7.000000000000000000, 8.572527594031473190E-16, 5.000000000000000000 ) ) ;
#183 = VERTEX_POINT ( 'NONE', #71 ) ;
#184 = AXIS2_PLACEMENT_3D ( 'NONE', #218, #160, #362 ) ;
#185 = CARTESIAN_POINT ( 'NONE',  ( -4.000000000000000000, 0.000000000000000000, 130.0000000000000000 ) ) ;
#186 = ORIENTED_EDGE ( 'NONE', *, *, #174, .T. ) ;
#187 = CARTESIAN_POINT ( 'NONE',  ( 4.000000000000000000, 4.898587196589412829E-16, 130.0000000000000000 ) ) ;
#188 = ORIENTED_EDGE ( 'NONE', *, *, #376, .T. ) ;
#189 = AXIS2_PLACEMENT_3D ( 'NONE', #290, #88, #168 ) ;
#190 = CC_DESIGN_PERSON_AND_ORGANIZATION_ASSIGNMENT ( #282, #339, ( #261 ) ) ;
#191 = CARTESIAN_POINT ( 'NONE',  ( 0.000000000000000000, 0.000000000000000000, 5.500000000000005329 ) ) ;
#192 = ORIENTED_EDGE ( 'NONE', *, *, #84, .T. ) ;
#193 = LOCAL_TIME ( 17, 32, 19.00000000000000000, #139 ) ;
#194 = ORIENTED_EDGE ( 'NONE', *, *, #376, .F. ) ;
#195 = SECURITY_CLASSIFICATION_LEVEL ( 'unclassified' ) ;
#196 = DIRECTION ( 'NONE',  ( 1.000000000000000000, 0.000000000000000000, 0.000000000000000000 ) ) ;
#197 = AXIS2_PLACEMENT_3D ( 'NONE', #257, #228, #344 ) ;
#198 = PERSON_AND_ORGANIZATION_ROLE ( 'classification_officer' ) ;
#199 = VERTEX_POINT ( 'NONE', #354 ) ;
#200 = EDGE_CURVE ( 'NONE', #245, #116, #30, .T. ) ;
#201 = ORIENTED_EDGE ( 'NONE', *, *, #237, .T. ) ;
#202 = APPROVAL_ROLE ( '' ) ;
#203 = DIRECTION ( 'NONE',  ( 0.000000000000000000, 0.000000000000000000, 1.000000000000000000 ) ) ;
#204 = ORIENTED_EDGE ( 'NONE', *, *, #219, .F. ) ;
#205 = CARTESIAN_POINT ( 'NONE',  ( 0.000000000000000000, 0.000000000000000000, 0.000000000000000000 ) ) ;
#206 = CIRCLE ( 'NONE', #311, 2.000000000000000000 ) ;
#207 = DIRECTION ( 'NONE',  ( 0.000000000000000000, 0.000000000000000000, 1.000000000000000000 ) ) ;
#208 = DIRECTION ( 'NONE',  ( 1.000000000000000000, 0.000000000000000000, 0.000000000000000000 ) ) ;
#209 = DIRECTION ( 'NONE',  ( -1.000000000000000000, 0.000000000000000000, 0.000000000000000000 ) ) ;
#210 = AXIS2_PLACEMENT_3D ( 'NONE', #181, #135, #308 ) ;
#211 = ADVANCED_FACE ( 'NONE', ( #34 ), #1, .T. ) ;
#212 = CARTESIAN_POINT ( 'NONE',  ( 0.000000000000000000, 0.000000000000000000, 5.000000000000000000 ) ) ;
#213 = DIRECTION ( 'NONE',  ( 0.000000000000000000, 0.000000000000000000, 1.000000000000000000 ) ) ;
#214 = EDGE_LOOP ( 'NONE', ( #20, #11, #306, #275 ) ) ;
#215 = APPLICATION_CONTEXT ( 'configuration controlled 3d designs of mechanical parts and assemblies' ) ;
#216 = EDGE_LOOP ( 'NONE', ( #25, #303 ) ) ;
#217 = VECTOR ( 'NONE', #123, 1000.000000000000000 ) ;
#218 = CARTESIAN_POINT ( 'NONE',  ( 0.000000000000000000, 0.000000000000000000, 0.000000000000000000 ) ) ;
#219 = EDGE_CURVE ( 'NONE', #183, #231, #304, .T. ) ;
#220 = DIRECTION ( 'NONE',  ( -0.000000000000000000, -0.000000000000000000, -1.000000000000000000 ) ) ;
#221 = ORIENTED_EDGE ( 'NONE', *, *, #49, .F. ) ;
#222 = ORIENTED_EDGE ( 'NONE', *, *, #104, .T. ) ;
#223 = PERSON_AND_ORGANIZATION_ROLE ( 'design_owner' ) ;
#224 = CYLINDRICAL_SURFACE ( 'NONE', #355, 4.000000000000000000 ) ;
#225 = PERSON_AND_ORGANIZATION ( #329, #147 ) ;
#226 = FACE_OUTER_BOUND ( 'NONE', #60, .T. ) ;
#227 = APPROVAL_ROLE ( '' ) ;
#228 = DIRECTION ( 'NONE',  ( 0.000000000000000000, 0.000000000000000000, 1.000000000000000000 ) ) ;
#229 = DATE_AND_TIME ( #167, #173 ) ;
#230 = APPROVAL_PERSON_ORGANIZATION ( #343, #380, #202 ) ;
#231 = VERTEX_POINT ( 'NONE', #35 ) ;
#232 = FACE_OUTER_BOUND ( 'NONE', #172, .T. ) ;
#233 = CC_DESIGN_PERSON_AND_ORGANIZATION_ASSIGNMENT ( #291, #198, ( #126 ) ) ;
#234 = CARTESIAN_POINT ( 'NONE',  ( 0.000000000000000000, 0.000000000000000000, 130.0000000000000000 ) ) ;
#235 = ADVANCED_BREP_SHAPE_REPRESENTATION ( '57f1', ( #128, #184 ), #377 ) ;
#236 = FACE_OUTER_BOUND ( 'NONE', #337, .T. ) ;
#237 = EDGE_CURVE ( 'NONE', #13, #231, #323, .T. ) ;
#238 = DIRECTION ( 'NONE',  ( -0.000000000000000000, -0.000000000000000000, -1.000000000000000000 ) ) ;
#239 = CARTESIAN_POINT ( 'NONE',  ( 0.000000000000000000, 0.000000000000000000, 130.0000000000000000 ) ) ;
#240 = DIRECTION ( 'NONE',  ( 1.000000000000000000, 0.000000000000000000, 0.000000000000000000 ) ) ;
#241 = ORIENTED_EDGE ( 'NONE', *, *, #104, .F. ) ;
#242 = CIRCLE ( 'NONE', #155, 2.000000000000000000 ) ;
#243 = VERTEX_POINT ( 'NONE', #175 ) ;
#244 = DIRECTION ( 'NONE',  ( 1.000000000000000000, 0.000000000000000000, 0.000000000000000000 ) ) ;
#245 = VERTEX_POINT ( 'NONE', #93 ) ;
#246 = ADVANCED_FACE ( 'NONE', ( #294, #5 ), #122, .T. ) ;
#247 = AXIS2_PLACEMENT_3D ( 'NONE', #191, #38, #244 ) ;
#248 = FACE_BOUND ( 'NONE', #106, .T. ) ;
#249 = ORIENTED_EDGE ( 'NONE', *, *, #52, .F. ) ;
#250 = PLANE ( 'NONE',  #210 ) ;
#251 = EDGE_CURVE ( 'NONE', #363, #16, #324, .T. ) ;
#252 = DIRECTION ( 'NONE',  ( 0.000000000000000000, 0.000000000000000000, 1.000000000000000000 ) ) ;
#253 = AXIS2_PLACEMENT_3D ( 'NONE', #97, #148, #296 ) ;
#254 = CALENDAR_DATE ( 2022, 8, 7 ) ;
#255 = ORIENTED_EDGE ( 'NONE', *, *, #174, .F. ) ;
#256 = COORDINATED_UNIVERSAL_TIME_OFFSET ( 1, 0, .AHEAD. ) ;
#257 = CARTESIAN_POINT ( 'NONE',  ( 0.000000000000000000, 0.000000000000000000, 0.000000000000000000 ) ) ;
#258 = ADVANCED_FACE ( 'NONE', ( #94 ), #325, .T. ) ;
#259 = APPROVAL_STATUS ( 'not_yet_approved' ) ;
#260 = ORIENTED_EDGE ( 'NONE', *, *, #37, .T. ) ;
#261 = PRODUCT_DEFINITION ( 'NEZNÁMÝ', '', #279, #67 ) ;
#262 = AXIS2_PLACEMENT_3D ( 'NONE', #44, #132, #240 ) ;
#263 = VERTEX_POINT ( 'NONE', #276 ) ;
#264 = PRODUCT_RELATED_PRODUCT_CATEGORY ( 'detail', '', ( #149 ) ) ;
#265 = DIRECTION ( 'NONE',  ( -0.000000000000000000, -0.000000000000000000, -1.000000000000000000 ) ) ;
#266 = DIRECTION ( 'NONE',  ( 1.000000000000000000, 0.000000000000000000, 0.000000000000000000 ) ) ;
#267 = DIRECTION ( 'NONE',  ( 1.000000000000000000, 0.000000000000000000, -0.000000000000000000 ) ) ;
#268 = CARTESIAN_POINT ( 'NONE',  ( 0.000000000000000000, 0.000000000000000000, 130.0000000000000000 ) ) ;
#269 = CARTESIAN_POINT ( 'NONE',  ( 2.000000000000000000, 2.449293598294706414E-16, 0.000000000000000000 ) ) ;
#270 = EDGE_CURVE ( 'NONE', #13, #307, #322, .T. ) ;
#271 = DIRECTION ( 'NONE',  ( -0.000000000000000000, -0.000000000000000000, -1.000000000000000000 ) ) ;
#272 = CC_DESIGN_SECURITY_CLASSIFICATION ( #126, ( #279 ) ) ;
#273 = APPLICATION_PROTOCOL_DEFINITION ( 'international standard', 'config_control_design', 1994, #215 ) ;
#274 = ORIENTED_EDGE ( 'NONE', *, *, #37, .F. ) ;
#275 = ORIENTED_EDGE ( 'NONE', *, *, #289, .F. ) ;
#276 = CARTESIAN_POINT ( 'NONE',  ( 4.500000000000000888, 0.000000000000000000, 5.000000000000002665 ) ) ;
#277 = ORIENTED_EDGE ( 'NONE', *, *, #65, .F. ) ;
#278 = AXIS2_PLACEMENT_3D ( 'NONE', #268, #3, #293 ) ;
#279 = PRODUCT_DEFINITION_FORMATION_WITH_SPECIFIED_SOURCE ( 'LIBOVOLNÝ', '', #149, .NOT_KNOWN. ) ;
#280 = ORIENTED_EDGE ( 'NONE', *, *, #177, .T. ) ;
#281 = ADVANCED_FACE ( 'NONE', ( #248, #366 ), #250, .T. ) ;
#282 = PERSON_AND_ORGANIZATION ( #329, #147 ) ;
#283 = APPROVAL_DATE_TIME ( #378, #380 ) ;
#284 = ORIENTED_EDGE ( 'NONE', *, *, #219, .T. ) ;
#285 = LOCAL_TIME ( 17, 32, 19.00000000000000000, #288 ) ;
#286 = SHAPE_DEFINITION_REPRESENTATION ( #81, #235 ) ;
#287 = CARTESIAN_POINT ( 'NONE',  ( 0.000000000000000000, 0.000000000000000000, 5.500000000000005329 ) ) ;
#288 = COORDINATED_UNIVERSAL_TIME_OFFSET ( 1, 0, .AHEAD. ) ;
#289 = EDGE_CURVE ( 'NONE', #365, #243, #300, .T. ) ;
#290 = CARTESIAN_POINT ( 'NONE',  ( 0.000000000000000000, 0.000000000000000000, 130.0000000000000000 ) ) ;
#291 = PERSON_AND_ORGANIZATION ( #329, #147 ) ;
#292 = FACE_BOUND ( 'NONE', #216, .T. ) ;
#293 = DIRECTION ( 'NONE',  ( -1.000000000000000000, 0.000000000000000000, 0.000000000000000000 ) ) ;
#294 = FACE_BOUND ( 'NONE', #40, .T. ) ;
#295 = DIRECTION ( 'NONE',  ( -0.000000000000000000, -0.000000000000000000, -1.000000000000000000 ) ) ;
#296 = DIRECTION ( 'NONE',  ( -1.000000000000000000, 0.000000000000000000, 0.000000000000000000 ) ) ;
#297 = AXIS2_PLACEMENT_3D ( 'NONE', #327, #150, #266 ) ;
#298 = CARTESIAN_POINT ( 'NONE',  ( -7.000000000000000000, 0.000000000000000000, 5.000000000000000000 ) ) ;
#299 = CC_DESIGN_DATE_AND_TIME_ASSIGNMENT ( #19, #137, ( #261 ) ) ;
#300 = LINE ( 'NONE', #185, #360 ) ;
#301 = CARTESIAN_POINT ( 'NONE',  ( -2.000000000000000000, 0.000000000000000000, 130.0000000000000000 ) ) ;
#302 = AXIS2_PLACEMENT_3D ( 'NONE', #212, #295, #96 ) ;
#303 = ORIENTED_EDGE ( 'NONE', *, *, #103, .F. ) ;
#304 = CIRCLE ( 'NONE', #79, 7.000000000000000000 ) ;
#305 = ADVANCED_FACE ( 'NONE', ( #105 ), #55, .F. ) ;
#306 = ORIENTED_EDGE ( 'NONE', *, *, #119, .T. ) ;
#307 = VERTEX_POINT ( 'NONE', #182 ) ;
#308 = DIRECTION ( 'NONE',  ( 1.000000000000000000, 0.000000000000000000, -0.000000000000000000 ) ) ;
#309 = EDGE_CURVE ( 'NONE', #365, #363, #352, .T. ) ;
#310 = ORIENTED_EDGE ( 'NONE', *, *, #289, .T. ) ;
#311 = AXIS2_PLACEMENT_3D ( 'NONE', #125, #64, #70 ) ;
#312 = AXIS2_PLACEMENT_3D ( 'NONE', #178, #124, #356 ) ;
#313 = CALENDAR_DATE ( 2022, 8, 7 ) ;
#314 = VECTOR ( 'NONE', #110, 1000.000000000000000 ) ;
#315 = FACE_OUTER_BOUND ( 'NONE', #99, .T. ) ;
#316 = APPROVAL_STATUS ( 'not_yet_approved' ) ;
#317 = DIRECTION ( 'NONE',  ( 1.000000000000000000, 0.000000000000000000, 0.000000000000000000 ) ) ;
#318 = DIRECTION ( 'NONE',  ( 1.000000000000000000, 0.000000000000000000, -0.000000000000000000 ) ) ;
#319 = CARTESIAN_POINT ( 'NONE',  ( 0.000000000000000000, 0.000000000000000000, 0.000000000000000000 ) ) ;
#320 = DIRECTION ( 'NONE',  ( 0.000000000000000000, 0.000000000000000000, 1.000000000000000000 ) ) ;
#321 = CIRCLE ( 'NONE', #297, 4.500000000000000888 ) ;
#322 = CIRCLE ( 'NONE', #262, 7.000000000000000000 ) ;
#323 = LINE ( 'NONE', #298, #48 ) ;
#324 = LINE ( 'NONE', #2, #217 ) ;
#325 = CYLINDRICAL_SURFACE ( 'NONE', #346, 7.000000000000000000 ) ;
#326 = CC_DESIGN_PERSON_AND_ORGANIZATION_ASSIGNMENT ( #24, #223, ( #149 ) ) ;
#327 = CARTESIAN_POINT ( 'NONE',  ( 0.000000000000000000, 0.000000000000000000, 5.000000000000000000 ) ) ;
#328 = CC_DESIGN_APPROVAL ( #59, ( #279 ) ) ;
#329 = PERSON ( 'NEURÈENÝ', 'NEURÈENÝ', 'NEURÈENÝ', ('NEURÈENÝ'), ('NEURÈENÝ'), ('NEURÈENÝ') ) ;
#330 = DIRECTION ( 'NONE',  ( 0.000000000000000000, 0.000000000000000000, 1.000000000000000000 ) ) ;
#331 = CIRCLE ( 'NONE', #120, 0.5000000000000004441 ) ;
#332 = ORIENTED_EDGE ( 'NONE', *, *, #309, .F. ) ;
#333 = VERTEX_POINT ( 'NONE', #76 ) ;
#334 = ORIENTED_EDGE ( 'NONE', *, *, #33, .T. ) ;
#335 = ORIENTED_EDGE ( 'NONE', *, *, #119, .F. ) ;
#336 = DIRECTION ( 'NONE',  ( -1.000000000000000000, 0.000000000000000000, 0.000000000000000000 ) ) ;
#337 = EDGE_LOOP ( 'NONE', ( #249, #159, #284, #372 ) ) ;
#338 = LOCAL_TIME ( 17, 32, 19.00000000000000000, #111 ) ;
#339 = PERSON_AND_ORGANIZATION_ROLE ( 'creator' ) ;
#340 = CARTESIAN_POINT ( 'NONE',  ( 0.000000000000000000, 0.000000000000000000, 130.0000000000000000 ) ) ;
#341 = PERSON_AND_ORGANIZATION ( #329, #147 ) ;
#342 = ORIENTED_EDGE ( 'NONE', *, *, #270, .F. ) ;
#343 = PERSON_AND_ORGANIZATION ( #329, #147 ) ;
#344 = DIRECTION ( 'NONE',  ( 1.000000000000000000, 0.000000000000000000, 0.000000000000000000 ) ) ;
#345 = AXIS2_PLACEMENT_3D ( 'NONE', #239, #121, #208 ) ;
#346 = AXIS2_PLACEMENT_3D ( 'NONE', #15, #220, #336 ) ;
#347 = APPROVAL_DATE_TIME ( #229, #68 ) ;
#348 = CYLINDRICAL_SURFACE ( 'NONE', #189, 2.000000000000000000 ) ;
#349 = ADVANCED_FACE ( 'NONE', ( #74 ), #109, .F. ) ;
#350 = CARTESIAN_POINT ( 'NONE',  ( 4.500000000000000888, 0.000000000000000000, 5.500000000000005329 ) ) ;
#351 = CARTESIAN_POINT ( 'NONE',  ( 2.000000000000000000, 2.449293598294706414E-16, 130.0000000000000000 ) ) ;
#352 = CIRCLE ( 'NONE', #117, 4.000000000000000000 ) ;
#353 = CARTESIAN_POINT ( 'NONE',  ( 0.000000000000000000, 0.000000000000000000, 5.000000000000000000 ) ) ;
#354 = CARTESIAN_POINT ( 'NONE',  ( -2.000000000000000000, 0.000000000000000000, 130.0000000000000000 ) ) ;
#355 = AXIS2_PLACEMENT_3D ( 'NONE', #340, #83, #51 ) ;
#356 = DIRECTION ( 'NONE',  ( 1.000000000000000000, 0.000000000000000000, 0.000000000000000000 ) ) ;
#357 = CC_DESIGN_DATE_AND_TIME_ASSIGNMENT ( #50, #165, ( #126 ) ) ;
#358 = CARTESIAN_POINT ( 'NONE',  ( -2.000000000000000000, 0.000000000000000000, 0.000000000000000000 ) ) ;
#359 = LOCAL_TIME ( 17, 32, 19.00000000000000000, #169 ) ;
#360 = VECTOR ( 'NONE', #271, 1000.000000000000000 ) ;
#361 = CIRCLE ( 'NONE', #197, 7.000000000000000000 ) ;
#362 = DIRECTION ( 'NONE',  ( 1.000000000000000000, 0.000000000000000000, 0.000000000000000000 ) ) ;
#363 = VERTEX_POINT ( 'NONE', #187 ) ;
#364 = CARTESIAN_POINT ( 'NONE',  ( -4.000000000000000000, 0.000000000000000000, 130.0000000000000000 ) ) ;
#365 = VERTEX_POINT ( 'NONE', #364 ) ;
#366 = FACE_OUTER_BOUND ( 'NONE', #47, .T. ) ;
#367 = DIRECTION ( 'NONE',  ( 1.000000000000000000, 0.000000000000000000, 0.000000000000000000 ) ) ;
#368 = DIRECTION ( 'NONE',  ( 1.000000000000000000, 0.000000000000000000, 0.000000000000000000 ) ) ;
#369 = AXIS2_PLACEMENT_3D ( 'NONE', #381, #330, #152 ) ;
#370 = AXIS2_PLACEMENT_3D ( 'NONE', #234, #238, #209 ) ;
#371 = APPROVAL_DATE_TIME ( #164, #59 ) ;
#372 = ORIENTED_EDGE ( 'NONE', *, *, #237, .F. ) ;
#373 = ORIENTED_EDGE ( 'NONE', *, *, #52, .T. ) ;
#374 = PERSON_AND_ORGANIZATION ( #329, #147 ) ;
#375 = ORIENTED_EDGE ( 'NONE', *, *, #18, .T. ) ;
#376 = EDGE_CURVE ( 'NONE', #199, #146, #41, .T. ) ;
#377 =( GEOMETRIC_REPRESENTATION_CONTEXT ( 3 ) GLOBAL_UNCERTAINTY_ASSIGNED_CONTEXT ( ( #176 ) ) GLOBAL_UNIT_ASSIGNED_CONTEXT ( ( #162, #8, #12 ) ) REPRESENTATION_CONTEXT ( 'NONE', 'WORKASPACE' ) );
#378 = DATE_AND_TIME ( #254, #359 ) ;
#379 = CARTESIAN_POINT ( 'NONE',  ( 0.000000000000000000, 0.000000000000000000, 0.000000000000000000 ) ) ;
#380 = APPROVAL ( #82, 'NEURÈENÝ' ) ;
#381 = CARTESIAN_POINT ( 'NONE',  ( 0.000000000000000000, 0.000000000000000000, 5.500000000000005329 ) ) ;
ENDSEC;
END-ISO-10303-21;
