ISO-10303-21;
HEADER;
FILE_DESCRIPTION (( 'STEP AP203' ),
    '1' );
FILE_NAME ('51b2.STEP',
    '2022-07-08T14:57:07',
    ( '' ),
    ( '' ),
    'SwSTEP 2.0',
    'SolidWorks 2019',
    '' );
FILE_SCHEMA (( 'CONFIG_CONTROL_DESIGN' ));
ENDSEC;

DATA;
#1 = FACE_BOUND ( 'NONE', #304, .T. ) ;
#2 = AXIS2_PLACEMENT_3D ( 'NONE', #182, #306, #159 ) ;
#3 = SHAPE_DEFINITION_REPRESENTATION ( #217, #254 ) ;
#4 = CARTESIAN_POINT ( 'NONE',  ( -3.000000000000000444, 0.000000000000000000, 355.0000000000000000 ) ) ;
#5 = CARTESIAN_POINT ( 'NONE',  ( 3.000000000000000444, 3.673940397442060361E-16, 355.0000000000000000 ) ) ;
#6 = PERSON_AND_ORGANIZATION_ROLE ( 'creator' ) ;
#7 = DIRECTION ( 'NONE',  ( -0.000000000000000000, -0.000000000000000000, -1.000000000000000000 ) ) ;
#8 = DIRECTION ( 'NONE',  ( 1.000000000000000000, 0.000000000000000000, 0.000000000000000000 ) ) ;
#9 = CARTESIAN_POINT ( 'NONE',  ( 0.000000000000000000, 0.000000000000000000, 355.0000000000000000 ) ) ;
#10 = CARTESIAN_POINT ( 'NONE',  ( 0.000000000000000000, 0.000000000000000000, 0.000000000000000000 ) ) ;
#11 = CIRCLE ( 'NONE', #225, 8.000000000000000000 ) ;
#12 = APPROVAL ( #343, 'NEURÈENÝ' ) ;
#13 = DIRECTION ( 'NONE',  ( 1.000000000000000000, 0.000000000000000000, 0.000000000000000000 ) ) ;
#14 = DIRECTION ( 'NONE',  ( 1.224646799147353207E-16, 1.000000000000000000, -0.000000000000000000 ) ) ;
#15 = AXIS2_PLACEMENT_3D ( 'NONE', #267, #7, #86 ) ;
#16 = ORIENTED_EDGE ( 'NONE', *, *, #59, .T. ) ;
#17 = EDGE_LOOP ( 'NONE', ( #189, #144, #46, #142 ) ) ;
#18 =( LENGTH_UNIT ( ) NAMED_UNIT ( * ) SI_UNIT ( .MILLI., .METRE. ) );
#19 = VERTEX_POINT ( 'NONE', #115 ) ;
#20 = PERSON_AND_ORGANIZATION ( #100, #234 ) ;
#21 = ADVANCED_FACE ( 'NONE', ( #1, #232 ), #290, .T. ) ;
#22 = ORIENTED_EDGE ( 'NONE', *, *, #352, .T. ) ;
#23 = VERTEX_POINT ( 'NONE', #58 ) ;
#24 = CARTESIAN_POINT ( 'NONE',  ( -8.000000000000000000, 0.000000000000000000, 5.000000000000000000 ) ) ;
#25 = DATE_AND_TIME ( #175, #69 ) ;
#26 = DIRECTION ( 'NONE',  ( -1.000000000000000000, 0.000000000000000000, 0.000000000000000000 ) ) ;
#27 = LOCAL_TIME ( 16, 57, 7.000000000000000000, #79 ) ;
#28 = COORDINATED_UNIVERSAL_TIME_OFFSET ( 1, 0, .AHEAD. ) ;
#29 = ORIENTED_EDGE ( 'NONE', *, *, #116, .T. ) ;
#30 = EDGE_LOOP ( 'NONE', ( #224, #140 ) ) ;
#31 = CC_DESIGN_PERSON_AND_ORGANIZATION_ASSIGNMENT ( #20, #103, ( #220 ) ) ;
#32 = DIRECTION ( 'NONE',  ( -1.000000000000000000, 0.000000000000000000, 0.000000000000000000 ) ) ;
#33 = DIRECTION ( 'NONE',  ( 1.000000000000000000, 0.000000000000000000, -0.000000000000000000 ) ) ;
#34 = DIRECTION ( 'NONE',  ( -0.000000000000000000, -0.000000000000000000, -1.000000000000000000 ) ) ;
#35 = CARTESIAN_POINT ( 'NONE',  ( 0.000000000000000000, 0.000000000000000000, 0.000000000000000000 ) ) ;
#36 =( GEOMETRIC_REPRESENTATION_CONTEXT ( 3 ) GLOBAL_UNCERTAINTY_ASSIGNED_CONTEXT ( ( #294 ) ) GLOBAL_UNIT_ASSIGNED_CONTEXT ( ( #18, #255, #76 ) ) REPRESENTATION_CONTEXT ( 'NONE', 'WORKASPACE' ) );
#37 = CIRCLE ( 'NONE', #204, 3.000000000000000444 ) ;
#38 = FACE_OUTER_BOUND ( 'NONE', #315, .T. ) ;
#39 = APPLICATION_CONTEXT ( 'configuration controlled 3d designs of mechanical parts and assemblies' ) ;
#40 = CIRCLE ( 'NONE', #310, 5.000000000000000000 ) ;
#41 = CC_DESIGN_PERSON_AND_ORGANIZATION_ASSIGNMENT ( #296, #359, ( #205 ) ) ;
#42 = VERTEX_POINT ( 'NONE', #176 ) ;
#43 = CC_DESIGN_APPROVAL ( #151, ( #205 ) ) ;
#44 = VECTOR ( 'NONE', #96, 1000.000000000000000 ) ;
#45 = DIRECTION ( 'NONE',  ( 1.000000000000000000, 0.000000000000000000, 0.000000000000000000 ) ) ;
#46 = ORIENTED_EDGE ( 'NONE', *, *, #135, .T. ) ;
#47 = CALENDAR_DATE ( 2022, 8, 7 ) ;
#48 = EDGE_LOOP ( 'NONE', ( #287, #317 ) ) ;
#49 = ADVANCED_FACE ( 'NONE', ( #325 ), #297, .T. ) ;
#50 = CARTESIAN_POINT ( 'NONE',  ( 0.000000000000000000, 0.000000000000000000, 5.000000000000000000 ) ) ;
#51 = EDGE_LOOP ( 'NONE', ( #163, #295, #284, #102 ) ) ;
#52 = APPROVAL_DATE_TIME ( #25, #151 ) ;
#53 = ORIENTED_EDGE ( 'NONE', *, *, #351, .T. ) ;
#54 = FACE_OUTER_BOUND ( 'NONE', #51, .T. ) ;
#55 = CYLINDRICAL_SURFACE ( 'NONE', #208, 8.000000000000000000 ) ;
#56 = DIRECTION ( 'NONE',  ( 0.000000000000000000, 0.000000000000000000, 1.000000000000000000 ) ) ;
#57 = VECTOR ( 'NONE', #34, 1000.000000000000000 ) ;
#58 = CARTESIAN_POINT ( 'NONE',  ( -8.000000000000000000, 0.000000000000000000, 0.000000000000000000 ) ) ;
#59 = EDGE_CURVE ( 'NONE', #321, #371, #112, .T. ) ;
#60 = CIRCLE ( 'NONE', #113, 0.5000000000000004441 ) ;
#61 = DIRECTION ( 'NONE',  ( 0.000000000000000000, 0.000000000000000000, -1.000000000000000000 ) ) ;
#62 = APPLICATION_CONTEXT ( 'configuration controlled 3d designs of mechanical parts and assemblies' ) ;
#63 = LOCAL_TIME ( 16, 57, 7.000000000000000000, #218 ) ;
#64 = CARTESIAN_POINT ( 'NONE',  ( 3.000000000000000444, 3.673940397442060361E-16, 0.000000000000000000 ) ) ;
#65 = AXIS2_PLACEMENT_3D ( 'NONE', #247, #67, #155 ) ;
#66 = FACE_OUTER_BOUND ( 'NONE', #73, .T. ) ;
#67 = DIRECTION ( 'NONE',  ( -0.000000000000000000, -0.000000000000000000, -1.000000000000000000 ) ) ;
#68 = CARTESIAN_POINT ( 'NONE',  ( -5.500000000000000000, 6.735557395310442023E-16, 5.000000000000002665 ) ) ;
#69 = LOCAL_TIME ( 16, 57, 7.000000000000000000, #28 ) ;
#70 = DIRECTION ( 'NONE',  ( 0.000000000000000000, 0.000000000000000000, 1.000000000000000000 ) ) ;
#71 = EDGE_CURVE ( 'NONE', #319, #166, #266, .T. ) ;
#72 = PERSON_AND_ORGANIZATION ( #100, #234 ) ;
#73 = EDGE_LOOP ( 'NONE', ( #378, #350, #345, #75 ) ) ;
#74 = DIRECTION ( 'NONE',  ( 1.000000000000000000, 0.000000000000000000, 0.000000000000000000 ) ) ;
#75 = ORIENTED_EDGE ( 'NONE', *, *, #335, .T. ) ;
#76 =( NAMED_UNIT ( * ) SI_UNIT ( $, .STERADIAN. ) SOLID_ANGLE_UNIT ( ) );
#77 = ORIENTED_EDGE ( 'NONE', *, *, #336, .T. ) ;
#78 = EDGE_CURVE ( 'NONE', #371, #321, #380, .T. ) ;
#79 = COORDINATED_UNIVERSAL_TIME_OFFSET ( 1, 0, .AHEAD. ) ;
#80 = EDGE_LOOP ( 'NONE', ( #222, #289 ) ) ;
#81 = AXIS2_PLACEMENT_3D ( 'NONE', #241, #171, #361 ) ;
#82 = ORIENTED_EDGE ( 'NONE', *, *, #210, .T. ) ;
#83 = DIRECTION ( 'NONE',  ( 0.000000000000000000, -1.000000000000000000, 0.000000000000000000 ) ) ;
#84 = CC_DESIGN_PERSON_AND_ORGANIZATION_ASSIGNMENT ( #114, #122, ( #300 ) ) ;
#85 = CARTESIAN_POINT ( 'NONE',  ( 0.000000000000000000, 0.000000000000000000, 355.0000000000000000 ) ) ;
#86 = DIRECTION ( 'NONE',  ( -1.000000000000000000, 0.000000000000000000, 0.000000000000000000 ) ) ;
#87 = CARTESIAN_POINT ( 'NONE',  ( 0.000000000000000000, 0.000000000000000000, 355.0000000000000000 ) ) ;
#88 = EDGE_CURVE ( 'NONE', #111, #42, #202, .T. ) ;
#89 = CC_DESIGN_DATE_AND_TIME_ASSIGNMENT ( #268, #293, ( #205 ) ) ;
#90 = PLANE ( 'NONE',  #231 ) ;
#91 = AXIS2_PLACEMENT_3D ( 'NONE', #322, #203, #239 ) ;
#92 = DIRECTION ( 'NONE',  ( 0.000000000000000000, 0.000000000000000000, -1.000000000000000000 ) ) ;
#93 = CARTESIAN_POINT ( 'NONE',  ( 0.000000000000000000, 0.000000000000000000, 355.0000000000000000 ) ) ;
#94 = AXIS2_PLACEMENT_3D ( 'NONE', #93, #215, #362 ) ;
#95 = CARTESIAN_POINT ( 'NONE',  ( 5.000000000000000000, 6.123233995736766282E-16, 355.0000000000000000 ) ) ;
#96 = DIRECTION ( 'NONE',  ( -0.000000000000000000, -0.000000000000000000, -1.000000000000000000 ) ) ;
#97 = CARTESIAN_POINT ( 'NONE',  ( -8.000000000000000000, 0.000000000000000000, 5.000000000000000000 ) ) ;
#98 = ADVANCED_FACE ( 'NONE', ( #323, #121 ), #90, .T. ) ;
#99 = CC_DESIGN_PERSON_AND_ORGANIZATION_ASSIGNMENT ( #72, #110, ( #187 ) ) ;
#100 = PERSON ( 'NEURÈENÝ', 'NEURÈENÝ', 'NEURÈENÝ', ('NEURÈENÝ'), ('NEURÈENÝ'), ('NEURÈENÝ') ) ;
#101 = APPROVAL_ROLE ( '' ) ;
#102 = ORIENTED_EDGE ( 'NONE', *, *, #116, .F. ) ;
#103 = PERSON_AND_ORGANIZATION_ROLE ( 'creator' ) ;
#104 = VERTEX_POINT ( 'NONE', #24 ) ;
#105 = DIRECTION ( 'NONE',  ( 0.000000000000000000, 0.000000000000000000, 1.000000000000000000 ) ) ;
#106 = EDGE_LOOP ( 'NONE', ( #170, #168, #253, #109 ) ) ;
#107 = CIRCLE ( 'NONE', #94, 5.000000000000000000 ) ;
#108 = MECHANICAL_CONTEXT ( 'NONE', #39, 'mechanical' ) ;
#109 = ORIENTED_EDGE ( 'NONE', *, *, #135, .F. ) ;
#110 = PERSON_AND_ORGANIZATION_ROLE ( 'design_owner' ) ;
#111 = VERTEX_POINT ( 'NONE', #174 ) ;
#112 = CIRCLE ( 'NONE', #81, 5.500000000000000000 ) ;
#113 = AXIS2_PLACEMENT_3D ( 'NONE', #354, #83, #356 ) ;
#114 = PERSON_AND_ORGANIZATION ( #100, #234 ) ;
#115 = CARTESIAN_POINT ( 'NONE',  ( 5.000000000000000000, 6.123233995736766282E-16, 5.500000000000005329 ) ) ;
#116 = EDGE_CURVE ( 'NONE', #252, #282, #206, .T. ) ;
#117 = AXIS2_PLACEMENT_3D ( 'NONE', #186, #277, #13 ) ;
#118 = CALENDAR_DATE ( 2022, 8, 7 ) ;
#119 = DIRECTION ( 'NONE',  ( 0.000000000000000000, 0.000000000000000000, 1.000000000000000000 ) ) ;
#120 = MANIFOLD_SOLID_BREP ( 'Odebrat vysunutím3', #177 ) ;
#121 = FACE_OUTER_BOUND ( 'NONE', #30, .T. ) ;
#122 = PERSON_AND_ORGANIZATION_ROLE ( 'design_supplier' ) ;
#123 = ADVANCED_FACE ( 'NONE', ( #237 ), #55, .T. ) ;
#124 = CARTESIAN_POINT ( 'NONE',  ( 0.000000000000000000, 0.000000000000000000, 5.000000000000000000 ) ) ;
#125 = VERTEX_POINT ( 'NONE', #173 ) ;
#126 = VECTOR ( 'NONE', #303, 1000.000000000000000 ) ;
#127 = DIRECTION ( 'NONE',  ( -1.000000000000000000, 0.000000000000000000, 0.000000000000000000 ) ) ;
#128 = DIRECTION ( 'NONE',  ( 0.000000000000000000, 0.000000000000000000, 1.000000000000000000 ) ) ;
#129 = EDGE_CURVE ( 'NONE', #282, #19, #40, .T. ) ;
#130 = CARTESIAN_POINT ( 'NONE',  ( 0.000000000000000000, 0.000000000000000000, 5.500000000000005329 ) ) ;
#131 = CIRCLE ( 'NONE', #337, 8.000000000000000000 ) ;
#132 = LINE ( 'NONE', #95, #57 ) ;
#133 = EDGE_CURVE ( 'NONE', #166, #42, #349, .T. ) ;
#134 = DIRECTION ( 'NONE',  ( 1.000000000000000000, 0.000000000000000000, 0.000000000000000000 ) ) ;
#135 = EDGE_CURVE ( 'NONE', #19, #371, #60, .T. ) ;
#136 = VECTOR ( 'NONE', #328, 1000.000000000000000 ) ;
#137 = CARTESIAN_POINT ( 'NONE',  ( 0.000000000000000000, 0.000000000000000000, 5.000000000000000000 ) ) ;
#138 = AXIS2_PLACEMENT_3D ( 'NONE', #137, #188, #313 ) ;
#139 = DIRECTION ( 'NONE',  ( 0.000000000000000000, 0.000000000000000000, 1.000000000000000000 ) ) ;
#140 = ORIENTED_EDGE ( 'NONE', *, *, #209, .T. ) ;
#141 = DIRECTION ( 'NONE',  ( 1.000000000000000000, 0.000000000000000000, 0.000000000000000000 ) ) ;
#142 = ORIENTED_EDGE ( 'NONE', *, *, #59, .F. ) ;
#143 = ORIENTED_EDGE ( 'NONE', *, *, #279, .F. ) ;
#144 = ORIENTED_EDGE ( 'NONE', *, *, #228, .F. ) ;
#145 = ORIENTED_EDGE ( 'NONE', *, *, #377, .T. ) ;
#146 = ADVANCED_FACE ( 'NONE', ( #54 ), #235, .T. ) ;
#147 = APPROVAL_DATE_TIME ( #190, #243 ) ;
#148 = DIRECTION ( 'NONE',  ( 1.000000000000000000, 0.000000000000000000, 0.000000000000000000 ) ) ;
#149 = AXIS2_PLACEMENT_3D ( 'NONE', #283, #376, #141 ) ;
#150 = DIRECTION ( 'NONE',  ( 1.000000000000000000, 0.000000000000000000, 0.000000000000000000 ) ) ;
#151 = APPROVAL ( #320, 'NEURÈENÝ' ) ;
#152 = EDGE_LOOP ( 'NONE', ( #227, #200, #77, #357 ) ) ;
#153 = DIRECTION ( 'NONE',  ( 1.000000000000000000, 0.000000000000000000, -0.000000000000000000 ) ) ;
#154 = CARTESIAN_POINT ( 'NONE',  ( 0.000000000000000000, 0.000000000000000000, 0.000000000000000000 ) ) ;
#155 = DIRECTION ( 'NONE',  ( -1.000000000000000000, 0.000000000000000000, 0.000000000000000000 ) ) ;
#156 = CC_DESIGN_DATE_AND_TIME_ASSIGNMENT ( #368, #249, ( #220 ) ) ;
#157 = DIRECTION ( 'NONE',  ( 0.000000000000000000, 0.000000000000000000, 1.000000000000000000 ) ) ;
#158 = TOROIDAL_SURFACE ( 'NONE', #149, 5.500000000000000000, 0.5000000000000000000 ) ;
#159 = DIRECTION ( 'NONE',  ( 1.000000000000000000, 0.000000000000000000, 0.000000000000000000 ) ) ;
#160 = VECTOR ( 'NONE', #61, 1000.000000000000000 ) ;
#161 = APPLICATION_PROTOCOL_DEFINITION ( 'international standard', 'config_control_design', 1994, #39 ) ;
#162 = DATE_AND_TIME ( #47, #27 ) ;
#163 = ORIENTED_EDGE ( 'NONE', *, *, #209, .F. ) ;
#164 = FACE_OUTER_BOUND ( 'NONE', #17, .T. ) ;
#165 = EDGE_LOOP ( 'NONE', ( #340, #198, #82, #230 ) ) ;
#166 = VERTEX_POINT ( 'NONE', #64 ) ;
#167 = CARTESIAN_POINT ( 'NONE',  ( 0.000000000000000000, 0.000000000000000000, 355.0000000000000000 ) ) ;
#168 = ORIENTED_EDGE ( 'NONE', *, *, #326, .T. ) ;
#169 = ADVANCED_FACE ( 'NONE', ( #302, #246 ), #365, .F. ) ;
#170 = ORIENTED_EDGE ( 'NONE', *, *, #129, .F. ) ;
#171 = DIRECTION ( 'NONE',  ( -0.000000000000000000, -0.000000000000000000, -1.000000000000000000 ) ) ;
#172 = PERSON_AND_ORGANIZATION ( #100, #234 ) ;
#173 = CARTESIAN_POINT ( 'NONE',  ( 8.000000000000000000, 9.797174393178825657E-16, 5.000000000000000000 ) ) ;
#174 = CARTESIAN_POINT ( 'NONE',  ( -3.000000000000000444, 0.000000000000000000, 355.0000000000000000 ) ) ;
#175 = CALENDAR_DATE ( 2022, 8, 7 ) ;
#176 = CARTESIAN_POINT ( 'NONE',  ( -3.000000000000000444, 0.000000000000000000, 0.000000000000000000 ) ) ;
#177 = CLOSED_SHELL ( 'NONE', ( #379, #280, #146, #49, #123, #21, #169, #199, #98, #363, #269 ) ) ;
#178 = CARTESIAN_POINT ( 'NONE',  ( 0.000000000000000000, 0.000000000000000000, 5.000000000000000000 ) ) ;
#179 = CC_DESIGN_APPROVAL ( #243, ( #300 ) ) ;
#180 = CIRCLE ( 'NONE', #314, 5.000000000000000000 ) ;
#181 = LINE ( 'NONE', #97, #44 ) ;
#182 = CARTESIAN_POINT ( 'NONE',  ( 0.000000000000000000, 0.000000000000000000, 5.500000000000005329 ) ) ;
#183 = DIRECTION ( 'NONE',  ( 1.000000000000000000, 0.000000000000000000, 0.000000000000000000 ) ) ;
#184 = CARTESIAN_POINT ( 'NONE',  ( -5.500000000000000000, 6.735557395310442023E-16, 5.500000000000005329 ) ) ;
#185 = AXIS2_PLACEMENT_3D ( 'NONE', #184, #14, #248 ) ;
#186 = CARTESIAN_POINT ( 'NONE',  ( 0.000000000000000000, 0.000000000000000000, 355.0000000000000000 ) ) ;
#187 = PRODUCT ( '51b2', '51b2', '', ( #108 ) ) ;
#188 = DIRECTION ( 'NONE',  ( 0.000000000000000000, 0.000000000000000000, 1.000000000000000000 ) ) ;
#189 = ORIENTED_EDGE ( 'NONE', *, *, #326, .F. ) ;
#190 = DATE_AND_TIME ( #221, #63 ) ;
#191 = EDGE_CURVE ( 'NONE', #342, #19, #132, .T. ) ;
#192 = LOCAL_TIME ( 16, 57, 7.000000000000000000, #197 ) ;
#193 = VERTEX_POINT ( 'NONE', #214 ) ;
#194 = TOROIDAL_SURFACE ( 'NONE', #2, 5.500000000000000000, 0.5000000000000000000 ) ;
#195 = DIRECTION ( 'NONE',  ( 0.000000000000000000, 0.000000000000000000, -1.000000000000000000 ) ) ;
#196 = ORIENTED_EDGE ( 'NONE', *, *, #71, .T. ) ;
#197 = COORDINATED_UNIVERSAL_TIME_OFFSET ( 1, 0, .AHEAD. ) ;
#198 = ORIENTED_EDGE ( 'NONE', *, *, #377, .F. ) ;
#199 = ADVANCED_FACE ( 'NONE', ( #38 ), #272, .T. ) ;
#200 = ORIENTED_EDGE ( 'NONE', *, *, #307, .T. ) ;
#201 = CARTESIAN_POINT ( 'NONE',  ( 0.000000000000000000, 0.000000000000000000, 5.500000000000005329 ) ) ;
#202 = LINE ( 'NONE', #4, #298 ) ;
#203 = DIRECTION ( 'NONE',  ( -0.000000000000000000, -0.000000000000000000, -1.000000000000000000 ) ) ;
#204 = AXIS2_PLACEMENT_3D ( 'NONE', #367, #216, #309 ) ;
#205 = SECURITY_CLASSIFICATION ( '', '', #238 ) ;
#206 = LINE ( 'NONE', #330, #136 ) ;
#207 = DIRECTION ( 'NONE',  ( 1.000000000000000000, 0.000000000000000000, -0.000000000000000000 ) ) ;
#208 = AXIS2_PLACEMENT_3D ( 'NONE', #178, #299, #32 ) ;
#209 = EDGE_CURVE ( 'NONE', #342, #252, #180, .T. ) ;
#210 = EDGE_CURVE ( 'NONE', #104, #23, #181, .T. ) ;
#211 = CARTESIAN_POINT ( 'NONE',  ( 0.000000000000000000, 0.000000000000000000, 355.0000000000000000 ) ) ;
#212 = APPROVAL_PERSON_ORGANIZATION ( #172, #151, #236 ) ;
#213 = APPROVAL_PERSON_ORGANIZATION ( #346, #12, #316 ) ;
#214 = CARTESIAN_POINT ( 'NONE',  ( 8.000000000000000000, 9.797174393178825657E-16, 0.000000000000000000 ) ) ;
#215 = DIRECTION ( 'NONE',  ( 0.000000000000000000, 0.000000000000000000, 1.000000000000000000 ) ) ;
#216 = DIRECTION ( 'NONE',  ( -0.000000000000000000, -0.000000000000000000, -1.000000000000000000 ) ) ;
#217 = PRODUCT_DEFINITION_SHAPE ( 'NONE', 'NONE',  #220 ) ;
#218 = COORDINATED_UNIVERSAL_TIME_OFFSET ( 1, 0, .AHEAD. ) ;
#219 = EDGE_LOOP ( 'NONE', ( #145, #22 ) ) ;
#220 = PRODUCT_DEFINITION ( 'NEZNÁMÝ', '', #300, #360 ) ;
#221 = CALENDAR_DATE ( 2022, 8, 7 ) ;
#222 = ORIENTED_EDGE ( 'NONE', *, *, #351, .F. ) ;
#223 = CIRCLE ( 'NONE', #374, 8.000000000000000000 ) ;
#224 = ORIENTED_EDGE ( 'NONE', *, *, #279, .T. ) ;
#225 = AXIS2_PLACEMENT_3D ( 'NONE', #154, #271, #8 ) ;
#226 = EDGE_CURVE ( 'NONE', #23, #193, #131, .T. ) ;
#227 = ORIENTED_EDGE ( 'NONE', *, *, #352, .F. ) ;
#228 = EDGE_CURVE ( 'NONE', #19, #282, #275, .T. ) ;
#229 = PERSON_AND_ORGANIZATION ( #100, #234 ) ;
#230 = ORIENTED_EDGE ( 'NONE', *, *, #226, .T. ) ;
#231 = AXIS2_PLACEMENT_3D ( 'NONE', #87, #56, #207 ) ;
#232 = FACE_OUTER_BOUND ( 'NONE', #219, .T. ) ;
#233 = APPROVAL_PERSON_ORGANIZATION ( #229, #243, #101 ) ;
#234 = ORGANIZATION ( 'NEURÈENÝ', 'NEURÈENÝ', '' ) ;
#235 = CYLINDRICAL_SURFACE ( 'NONE', #324, 5.000000000000000000 ) ;
#236 = APPROVAL_ROLE ( '' ) ;
#237 = FACE_OUTER_BOUND ( 'NONE', #165, .T. ) ;
#238 = SECURITY_CLASSIFICATION_LEVEL ( 'unclassified' ) ;
#239 = DIRECTION ( 'NONE',  ( 1.000000000000000000, 0.000000000000000000, 0.000000000000000000 ) ) ;
#240 = CIRCLE ( 'NONE', #327, 3.000000000000000444 ) ;
#241 = CARTESIAN_POINT ( 'NONE',  ( 0.000000000000000000, 0.000000000000000000, 5.000000000000000000 ) ) ;
#242 = CC_DESIGN_PERSON_AND_ORGANIZATION_ASSIGNMENT ( #260, #6, ( #300 ) ) ;
#243 = APPROVAL ( #348, 'NEURÈENÝ' ) ;
#244 = CARTESIAN_POINT ( 'NONE',  ( 5.000000000000000000, 6.123233995736766282E-16, 355.0000000000000000 ) ) ;
#245 = CARTESIAN_POINT ( 'NONE',  ( -5.000000000000000000, 0.000000000000000000, 355.0000000000000000 ) ) ;
#246 = FACE_OUTER_BOUND ( 'NONE', #285, .T. ) ;
#247 = CARTESIAN_POINT ( 'NONE',  ( 0.000000000000000000, 0.000000000000000000, 355.0000000000000000 ) ) ;
#248 = DIRECTION ( 'NONE',  ( -1.000000000000000000, 1.224646799147351482E-16, 0.000000000000000000 ) ) ;
#249 = DATE_TIME_ROLE ( 'creation_date' ) ;
#250 = AXIS2_PLACEMENT_3D ( 'NONE', #167, #195, #286 ) ;
#251 = DIRECTION ( 'NONE',  ( 1.000000000000000000, 0.000000000000000000, 0.000000000000000000 ) ) ;
#252 = VERTEX_POINT ( 'NONE', #245 ) ;
#253 = ORIENTED_EDGE ( 'NONE', *, *, #78, .F. ) ;
#254 = ADVANCED_BREP_SHAPE_REPRESENTATION ( '51b2', ( #120, #355 ), #36 ) ;
#255 =( NAMED_UNIT ( * ) PLANE_ANGLE_UNIT ( ) SI_UNIT ( $, .RADIAN. ) );
#256 = PRODUCT_RELATED_PRODUCT_CATEGORY ( 'detail', '', ( #187 ) ) ;
#257 = ORIENTED_EDGE ( 'NONE', *, *, #129, .T. ) ;
#258 = CALENDAR_DATE ( 2022, 8, 7 ) ;
#259 = ORIENTED_EDGE ( 'NONE', *, *, #133, .T. ) ;
#260 = PERSON_AND_ORGANIZATION ( #100, #234 ) ;
#261 = DIRECTION ( 'NONE',  ( 0.000000000000000000, 0.000000000000000000, 1.000000000000000000 ) ) ;
#262 = COORDINATED_UNIVERSAL_TIME_OFFSET ( 1, 0, .AHEAD. ) ;
#263 = CARTESIAN_POINT ( 'NONE',  ( 0.000000000000000000, 0.000000000000000000, 0.000000000000000000 ) ) ;
#264 = CC_DESIGN_SECURITY_CLASSIFICATION ( #205, ( #300 ) ) ;
#265 = CIRCLE ( 'NONE', #185, 0.5000000000000004441 ) ;
#266 = LINE ( 'NONE', #5, #160 ) ;
#267 = CARTESIAN_POINT ( 'NONE',  ( 0.000000000000000000, 0.000000000000000000, 5.000000000000000000 ) ) ;
#268 = DATE_AND_TIME ( #118, #353 ) ;
#269 = ADVANCED_FACE ( 'NONE', ( #66 ), #364, .F. ) ;
#270 = ORIENTED_EDGE ( 'NONE', *, *, #78, .T. ) ;
#271 = DIRECTION ( 'NONE',  ( 0.000000000000000000, 0.000000000000000000, 1.000000000000000000 ) ) ;
#272 = CYLINDRICAL_SURFACE ( 'NONE', #65, 5.000000000000000000 ) ;
#273 = DIRECTION ( 'NONE',  ( 0.000000000000000000, 0.000000000000000000, 1.000000000000000000 ) ) ;
#274 = AXIS2_PLACEMENT_3D ( 'NONE', #9, #92, #127 ) ;
#275 = CIRCLE ( 'NONE', #344, 5.000000000000000000 ) ;
#276 = CARTESIAN_POINT ( 'NONE',  ( 8.000000000000000000, 9.797174393178825657E-16, 5.000000000000000000 ) ) ;
#277 = DIRECTION ( 'NONE',  ( 0.000000000000000000, 0.000000000000000000, 1.000000000000000000 ) ) ;
#278 = AXIS2_PLACEMENT_3D ( 'NONE', #263, #381, #150 ) ;
#279 = EDGE_CURVE ( 'NONE', #252, #342, #107, .T. ) ;
#280 = ADVANCED_FACE ( 'NONE', ( #334 ), #194, .F. ) ;
#281 = CIRCLE ( 'NONE', #138, 8.000000000000000000 ) ;
#282 = VERTEX_POINT ( 'NONE', #305 ) ;
#283 = CARTESIAN_POINT ( 'NONE',  ( 0.000000000000000000, 0.000000000000000000, 5.500000000000005329 ) ) ;
#284 = ORIENTED_EDGE ( 'NONE', *, *, #228, .T. ) ;
#285 = EDGE_LOOP ( 'NONE', ( #372, #347 ) ) ;
#286 = DIRECTION ( 'NONE',  ( -1.000000000000000000, 0.000000000000000000, 0.000000000000000000 ) ) ;
#287 = ORIENTED_EDGE ( 'NONE', *, *, #335, .F. ) ;
#288 = AXIS2_PLACEMENT_3D ( 'NONE', #35, #273, #33 ) ;
#289 = ORIENTED_EDGE ( 'NONE', *, *, #308, .F. ) ;
#290 = PLANE ( 'NONE',  #329 ) ;
#291 = DIRECTION ( 'NONE',  ( -0.000000000000000000, -0.000000000000000000, -1.000000000000000000 ) ) ;
#292 = CC_DESIGN_APPROVAL ( #12, ( #220 ) ) ;
#293 = DATE_TIME_ROLE ( 'classification_date' ) ;
#294 = UNCERTAINTY_MEASURE_WITH_UNIT (LENGTH_MEASURE( 1.000000000000000082E-05 ), #18, 'distance_accuracy_value', 'NONE');
#295 = ORIENTED_EDGE ( 'NONE', *, *, #191, .T. ) ;
#296 = PERSON_AND_ORGANIZATION ( #100, #234 ) ;
#297 = CYLINDRICAL_SURFACE ( 'NONE', #15, 8.000000000000000000 ) ;
#298 = VECTOR ( 'NONE', #358, 1000.000000000000000 ) ;
#299 = DIRECTION ( 'NONE',  ( -0.000000000000000000, -0.000000000000000000, -1.000000000000000000 ) ) ;
#300 = PRODUCT_DEFINITION_FORMATION_WITH_SPECIFIED_SOURCE ( 'LIBOVOLNÝ', '', #187, .NOT_KNOWN. ) ;
#301 = CIRCLE ( 'NONE', #117, 3.000000000000000444 ) ;
#302 = FACE_BOUND ( 'NONE', #48, .T. ) ;
#303 = DIRECTION ( 'NONE',  ( -0.000000000000000000, -0.000000000000000000, -1.000000000000000000 ) ) ;
#304 = EDGE_LOOP ( 'NONE', ( #270, #16 ) ) ;
#305 = CARTESIAN_POINT ( 'NONE',  ( -5.000000000000000000, 0.000000000000000000, 5.500000000000005329 ) ) ;
#306 = DIRECTION ( 'NONE',  ( 0.000000000000000000, 0.000000000000000000, 1.000000000000000000 ) ) ;
#307 = EDGE_CURVE ( 'NONE', #125, #193, #332, .T. ) ;
#308 = EDGE_CURVE ( 'NONE', #319, #111, #301, .T. ) ;
#309 = DIRECTION ( 'NONE',  ( 1.000000000000000000, 0.000000000000000000, 0.000000000000000000 ) ) ;
#310 = AXIS2_PLACEMENT_3D ( 'NONE', #201, #261, #148 ) ;
#311 = FACE_OUTER_BOUND ( 'NONE', #312, .T. ) ;
#312 = EDGE_LOOP ( 'NONE', ( #53, #196, #259, #369 ) ) ;
#313 = DIRECTION ( 'NONE',  ( 1.000000000000000000, 0.000000000000000000, 0.000000000000000000 ) ) ;
#314 = AXIS2_PLACEMENT_3D ( 'NONE', #366, #157, #134 ) ;
#315 = EDGE_LOOP ( 'NONE', ( #375, #143, #29, #257 ) ) ;
#316 = APPROVAL_ROLE ( '' ) ;
#317 = ORIENTED_EDGE ( 'NONE', *, *, #133, .F. ) ;
#318 = CYLINDRICAL_SURFACE ( 'NONE', #250, 3.000000000000000444 ) ;
#319 = VERTEX_POINT ( 'NONE', #333 ) ;
#320 = APPROVAL_STATUS ( 'not_yet_approved' ) ;
#321 = VERTEX_POINT ( 'NONE', #68 ) ;
#322 = CARTESIAN_POINT ( 'NONE',  ( 0.000000000000000000, 0.000000000000000000, 5.000000000000000000 ) ) ;
#323 = FACE_BOUND ( 'NONE', #80, .T. ) ;
#324 = AXIS2_PLACEMENT_3D ( 'NONE', #85, #291, #26 ) ;
#325 = FACE_OUTER_BOUND ( 'NONE', #152, .T. ) ;
#326 = EDGE_CURVE ( 'NONE', #282, #321, #265, .T. ) ;
#327 = AXIS2_PLACEMENT_3D ( 'NONE', #211, #331, #45 ) ;
#328 = DIRECTION ( 'NONE',  ( -0.000000000000000000, -0.000000000000000000, -1.000000000000000000 ) ) ;
#329 = AXIS2_PLACEMENT_3D ( 'NONE', #124, #119, #153 ) ;
#330 = CARTESIAN_POINT ( 'NONE',  ( -5.000000000000000000, 0.000000000000000000, 355.0000000000000000 ) ) ;
#331 = DIRECTION ( 'NONE',  ( 0.000000000000000000, 0.000000000000000000, 1.000000000000000000 ) ) ;
#332 = LINE ( 'NONE', #276, #126 ) ;
#333 = CARTESIAN_POINT ( 'NONE',  ( 3.000000000000000444, 3.673940397442060361E-16, 355.0000000000000000 ) ) ;
#334 = FACE_OUTER_BOUND ( 'NONE', #106, .T. ) ;
#335 = EDGE_CURVE ( 'NONE', #42, #166, #37, .T. ) ;
#336 = EDGE_CURVE ( 'NONE', #193, #23, #11, .T. ) ;
#337 = AXIS2_PLACEMENT_3D ( 'NONE', #10, #70, #338 ) ;
#338 = DIRECTION ( 'NONE',  ( 1.000000000000000000, 0.000000000000000000, 0.000000000000000000 ) ) ;
#339 = APPLICATION_PROTOCOL_DEFINITION ( 'international standard', 'config_control_design', 1994, #62 ) ;
#340 = ORIENTED_EDGE ( 'NONE', *, *, #307, .F. ) ;
#341 = CARTESIAN_POINT ( 'NONE',  ( 5.500000000000000000, 0.000000000000000000, 5.000000000000002665 ) ) ;
#342 = VERTEX_POINT ( 'NONE', #244 ) ;
#343 = APPROVAL_STATUS ( 'not_yet_approved' ) ;
#344 = AXIS2_PLACEMENT_3D ( 'NONE', #130, #128, #183 ) ;
#345 = ORIENTED_EDGE ( 'NONE', *, *, #88, .T. ) ;
#346 = PERSON_AND_ORGANIZATION ( #100, #234 ) ;
#347 = ORIENTED_EDGE ( 'NONE', *, *, #336, .F. ) ;
#348 = APPROVAL_STATUS ( 'not_yet_approved' ) ;
#349 = CIRCLE ( 'NONE', #278, 3.000000000000000444 ) ;
#350 = ORIENTED_EDGE ( 'NONE', *, *, #308, .T. ) ;
#351 = EDGE_CURVE ( 'NONE', #111, #319, #240, .T. ) ;
#352 = EDGE_CURVE ( 'NONE', #125, #104, #281, .T. ) ;
#353 = LOCAL_TIME ( 16, 57, 7.000000000000000000, #262 ) ;
#354 = CARTESIAN_POINT ( 'NONE',  ( 5.500000000000000000, 0.000000000000000000, 5.500000000000005329 ) ) ;
#355 = AXIS2_PLACEMENT_3D ( 'NONE', #373, #139, #251 ) ;
#356 = DIRECTION ( 'NONE',  ( 0.000000000000000000, 0.000000000000000000, -1.000000000000000000 ) ) ;
#357 = ORIENTED_EDGE ( 'NONE', *, *, #210, .F. ) ;
#358 = DIRECTION ( 'NONE',  ( 0.000000000000000000, 0.000000000000000000, -1.000000000000000000 ) ) ;
#359 = PERSON_AND_ORGANIZATION_ROLE ( 'classification_officer' ) ;
#360 = DESIGN_CONTEXT ( 'detailed design', #62, 'design' ) ;
#361 = DIRECTION ( 'NONE',  ( 1.000000000000000000, 0.000000000000000000, 0.000000000000000000 ) ) ;
#362 = DIRECTION ( 'NONE',  ( 1.000000000000000000, 0.000000000000000000, 0.000000000000000000 ) ) ;
#363 = ADVANCED_FACE ( 'NONE', ( #164 ), #158, .F. ) ;
#364 = CYLINDRICAL_SURFACE ( 'NONE', #274, 3.000000000000000444 ) ;
#365 = PLANE ( 'NONE',  #288 ) ;
#366 = CARTESIAN_POINT ( 'NONE',  ( 0.000000000000000000, 0.000000000000000000, 355.0000000000000000 ) ) ;
#367 = CARTESIAN_POINT ( 'NONE',  ( 0.000000000000000000, 0.000000000000000000, 0.000000000000000000 ) ) ;
#368 = DATE_AND_TIME ( #258, #192 ) ;
#369 = ORIENTED_EDGE ( 'NONE', *, *, #88, .F. ) ;
#370 = APPROVAL_DATE_TIME ( #162, #12 ) ;
#371 = VERTEX_POINT ( 'NONE', #341 ) ;
#372 = ORIENTED_EDGE ( 'NONE', *, *, #226, .F. ) ;
#373 = CARTESIAN_POINT ( 'NONE',  ( 0.000000000000000000, 0.000000000000000000, 0.000000000000000000 ) ) ;
#374 = AXIS2_PLACEMENT_3D ( 'NONE', #50, #105, #74 ) ;
#375 = ORIENTED_EDGE ( 'NONE', *, *, #191, .F. ) ;
#376 = DIRECTION ( 'NONE',  ( 0.000000000000000000, 0.000000000000000000, 1.000000000000000000 ) ) ;
#377 = EDGE_CURVE ( 'NONE', #104, #125, #223, .T. ) ;
#378 = ORIENTED_EDGE ( 'NONE', *, *, #71, .F. ) ;
#379 = ADVANCED_FACE ( 'NONE', ( #311 ), #318, .F. ) ;
#380 = CIRCLE ( 'NONE', #91, 5.500000000000000000 ) ;
#381 = DIRECTION ( 'NONE',  ( -0.000000000000000000, -0.000000000000000000, -1.000000000000000000 ) ) ;
ENDSEC;
END-ISO-10303-21;
