ISO-10303-21;
HEADER;
FILE_DESCRIPTION (( 'STEP AP203' ),
    '1' );
FILE_NAME ('c86e.STEP',
    '2022-07-08T15:55:11',
    ( '' ),
    ( '' ),
    'SwSTEP 2.0',
    'SolidWorks 2019',
    '' );
FILE_SCHEMA (( 'CONFIG_CONTROL_DESIGN' ));
ENDSEC;

DATA;
#1 = CARTESIAN_POINT ( 'NONE',  ( 0.000000000000000000, 0.000000000000000000, 3.299999999999997158 ) ) ;
#2 = ADVANCED_BREP_SHAPE_REPRESENTATION ( 'c86e', ( #251, #283 ), #188 ) ;
#3 = DIRECTION ( 'NONE',  ( -0.000000000000000000, -0.000000000000000000, -1.000000000000000000 ) ) ;
#4 = CARTESIAN_POINT ( 'NONE',  ( 4.000000000000000000, 4.898587196589412829E-16, 0.000000000000000000 ) ) ;
#5 = FACE_OUTER_BOUND ( 'NONE', #243, .T. ) ;
#6 = DIRECTION ( 'NONE',  ( 0.000000000000000000, 0.000000000000000000, 1.000000000000000000 ) ) ;
#7 = AXIS2_PLACEMENT_3D ( 'NONE', #226, #348, #57 ) ;
#8 =( NAMED_UNIT ( * ) SI_UNIT ( $, .STERADIAN. ) SOLID_ANGLE_UNIT ( ) );
#9 = ORIENTED_EDGE ( 'NONE', *, *, #232, .F. ) ;
#10 = EDGE_CURVE ( 'NONE', #75, #259, #344, .T. ) ;
#11 = DIRECTION ( 'NONE',  ( 0.000000000000000000, 0.000000000000000000, 1.000000000000000000 ) ) ;
#12 = EDGE_LOOP ( 'NONE', ( #105, #375, #123, #301 ) ) ;
#13 = AXIS2_PLACEMENT_3D ( 'NONE', #225, #346, #202 ) ;
#14 = DIRECTION ( 'NONE',  ( 1.000000000000000000, 0.000000000000000000, 0.000000000000000000 ) ) ;
#15 = CIRCLE ( 'NONE', #92, 4.000000000000000000 ) ;
#16 = PERSON_AND_ORGANIZATION_ROLE ( 'design_owner' ) ;
#17 = ORIENTED_EDGE ( 'NONE', *, *, #339, .T. ) ;
#18 = COORDINATED_UNIVERSAL_TIME_OFFSET ( 1, 0, .AHEAD. ) ;
#19 = FACE_BOUND ( 'NONE', #335, .T. ) ;
#20 = ORIENTED_EDGE ( 'NONE', *, *, #232, .T. ) ;
#21 = CIRCLE ( 'NONE', #288, 1.000000000000000000 ) ;
#22 = APPROVAL_ROLE ( '' ) ;
#23 = ORIENTED_EDGE ( 'NONE', *, *, #85, .F. ) ;
#24 = ADVANCED_FACE ( 'NONE', ( #310 ), #46, .F. ) ;
#25 = EDGE_LOOP ( 'NONE', ( #366, #161, #106, #158 ) ) ;
#26 = LINE ( 'NONE', #222, #172 ) ;
#27 = LINE ( 'NONE', #349, #156 ) ;
#28 = APPROVAL ( #340, 'NEURÈENÝ' ) ;
#29 = DIRECTION ( 'NONE',  ( 0.000000000000000000, 0.000000000000000000, 1.000000000000000000 ) ) ;
#30 = DIRECTION ( 'NONE',  ( 1.000000000000000000, 0.000000000000000000, 0.000000000000000000 ) ) ;
#31 = VECTOR ( 'NONE', #108, 1000.000000000000000 ) ;
#32 = APPROVAL_PERSON_ORGANIZATION ( #337, #203, #77 ) ;
#33 = DIRECTION ( 'NONE',  ( 0.000000000000000000, 0.000000000000000000, 1.000000000000000000 ) ) ;
#34 = ADVANCED_FACE ( 'NONE', ( #19, #135 ), #286, .F. ) ;
#35 = MECHANICAL_CONTEXT ( 'NONE', #180, 'mechanical' ) ;
#36 = ORIENTED_EDGE ( 'NONE', *, *, #182, .T. ) ;
#37 = DESIGN_CONTEXT ( 'detailed design', #131, 'design' ) ;
#38 = VERTEX_POINT ( 'NONE', #218 ) ;
#39 = ORIENTED_EDGE ( 'NONE', *, *, #254, .F. ) ;
#40 = CARTESIAN_POINT ( 'NONE',  ( 0.000000000000000000, 0.000000000000000000, 163.0000000000000000 ) ) ;
#41 = ORIENTED_EDGE ( 'NONE', *, *, #204, .T. ) ;
#42 = CIRCLE ( 'NONE', #73, 4.000000000000000000 ) ;
#43 = DIRECTION ( 'NONE',  ( 0.000000000000000000, 0.000000000000000000, -1.000000000000000000 ) ) ;
#44 = VERTEX_POINT ( 'NONE', #374 ) ;
#45 = DATE_AND_TIME ( #314, #81 ) ;
#46 = CYLINDRICAL_SURFACE ( 'NONE', #292, 1.000000000000000000 ) ;
#47 = CIRCLE ( 'NONE', #378, 4.000000000000000000 ) ;
#48 = PERSON_AND_ORGANIZATION ( #327, #230 ) ;
#49 = CARTESIAN_POINT ( 'NONE',  ( 0.000000000000000000, 0.000000000000000000, 3.299999999999997158 ) ) ;
#50 = APPROVAL_ROLE ( '' ) ;
#51 = FACE_OUTER_BOUND ( 'NONE', #152, .T. ) ;
#52 = FACE_OUTER_BOUND ( 'NONE', #163, .T. ) ;
#53 = AXIS2_PLACEMENT_3D ( 'NONE', #196, #72, #256 ) ;
#54 = VECTOR ( 'NONE', #329, 1000.000000000000000 ) ;
#55 = DIRECTION ( 'NONE',  ( 1.000000000000000000, 0.000000000000000000, 0.000000000000000000 ) ) ;
#56 = DIRECTION ( 'NONE',  ( 0.000000000000000000, 0.000000000000000000, 1.000000000000000000 ) ) ;
#57 = DIRECTION ( 'NONE',  ( 0.000000000000000000, 0.000000000000000000, -1.000000000000000000 ) ) ;
#58 = EDGE_CURVE ( 'NONE', #259, #129, #26, .T. ) ;
#59 = DIRECTION ( 'NONE',  ( -1.000000000000000000, 0.000000000000000000, 0.000000000000000000 ) ) ;
#60 = AXIS2_PLACEMENT_3D ( 'NONE', #167, #355, #59 ) ;
#61 = CARTESIAN_POINT ( 'NONE',  ( -4.000000000000000000, 0.000000000000000000, 0.000000000000000000 ) ) ;
#62 = ORIENTED_EDGE ( 'NONE', *, *, #321, .F. ) ;
#63 = APPLICATION_PROTOCOL_DEFINITION ( 'international standard', 'config_control_design', 1994, #180 ) ;
#64 = EDGE_LOOP ( 'NONE', ( #150, #20 ) ) ;
#65 = DIRECTION ( 'NONE',  ( -0.000000000000000000, -0.000000000000000000, -1.000000000000000000 ) ) ;
#66 = LOCAL_TIME ( 17, 55, 11.00000000000000000, #160 ) ;
#67 =( LENGTH_UNIT ( ) NAMED_UNIT ( * ) SI_UNIT ( .MILLI., .METRE. ) );
#68 = ADVANCED_FACE ( 'NONE', ( #80 ), #138, .F. ) ;
#69 = VERTEX_POINT ( 'NONE', #312 ) ;
#70 = DIRECTION ( 'NONE',  ( 1.000000000000000000, 0.000000000000000000, -0.000000000000000000 ) ) ;
#71 = EDGE_LOOP ( 'NONE', ( #306, #361, #185, #278 ) ) ;
#72 = DIRECTION ( 'NONE',  ( 0.000000000000000000, 0.000000000000000000, 1.000000000000000000 ) ) ;
#73 = AXIS2_PLACEMENT_3D ( 'NONE', #97, #181, #14 ) ;
#74 = DATE_AND_TIME ( #279, #320 ) ;
#75 = VERTEX_POINT ( 'NONE', #285 ) ;
#76 = ADVANCED_FACE ( 'NONE', ( #137, #51 ), #258, .T. ) ;
#77 = APPROVAL_ROLE ( '' ) ;
#78 = ORIENTED_EDGE ( 'NONE', *, *, #95, .T. ) ;
#79 = SECURITY_CLASSIFICATION_LEVEL ( 'unclassified' ) ;
#80 = FACE_OUTER_BOUND ( 'NONE', #216, .T. ) ;
#81 = LOCAL_TIME ( 17, 55, 11.00000000000000000, #18 ) ;
#82 = PERSON_AND_ORGANIZATION ( #327, #230 ) ;
#83 = DIRECTION ( 'NONE',  ( 0.000000000000000000, 0.000000000000000000, 1.000000000000000000 ) ) ;
#84 = FACE_OUTER_BOUND ( 'NONE', #25, .T. ) ;
#85 = EDGE_CURVE ( 'NONE', #44, #343, #223, .T. ) ;
#86 = DIRECTION ( 'NONE',  ( -1.000000000000000000, 0.000000000000000000, 0.000000000000000000 ) ) ;
#87 = DIRECTION ( 'NONE',  ( 0.000000000000000000, 0.000000000000000000, -1.000000000000000000 ) ) ;
#88 = CC_DESIGN_APPROVAL ( #28, ( #347 ) ) ;
#89 = EDGE_CURVE ( 'NONE', #38, #379, #100, .T. ) ;
#90 = DIRECTION ( 'NONE',  ( 1.000000000000000000, 0.000000000000000000, 0.000000000000000000 ) ) ;
#91 = DIRECTION ( 'NONE',  ( -0.000000000000000000, -0.000000000000000000, -1.000000000000000000 ) ) ;
#92 = AXIS2_PLACEMENT_3D ( 'NONE', #109, #173, #115 ) ;
#93 = EDGE_CURVE ( 'NONE', #121, #343, #27, .T. ) ;
#94 = EDGE_LOOP ( 'NONE', ( #176, #126, #78, #62 ) ) ;
#95 = EDGE_CURVE ( 'NONE', #129, #274, #228, .T. ) ;
#96 = CARTESIAN_POINT ( 'NONE',  ( -2.000000000000000000, 0.000000000000000000, 3.299999999999997158 ) ) ;
#97 = CARTESIAN_POINT ( 'NONE',  ( 0.000000000000000000, 0.000000000000000000, 0.000000000000000000 ) ) ;
#98 = EDGE_CURVE ( 'NONE', #379, #183, #376, .T. ) ;
#99 = PERSON_AND_ORGANIZATION ( #327, #230 ) ;
#100 = LINE ( 'NONE', #219, #350 ) ;
#101 = AXIS2_PLACEMENT_3D ( 'NONE', #298, #360, #333 ) ;
#102 = PERSON_AND_ORGANIZATION_ROLE ( 'design_supplier' ) ;
#103 = EDGE_LOOP ( 'NONE', ( #330, #341 ) ) ;
#104 = SHAPE_DEFINITION_REPRESENTATION ( #247, #2 ) ;
#105 = ORIENTED_EDGE ( 'NONE', *, *, #93, .F. ) ;
#106 = ORIENTED_EDGE ( 'NONE', *, *, #372, .T. ) ;
#107 = AXIS2_PLACEMENT_3D ( 'NONE', #1, #206, #318 ) ;
#108 = DIRECTION ( 'NONE',  ( -0.000000000000000000, -0.000000000000000000, -1.000000000000000000 ) ) ;
#109 = CARTESIAN_POINT ( 'NONE',  ( 0.000000000000000000, 0.000000000000000000, 3.000000000000000000 ) ) ;
#110 = ADVANCED_FACE ( 'NONE', ( #52 ), #229, .T. ) ;
#111 = DIRECTION ( 'NONE',  ( 0.000000000000000000, 0.000000000000000000, 1.000000000000000000 ) ) ;
#112 = ADVANCED_FACE ( 'NONE', ( #287 ), #175, .T. ) ;
#113 = CIRCLE ( 'NONE', #304, 2.000000000000000000 ) ;
#114 = CARTESIAN_POINT ( 'NONE',  ( 0.000000000000000000, 0.000000000000000000, 163.0000000000000000 ) ) ;
#115 = DIRECTION ( 'NONE',  ( 1.000000000000000000, 0.000000000000000000, 0.000000000000000000 ) ) ;
#116 = ADVANCED_FACE ( 'NONE', ( #84 ), #295, .F. ) ;
#117 = CARTESIAN_POINT ( 'NONE',  ( -1.000000000000000000, 0.000000000000000000, 163.0000000000000000 ) ) ;
#118 = DIRECTION ( 'NONE',  ( -0.000000000000000000, -0.000000000000000000, -1.000000000000000000 ) ) ;
#119 = ORIENTED_EDGE ( 'NONE', *, *, #339, .F. ) ;
#120 = CARTESIAN_POINT ( 'NONE',  ( -2.000000000000000000, 0.000000000000000000, 163.0000000000000000 ) ) ;
#121 = VERTEX_POINT ( 'NONE', #170 ) ;
#122 = LINE ( 'NONE', #120, #209 ) ;
#123 = ORIENTED_EDGE ( 'NONE', *, *, #328, .T. ) ;
#124 = AXIS2_PLACEMENT_3D ( 'NONE', #159, #83, #166 ) ;
#125 = DIRECTION ( 'NONE',  ( 0.000000000000000000, 0.000000000000000000, 1.000000000000000000 ) ) ;
#126 = ORIENTED_EDGE ( 'NONE', *, *, #58, .T. ) ;
#127 = AXIS2_PLACEMENT_3D ( 'NONE', #271, #217, #363 ) ;
#128 = COORDINATED_UNIVERSAL_TIME_OFFSET ( 1, 0, .AHEAD. ) ;
#129 = VERTEX_POINT ( 'NONE', #148 ) ;
#130 = VERTEX_POINT ( 'NONE', #293 ) ;
#131 = APPLICATION_CONTEXT ( 'configuration controlled 3d designs of mechanical parts and assemblies' ) ;
#132 = PERSON_AND_ORGANIZATION ( #327, #230 ) ;
#133 = VERTEX_POINT ( 'NONE', #290 ) ;
#134 = CC_DESIGN_DATE_AND_TIME_ASSIGNMENT ( #367, #305, ( #269 ) ) ;
#135 = FACE_OUTER_BOUND ( 'NONE', #364, .T. ) ;
#136 = COORDINATED_UNIVERSAL_TIME_OFFSET ( 1, 0, .AHEAD. ) ;
#137 = FACE_BOUND ( 'NONE', #64, .T. ) ;
#138 = TOROIDAL_SURFACE ( 'NONE', #151, 2.299999999999999822, 0.2999999999999999889 ) ;
#139 = DIRECTION ( 'NONE',  ( 1.000000000000000000, 0.000000000000000000, 0.000000000000000000 ) ) ;
#140 = CIRCLE ( 'NONE', #352, 1.000000000000000000 ) ;
#141 = CARTESIAN_POINT ( 'NONE',  ( 0.000000000000000000, 0.000000000000000000, 163.0000000000000000 ) ) ;
#142 = DIRECTION ( 'NONE',  ( -0.000000000000000000, -0.000000000000000000, -1.000000000000000000 ) ) ;
#143 = CARTESIAN_POINT ( 'NONE',  ( 0.000000000000000000, 0.000000000000000000, 0.000000000000000000 ) ) ;
#144 = CIRCLE ( 'NONE', #253, 1.000000000000000000 ) ;
#145 = AXIS2_PLACEMENT_3D ( 'NONE', #227, #91, #30 ) ;
#146 = FACE_BOUND ( 'NONE', #326, .T. ) ;
#147 = PRODUCT_RELATED_PRODUCT_CATEGORY ( 'detail', '', ( #302 ) ) ;
#148 = CARTESIAN_POINT ( 'NONE',  ( 2.000000000000000000, 2.449293598294706414E-16, 3.299999999999997158 ) ) ;
#149 = ADVANCED_FACE ( 'NONE', ( #351 ), #179, .F. ) ;
#150 = ORIENTED_EDGE ( 'NONE', *, *, #169, .T. ) ;
#151 = AXIS2_PLACEMENT_3D ( 'NONE', #49, #165, #139 ) ;
#152 = EDGE_LOOP ( 'NONE', ( #272, #246 ) ) ;
#153 = CARTESIAN_POINT ( 'NONE',  ( 2.000000000000000000, 2.449293598294706414E-16, 163.0000000000000000 ) ) ;
#154 = ORIENTED_EDGE ( 'NONE', *, *, #98, .F. ) ;
#155 = CC_DESIGN_PERSON_AND_ORGANIZATION_ASSIGNMENT ( #48, #373, ( #199 ) ) ;
#156 = VECTOR ( 'NONE', #87, 1000.000000000000000 ) ;
#157 = CARTESIAN_POINT ( 'NONE',  ( 0.000000000000000000, 0.000000000000000000, 3.000000000000000000 ) ) ;
#158 = ORIENTED_EDGE ( 'NONE', *, *, #328, .F. ) ;
#159 = CARTESIAN_POINT ( 'NONE',  ( 0.000000000000000000, 0.000000000000000000, 0.000000000000000000 ) ) ;
#160 = COORDINATED_UNIVERSAL_TIME_OFFSET ( 1, 0, .AHEAD. ) ;
#161 = ORIENTED_EDGE ( 'NONE', *, *, #93, .T. ) ;
#162 = AXIS2_PLACEMENT_3D ( 'NONE', #143, #33, #291 ) ;
#163 = EDGE_LOOP ( 'NONE', ( #280, #359, #17, #221 ) ) ;
#164 = CALENDAR_DATE ( 2022, 8, 7 ) ;
#165 = DIRECTION ( 'NONE',  ( 0.000000000000000000, 0.000000000000000000, 1.000000000000000000 ) ) ;
#166 = DIRECTION ( 'NONE',  ( 1.000000000000000000, 0.000000000000000000, -0.000000000000000000 ) ) ;
#167 = CARTESIAN_POINT ( 'NONE',  ( 0.000000000000000000, 0.000000000000000000, 163.0000000000000000 ) ) ;
#168 = AXIS2_PLACEMENT_3D ( 'NONE', #265, #56, #55 ) ;
#169 = EDGE_CURVE ( 'NONE', #133, #238, #197, .T. ) ;
#170 = CARTESIAN_POINT ( 'NONE',  ( 1.000000000000000000, 1.224646799147353207E-16, 163.0000000000000000 ) ) ;
#171 = DIRECTION ( 'NONE',  ( 1.000000000000000000, 0.000000000000000000, 0.000000000000000000 ) ) ;
#172 = VECTOR ( 'NONE', #338, 1000.000000000000000 ) ;
#173 = DIRECTION ( 'NONE',  ( 0.000000000000000000, 0.000000000000000000, 1.000000000000000000 ) ) ;
#174 = AXIS2_PLACEMENT_3D ( 'NONE', #262, #111, #171 ) ;
#175 = CYLINDRICAL_SURFACE ( 'NONE', #60, 2.000000000000000000 ) ;
#176 = ORIENTED_EDGE ( 'NONE', *, *, #369, .F. ) ;
#177 = EDGE_CURVE ( 'NONE', #130, #183, #264, .T. ) ;
#178 = PLANE ( 'NONE',  #294 ) ;
#179 = TOROIDAL_SURFACE ( 'NONE', #168, 2.299999999999999822, 0.2999999999999999889 ) ;
#180 = APPLICATION_CONTEXT ( 'configuration controlled 3d designs of mechanical parts and assemblies' ) ;
#181 = DIRECTION ( 'NONE',  ( 0.000000000000000000, 0.000000000000000000, 1.000000000000000000 ) ) ;
#182 = EDGE_CURVE ( 'NONE', #274, #129, #244, .T. ) ;
#183 = VERTEX_POINT ( 'NONE', #4 ) ;
#184 = DIRECTION ( 'NONE',  ( -1.000000000000000000, 0.000000000000000000, 0.000000000000000000 ) ) ;
#185 = ORIENTED_EDGE ( 'NONE', *, *, #169, .F. ) ;
#186 = EDGE_CURVE ( 'NONE', #121, #69, #144, .T. ) ;
#187 = ORIENTED_EDGE ( 'NONE', *, *, #186, .F. ) ;
#188 =( GEOMETRIC_REPRESENTATION_CONTEXT ( 3 ) GLOBAL_UNCERTAINTY_ASSIGNED_CONTEXT ( ( #201 ) ) GLOBAL_UNIT_ASSIGNED_CONTEXT ( ( #67, #210, #8 ) ) REPRESENTATION_CONTEXT ( 'NONE', 'WORKASPACE' ) );
#189 = APPROVAL_PERSON_ORGANIZATION ( #250, #308, #22 ) ;
#190 = APPROVAL_DATE_TIME ( #309, #308 ) ;
#191 = DIRECTION ( 'NONE',  ( -1.000000000000000000, 0.000000000000000000, 0.000000000000000000 ) ) ;
#192 = CC_DESIGN_DATE_AND_TIME_ASSIGNMENT ( #45, #311, ( #347 ) ) ;
#193 = CC_DESIGN_PERSON_AND_ORGANIZATION_ASSIGNMENT ( #132, #16, ( #302 ) ) ;
#194 = EDGE_CURVE ( 'NONE', #69, #121, #21, .T. ) ;
#195 = CALENDAR_DATE ( 2022, 8, 7 ) ;
#196 = CARTESIAN_POINT ( 'NONE',  ( 0.000000000000000000, 0.000000000000000000, 163.0000000000000000 ) ) ;
#197 = CIRCLE ( 'NONE', #313, 2.299999999999999822 ) ;
#198 = CC_DESIGN_APPROVAL ( #308, ( #199 ) ) ;
#199 = PRODUCT_DEFINITION_FORMATION_WITH_SPECIFIED_SOURCE ( 'LIBOVOLNÝ', '', #302, .NOT_KNOWN. ) ;
#200 = COORDINATED_UNIVERSAL_TIME_OFFSET ( 1, 0, .AHEAD. ) ;
#201 = UNCERTAINTY_MEASURE_WITH_UNIT (LENGTH_MEASURE( 1.000000000000000082E-05 ), #67, 'distance_accuracy_value', 'NONE');
#202 = DIRECTION ( 'NONE',  ( 1.000000000000000000, 0.000000000000000000, -0.000000000000000000 ) ) ;
#203 = APPROVAL ( #342, 'NEURÈENÝ' ) ;
#204 = EDGE_CURVE ( 'NONE', #129, #133, #336, .T. ) ;
#205 = CARTESIAN_POINT ( 'NONE',  ( 0.000000000000000000, 0.000000000000000000, 3.000000000000000000 ) ) ;
#206 = DIRECTION ( 'NONE',  ( 0.000000000000000000, 0.000000000000000000, 1.000000000000000000 ) ) ;
#207 = CARTESIAN_POINT ( 'NONE',  ( 4.000000000000000000, 4.898587196589412829E-16, 3.000000000000000000 ) ) ;
#208 = FACE_OUTER_BOUND ( 'NONE', #103, .T. ) ;
#209 = VECTOR ( 'NONE', #242, 1000.000000000000000 ) ;
#210 =( NAMED_UNIT ( * ) PLANE_ANGLE_UNIT ( ) SI_UNIT ( $, .RADIAN. ) );
#211 = LINE ( 'NONE', #117, #54 ) ;
#212 = ORIENTED_EDGE ( 'NONE', *, *, #194, .F. ) ;
#213 = EDGE_CURVE ( 'NONE', #130, #38, #15, .T. ) ;
#214 = CYLINDRICAL_SURFACE ( 'NONE', #101, 4.000000000000000000 ) ;
#215 = DIRECTION ( 'NONE',  ( 0.000000000000000000, 0.000000000000000000, 1.000000000000000000 ) ) ;
#216 = EDGE_LOOP ( 'NONE', ( #39, #357, #41, #9 ) ) ;
#217 = DIRECTION ( 'NONE',  ( 1.224646799147353207E-16, 1.000000000000000000, -0.000000000000000000 ) ) ;
#218 = CARTESIAN_POINT ( 'NONE',  ( -4.000000000000000000, 0.000000000000000000, 3.000000000000000000 ) ) ;
#219 = CARTESIAN_POINT ( 'NONE',  ( -4.000000000000000000, 0.000000000000000000, 3.000000000000000000 ) ) ;
#220 = APPLICATION_PROTOCOL_DEFINITION ( 'international standard', 'config_control_design', 1994, #131 ) ;
#221 = ORIENTED_EDGE ( 'NONE', *, *, #89, .F. ) ;
#222 = CARTESIAN_POINT ( 'NONE',  ( 2.000000000000000000, 2.449293598294706414E-16, 163.0000000000000000 ) ) ;
#223 = CIRCLE ( 'NONE', #249, 1.000000000000000000 ) ;
#224 = PERSON_AND_ORGANIZATION_ROLE ( 'creator' ) ;
#225 = CARTESIAN_POINT ( 'NONE',  ( 0.000000000000000000, 0.000000000000000000, 3.000000000000000000 ) ) ;
#226 = CARTESIAN_POINT ( 'NONE',  ( 2.299999999999999822, 0.000000000000000000, 3.299999999999997158 ) ) ;
#227 = CARTESIAN_POINT ( 'NONE',  ( 0.000000000000000000, 0.000000000000000000, 3.000000000000000000 ) ) ;
#228 = CIRCLE ( 'NONE', #107, 2.000000000000000000 ) ;
#229 = CYLINDRICAL_SURFACE ( 'NONE', #324, 4.000000000000000000 ) ;
#230 = ORGANIZATION ( 'NEURÈENÝ', 'NEURÈENÝ', '' ) ;
#231 = DIRECTION ( 'NONE',  ( 1.000000000000000000, 0.000000000000000000, 0.000000000000000000 ) ) ;
#232 = EDGE_CURVE ( 'NONE', #238, #133, #319, .T. ) ;
#233 = CARTESIAN_POINT ( 'NONE',  ( -2.299999999999999822, 2.816687638038912056E-16, 2.999999999999998668 ) ) ;
#234 = CC_DESIGN_PERSON_AND_ORGANIZATION_ASSIGNMENT ( #276, #224, ( #269 ) ) ;
#235 = CARTESIAN_POINT ( 'NONE',  ( 0.000000000000000000, 0.000000000000000000, 0.000000000000000000 ) ) ;
#236 = AXIS2_PLACEMENT_3D ( 'NONE', #141, #381, #322 ) ;
#237 = DIRECTION ( 'NONE',  ( 1.000000000000000000, 0.000000000000000000, 0.000000000000000000 ) ) ;
#238 = VERTEX_POINT ( 'NONE', #233 ) ;
#239 = ADVANCED_FACE ( 'NONE', ( #146, #208 ), #178, .T. ) ;
#240 = CARTESIAN_POINT ( 'NONE',  ( 0.000000000000000000, 0.000000000000000000, 163.0000000000000000 ) ) ;
#241 = ORIENTED_EDGE ( 'NONE', *, *, #372, .F. ) ;
#242 = DIRECTION ( 'NONE',  ( -0.000000000000000000, -0.000000000000000000, -1.000000000000000000 ) ) ;
#243 = EDGE_LOOP ( 'NONE', ( #282, #371, #325, #270 ) ) ;
#244 = CIRCLE ( 'NONE', #174, 2.000000000000000000 ) ;
#245 = DATE_AND_TIME ( #164, #380 ) ;
#246 = ORIENTED_EDGE ( 'NONE', *, *, #213, .T. ) ;
#247 = PRODUCT_DEFINITION_SHAPE ( 'NONE', 'NONE',  #269 ) ;
#248 = DIRECTION ( 'NONE',  ( -0.000000000000000000, -0.000000000000000000, -1.000000000000000000 ) ) ;
#249 = AXIS2_PLACEMENT_3D ( 'NONE', #315, #248, #368 ) ;
#250 = PERSON_AND_ORGANIZATION ( #327, #230 ) ;
#251 = MANIFOLD_SOLID_BREP ( 'Odebrat vysunutím3', #317 ) ;
#252 = EDGE_LOOP ( 'NONE', ( #332, #281, #296, #36 ) ) ;
#253 = AXIS2_PLACEMENT_3D ( 'NONE', #323, #29, #231 ) ;
#254 = EDGE_CURVE ( 'NONE', #274, #238, #299, .T. ) ;
#255 = CALENDAR_DATE ( 2022, 8, 7 ) ;
#256 = DIRECTION ( 'NONE',  ( 1.000000000000000000, 0.000000000000000000, 0.000000000000000000 ) ) ;
#257 = PERSON_AND_ORGANIZATION ( #327, #230 ) ;
#258 = PLANE ( 'NONE',  #13 ) ;
#259 = VERTEX_POINT ( 'NONE', #153 ) ;
#260 = LOCAL_TIME ( 17, 55, 11.00000000000000000, #136 ) ;
#261 = DIRECTION ( 'NONE',  ( 1.000000000000000000, 0.000000000000000000, 0.000000000000000000 ) ) ;
#262 = CARTESIAN_POINT ( 'NONE',  ( 0.000000000000000000, 0.000000000000000000, 3.299999999999997158 ) ) ;
#263 = CARTESIAN_POINT ( 'NONE',  ( 0.000000000000000000, 0.000000000000000000, 3.000000000000000000 ) ) ;
#264 = LINE ( 'NONE', #207, #31 ) ;
#265 = CARTESIAN_POINT ( 'NONE',  ( 0.000000000000000000, 0.000000000000000000, 3.299999999999997158 ) ) ;
#266 = ADVANCED_FACE ( 'NONE', ( #358 ), #300, .T. ) ;
#267 = DIRECTION ( 'NONE',  ( 1.000000000000000000, 0.000000000000000000, 0.000000000000000000 ) ) ;
#268 = CARTESIAN_POINT ( 'NONE',  ( 1.000000000000000000, 1.224646799147353207E-16, 0.000000000000000000 ) ) ;
#269 = PRODUCT_DEFINITION ( 'NEZNÁMÝ', '', #199, #37 ) ;
#270 = ORIENTED_EDGE ( 'NONE', *, *, #98, .T. ) ;
#271 = CARTESIAN_POINT ( 'NONE',  ( -2.299999999999999822, 2.816687638038912056E-16, 3.299999999999997158 ) ) ;
#272 = ORIENTED_EDGE ( 'NONE', *, *, #289, .T. ) ;
#273 = CARTESIAN_POINT ( 'NONE',  ( 0.000000000000000000, 0.000000000000000000, 0.000000000000000000 ) ) ;
#274 = VERTEX_POINT ( 'NONE', #96 ) ;
#275 = AXIS2_PLACEMENT_3D ( 'NONE', #40, #118, #184 ) ;
#276 = PERSON_AND_ORGANIZATION ( #327, #230 ) ;
#277 = CC_DESIGN_APPROVAL ( #203, ( #269 ) ) ;
#278 = ORIENTED_EDGE ( 'NONE', *, *, #204, .F. ) ;
#279 = CALENDAR_DATE ( 2022, 8, 7 ) ;
#280 = ORIENTED_EDGE ( 'NONE', *, *, #213, .F. ) ;
#281 = ORIENTED_EDGE ( 'NONE', *, *, #10, .F. ) ;
#282 = ORIENTED_EDGE ( 'NONE', *, *, #177, .F. ) ;
#283 = AXIS2_PLACEMENT_3D ( 'NONE', #273, #125, #267 ) ;
#284 = CC_DESIGN_SECURITY_CLASSIFICATION ( #347, ( #199 ) ) ;
#285 = CARTESIAN_POINT ( 'NONE',  ( -2.000000000000000000, 0.000000000000000000, 163.0000000000000000 ) ) ;
#286 = PLANE ( 'NONE',  #124 ) ;
#287 = FACE_OUTER_BOUND ( 'NONE', #94, .T. ) ;
#288 = AXIS2_PLACEMENT_3D ( 'NONE', #114, #354, #90 ) ;
#289 = EDGE_CURVE ( 'NONE', #38, #130, #47, .T. ) ;
#290 = CARTESIAN_POINT ( 'NONE',  ( 2.299999999999999822, 0.000000000000000000, 2.999999999999998668 ) ) ;
#291 = DIRECTION ( 'NONE',  ( 1.000000000000000000, 0.000000000000000000, 0.000000000000000000 ) ) ;
#292 = AXIS2_PLACEMENT_3D ( 'NONE', #307, #43, #191 ) ;
#293 = CARTESIAN_POINT ( 'NONE',  ( 4.000000000000000000, 4.898587196589412829E-16, 3.000000000000000000 ) ) ;
#294 = AXIS2_PLACEMENT_3D ( 'NONE', #303, #6, #70 ) ;
#295 = CYLINDRICAL_SURFACE ( 'NONE', #236, 1.000000000000000000 ) ;
#296 = ORIENTED_EDGE ( 'NONE', *, *, #321, .T. ) ;
#297 = ADVANCED_FACE ( 'NONE', ( #5 ), #214, .T. ) ;
#298 = CARTESIAN_POINT ( 'NONE',  ( 0.000000000000000000, 0.000000000000000000, 3.000000000000000000 ) ) ;
#299 = CIRCLE ( 'NONE', #127, 0.2999999999999999334 ) ;
#300 = CYLINDRICAL_SURFACE ( 'NONE', #275, 2.000000000000000000 ) ;
#301 = ORIENTED_EDGE ( 'NONE', *, *, #85, .T. ) ;
#302 = PRODUCT ( 'c86e', 'c86e', '', ( #35 ) ) ;
#303 = CARTESIAN_POINT ( 'NONE',  ( 0.000000000000000000, 0.000000000000000000, 163.0000000000000000 ) ) ;
#304 = AXIS2_PLACEMENT_3D ( 'NONE', #240, #215, #356 ) ;
#305 = DATE_TIME_ROLE ( 'creation_date' ) ;
#306 = ORIENTED_EDGE ( 'NONE', *, *, #182, .F. ) ;
#307 = CARTESIAN_POINT ( 'NONE',  ( 0.000000000000000000, 0.000000000000000000, 163.0000000000000000 ) ) ;
#308 = APPROVAL ( #370, 'NEURÈENÝ' ) ;
#309 = DATE_AND_TIME ( #255, #66 ) ;
#310 = FACE_OUTER_BOUND ( 'NONE', #12, .T. ) ;
#311 = DATE_TIME_ROLE ( 'classification_date' ) ;
#312 = CARTESIAN_POINT ( 'NONE',  ( -1.000000000000000000, 0.000000000000000000, 163.0000000000000000 ) ) ;
#313 = AXIS2_PLACEMENT_3D ( 'NONE', #263, #142, #261 ) ;
#314 = CALENDAR_DATE ( 2022, 8, 7 ) ;
#315 = CARTESIAN_POINT ( 'NONE',  ( 0.000000000000000000, 0.000000000000000000, 0.000000000000000000 ) ) ;
#316 = DIRECTION ( 'NONE',  ( -0.000000000000000000, -0.000000000000000000, -1.000000000000000000 ) ) ;
#317 = CLOSED_SHELL ( 'NONE', ( #116, #149, #112, #110, #297, #76, #34, #266, #239, #68, #24 ) ) ;
#318 = DIRECTION ( 'NONE',  ( 1.000000000000000000, 0.000000000000000000, 0.000000000000000000 ) ) ;
#319 = CIRCLE ( 'NONE', #145, 2.299999999999999822 ) ;
#320 = LOCAL_TIME ( 17, 55, 11.00000000000000000, #200 ) ;
#321 = EDGE_CURVE ( 'NONE', #75, #274, #122, .T. ) ;
#322 = DIRECTION ( 'NONE',  ( -1.000000000000000000, 0.000000000000000000, 0.000000000000000000 ) ) ;
#323 = CARTESIAN_POINT ( 'NONE',  ( 0.000000000000000000, 0.000000000000000000, 163.0000000000000000 ) ) ;
#324 = AXIS2_PLACEMENT_3D ( 'NONE', #205, #316, #86 ) ;
#325 = ORIENTED_EDGE ( 'NONE', *, *, #89, .T. ) ;
#326 = EDGE_LOOP ( 'NONE', ( #212, #187 ) ) ;
#327 = PERSON ( 'NEURÈENÝ', 'NEURÈENÝ', 'NEURÈENÝ', ('NEURÈENÝ'), ('NEURÈENÝ'), ('NEURÈENÝ') ) ;
#328 = EDGE_CURVE ( 'NONE', #69, #44, #211, .T. ) ;
#329 = DIRECTION ( 'NONE',  ( 0.000000000000000000, 0.000000000000000000, -1.000000000000000000 ) ) ;
#330 = ORIENTED_EDGE ( 'NONE', *, *, #10, .T. ) ;
#331 = DIRECTION ( 'NONE',  ( 1.000000000000000000, 0.000000000000000000, 0.000000000000000000 ) ) ;
#332 = ORIENTED_EDGE ( 'NONE', *, *, #58, .F. ) ;
#333 = DIRECTION ( 'NONE',  ( -1.000000000000000000, 0.000000000000000000, 0.000000000000000000 ) ) ;
#334 = PERSON_AND_ORGANIZATION_ROLE ( 'classification_officer' ) ;
#335 = EDGE_LOOP ( 'NONE', ( #23, #241 ) ) ;
#336 = CIRCLE ( 'NONE', #7, 0.2999999999999999334 ) ;
#337 = PERSON_AND_ORGANIZATION ( #327, #230 ) ;
#338 = DIRECTION ( 'NONE',  ( -0.000000000000000000, -0.000000000000000000, -1.000000000000000000 ) ) ;
#339 = EDGE_CURVE ( 'NONE', #183, #379, #42, .T. ) ;
#340 = APPROVAL_STATUS ( 'not_yet_approved' ) ;
#341 = ORIENTED_EDGE ( 'NONE', *, *, #369, .T. ) ;
#342 = APPROVAL_STATUS ( 'not_yet_approved' ) ;
#343 = VERTEX_POINT ( 'NONE', #268 ) ;
#344 = CIRCLE ( 'NONE', #53, 2.000000000000000000 ) ;
#345 = APPROVAL_DATE_TIME ( #74, #203 ) ;
#346 = DIRECTION ( 'NONE',  ( 0.000000000000000000, 0.000000000000000000, 1.000000000000000000 ) ) ;
#347 = SECURITY_CLASSIFICATION ( '', '', #79 ) ;
#348 = DIRECTION ( 'NONE',  ( 0.000000000000000000, -1.000000000000000000, 0.000000000000000000 ) ) ;
#349 = CARTESIAN_POINT ( 'NONE',  ( 1.000000000000000000, 1.224646799147353207E-16, 163.0000000000000000 ) ) ;
#350 = VECTOR ( 'NONE', #3, 1000.000000000000000 ) ;
#351 = FACE_OUTER_BOUND ( 'NONE', #71, .T. ) ;
#352 = AXIS2_PLACEMENT_3D ( 'NONE', #235, #65, #331 ) ;
#353 = CC_DESIGN_PERSON_AND_ORGANIZATION_ASSIGNMENT ( #82, #102, ( #199 ) ) ;
#354 = DIRECTION ( 'NONE',  ( 0.000000000000000000, 0.000000000000000000, 1.000000000000000000 ) ) ;
#355 = DIRECTION ( 'NONE',  ( -0.000000000000000000, -0.000000000000000000, -1.000000000000000000 ) ) ;
#356 = DIRECTION ( 'NONE',  ( 1.000000000000000000, 0.000000000000000000, 0.000000000000000000 ) ) ;
#357 = ORIENTED_EDGE ( 'NONE', *, *, #95, .F. ) ;
#358 = FACE_OUTER_BOUND ( 'NONE', #252, .T. ) ;
#359 = ORIENTED_EDGE ( 'NONE', *, *, #177, .T. ) ;
#360 = DIRECTION ( 'NONE',  ( -0.000000000000000000, -0.000000000000000000, -1.000000000000000000 ) ) ;
#361 = ORIENTED_EDGE ( 'NONE', *, *, #254, .T. ) ;
#362 = APPROVAL_PERSON_ORGANIZATION ( #99, #28, #50 ) ;
#363 = DIRECTION ( 'NONE',  ( -1.000000000000000000, 1.224646799147353207E-16, 0.000000000000000000 ) ) ;
#364 = EDGE_LOOP ( 'NONE', ( #154, #119 ) ) ;
#365 = APPROVAL_DATE_TIME ( #245, #28 ) ;
#366 = ORIENTED_EDGE ( 'NONE', *, *, #194, .T. ) ;
#367 = DATE_AND_TIME ( #195, #260 ) ;
#368 = DIRECTION ( 'NONE',  ( 1.000000000000000000, 0.000000000000000000, 0.000000000000000000 ) ) ;
#369 = EDGE_CURVE ( 'NONE', #259, #75, #113, .T. ) ;
#370 = APPROVAL_STATUS ( 'not_yet_approved' ) ;
#371 = ORIENTED_EDGE ( 'NONE', *, *, #289, .F. ) ;
#372 = EDGE_CURVE ( 'NONE', #343, #44, #140, .T. ) ;
#373 = PERSON_AND_ORGANIZATION_ROLE ( 'creator' ) ;
#374 = CARTESIAN_POINT ( 'NONE',  ( -1.000000000000000000, 0.000000000000000000, 0.000000000000000000 ) ) ;
#375 = ORIENTED_EDGE ( 'NONE', *, *, #186, .T. ) ;
#376 = CIRCLE ( 'NONE', #162, 4.000000000000000000 ) ;
#377 = CC_DESIGN_PERSON_AND_ORGANIZATION_ASSIGNMENT ( #257, #334, ( #347 ) ) ;
#378 = AXIS2_PLACEMENT_3D ( 'NONE', #157, #11, #237 ) ;
#379 = VERTEX_POINT ( 'NONE', #61 ) ;
#380 = LOCAL_TIME ( 17, 55, 11.00000000000000000, #128 ) ;
#381 = DIRECTION ( 'NONE',  ( 0.000000000000000000, 0.000000000000000000, -1.000000000000000000 ) ) ;
ENDSEC;
END-ISO-10303-21;
