ISO-10303-21;
HEADER;
FILE_DESCRIPTION (( 'STEP AP203' ),
    '1' );
FILE_NAME ('8e11.STEP',
    '2022-07-08T14:58:02',
    ( '' ),
    ( '' ),
    'SwSTEP 2.0',
    'SolidWorks 2019',
    '' );
FILE_SCHEMA (( 'CONFIG_CONTROL_DESIGN' ));
ENDSEC;

DATA;
#1 = EDGE_CURVE ( 'NONE', #353, #20, #5, .T. ) ;
#2 = DATE_AND_TIME ( #332, #317 ) ;
#3 = FACE_BOUND ( 'NONE', #373, .T. ) ;
#4 = MANIFOLD_SOLID_BREP ( 'Odebrat vysunutím3', #257 ) ;
#5 = LINE ( 'NONE', #237, #258 ) ;
#6 = AXIS2_PLACEMENT_3D ( 'NONE', #21, #251, #52 ) ;
#7 = EDGE_LOOP ( 'NONE', ( #50, #192, #147, #178 ) ) ;
#8 = EDGE_CURVE ( 'NONE', #113, #111, #141, .T. ) ;
#9 = CYLINDRICAL_SURFACE ( 'NONE', #88, 8.000000000000000000 ) ;
#10 = DIRECTION ( 'NONE',  ( -0.000000000000000000, -0.000000000000000000, -1.000000000000000000 ) ) ;
#11 = AXIS2_PLACEMENT_3D ( 'NONE', #330, #272, #214 ) ;
#12 = DIRECTION ( 'NONE',  ( 0.000000000000000000, 0.000000000000000000, -1.000000000000000000 ) ) ;
#13 = CC_DESIGN_DATE_AND_TIME_ASSIGNMENT ( #354, #380, ( #132 ) ) ;
#14 = VECTOR ( 'NONE', #47, 1000.000000000000000 ) ;
#15 = DIRECTION ( 'NONE',  ( 1.000000000000000000, 0.000000000000000000, 0.000000000000000000 ) ) ;
#16 = CALENDAR_DATE ( 2022, 8, 7 ) ;
#17 = CC_DESIGN_APPROVAL ( #18, ( #261 ) ) ;
#18 = APPROVAL ( #136, 'NEURÈENÝ' ) ;
#19 = CARTESIAN_POINT ( 'NONE',  ( 0.000000000000000000, 0.000000000000000000, 5.000000000000000000 ) ) ;
#20 = VERTEX_POINT ( 'NONE', #117 ) ;
#21 = CARTESIAN_POINT ( 'NONE',  ( 0.000000000000000000, 0.000000000000000000, 205.0000000000000284 ) ) ;
#22 =( LENGTH_UNIT ( ) NAMED_UNIT ( * ) SI_UNIT ( .MILLI., .METRE. ) );
#23 = CIRCLE ( 'NONE', #312, 5.000000000000000000 ) ;
#24 = ADVANCED_FACE ( 'NONE', ( #320, #171 ), #206, .T. ) ;
#25 = VERTEX_POINT ( 'NONE', #145 ) ;
#26 = ORIENTED_EDGE ( 'NONE', *, *, #337, .T. ) ;
#27 = CARTESIAN_POINT ( 'NONE',  ( 0.000000000000000000, 0.000000000000000000, 5.000000000000000000 ) ) ;
#28 = ADVANCED_FACE ( 'NONE', ( #265 ), #121, .T. ) ;
#29 = PERSON_AND_ORGANIZATION_ROLE ( 'design_owner' ) ;
#30 = ORIENTED_EDGE ( 'NONE', *, *, #109, .F. ) ;
#31 = CIRCLE ( 'NONE', #345, 3.000000000000000444 ) ;
#32 = CARTESIAN_POINT ( 'NONE',  ( 0.000000000000000000, 0.000000000000000000, 0.000000000000000000 ) ) ;
#33 = DIRECTION ( 'NONE',  ( 0.000000000000000000, 0.000000000000000000, 1.000000000000000000 ) ) ;
#34 = LOCAL_TIME ( 16, 58, 2.000000000000000000, #321 ) ;
#35 = DIRECTION ( 'NONE',  ( 0.000000000000000000, 0.000000000000000000, -1.000000000000000000 ) ) ;
#36 =( NAMED_UNIT ( * ) SI_UNIT ( $, .STERADIAN. ) SOLID_ANGLE_UNIT ( ) );
#37 = CARTESIAN_POINT ( 'NONE',  ( 0.000000000000000000, 0.000000000000000000, 205.0000000000000284 ) ) ;
#38 = CARTESIAN_POINT ( 'NONE',  ( 0.000000000000000000, 0.000000000000000000, 5.500000000000005329 ) ) ;
#39 = EDGE_CURVE ( 'NONE', #223, #296, #263, .T. ) ;
#40 = AXIS2_PLACEMENT_3D ( 'NONE', #115, #139, #285 ) ;
#41 = CIRCLE ( 'NONE', #362, 5.500000000000000000 ) ;
#42 = DIRECTION ( 'NONE',  ( -0.000000000000000000, -0.000000000000000000, -1.000000000000000000 ) ) ;
#43 = PERSON_AND_ORGANIZATION_ROLE ( 'creator' ) ;
#44 = CARTESIAN_POINT ( 'NONE',  ( 3.000000000000000444, 3.673940397442060361E-16, 0.000000000000000000 ) ) ;
#45 = PERSON_AND_ORGANIZATION ( #57, #340 ) ;
#46 = ADVANCED_FACE ( 'NONE', ( #232 ), #9, .T. ) ;
#47 = DIRECTION ( 'NONE',  ( 0.000000000000000000, 0.000000000000000000, -1.000000000000000000 ) ) ;
#48 = AXIS2_PLACEMENT_3D ( 'NONE', #37, #12, #305 ) ;
#49 = EDGE_LOOP ( 'NONE', ( #89, #149, #163, #169 ) ) ;
#50 = ORIENTED_EDGE ( 'NONE', *, *, #355, .F. ) ;
#51 = VECTOR ( 'NONE', #152, 1000.000000000000000 ) ;
#52 = DIRECTION ( 'NONE',  ( -1.000000000000000000, 0.000000000000000000, 0.000000000000000000 ) ) ;
#53 = ORIENTED_EDGE ( 'NONE', *, *, #273, .F. ) ;
#54 = ADVANCED_FACE ( 'NONE', ( #3, #118 ), #325, .F. ) ;
#55 = LINE ( 'NONE', #346, #379 ) ;
#56 = FACE_OUTER_BOUND ( 'NONE', #315, .T. ) ;
#57 = PERSON ( 'NEURÈENÝ', 'NEURÈENÝ', 'NEURÈENÝ', ('NEURÈENÝ'), ('NEURÈENÝ'), ('NEURÈENÝ') ) ;
#58 = ORIENTED_EDGE ( 'NONE', *, *, #125, .T. ) ;
#59 = APPROVAL ( #200, 'NEURÈENÝ' ) ;
#60 = ORIENTED_EDGE ( 'NONE', *, *, #377, .T. ) ;
#61 = CALENDAR_DATE ( 2022, 8, 7 ) ;
#62 = DIRECTION ( 'NONE',  ( -1.000000000000000000, 0.000000000000000000, 0.000000000000000000 ) ) ;
#63 = CIRCLE ( 'NONE', #299, 8.000000000000000000 ) ;
#64 = ORIENTED_EDGE ( 'NONE', *, *, #268, .T. ) ;
#65 = CARTESIAN_POINT ( 'NONE',  ( 0.000000000000000000, 0.000000000000000000, 5.000000000000000000 ) ) ;
#66 = CC_DESIGN_DATE_AND_TIME_ASSIGNMENT ( #306, #313, ( #261 ) ) ;
#67 = DIRECTION ( 'NONE',  ( 0.000000000000000000, 0.000000000000000000, 1.000000000000000000 ) ) ;
#68 = CC_DESIGN_SECURITY_CLASSIFICATION ( #261, ( #151 ) ) ;
#69 = FACE_OUTER_BOUND ( 'NONE', #286, .T. ) ;
#70 = APPLICATION_CONTEXT ( 'configuration controlled 3d designs of mechanical parts and assemblies' ) ;
#71 = DIRECTION ( 'NONE',  ( 1.000000000000000000, 0.000000000000000000, 0.000000000000000000 ) ) ;
#72 = EDGE_CURVE ( 'NONE', #20, #259, #31, .T. ) ;
#73 = APPROVAL_DATE_TIME ( #2, #243 ) ;
#74 = DIRECTION ( 'NONE',  ( 0.000000000000000000, 0.000000000000000000, 1.000000000000000000 ) ) ;
#75 = PERSON_AND_ORGANIZATION_ROLE ( 'classification_officer' ) ;
#76 = AXIS2_PLACEMENT_3D ( 'NONE', #185, #365, #71 ) ;
#77 = CARTESIAN_POINT ( 'NONE',  ( -5.000000000000000000, 0.000000000000000000, 205.0000000000000284 ) ) ;
#78 = EDGE_CURVE ( 'NONE', #25, #289, #129, .T. ) ;
#79 = CARTESIAN_POINT ( 'NONE',  ( -8.000000000000000000, 0.000000000000000000, 0.000000000000000000 ) ) ;
#80 = DIRECTION ( 'NONE',  ( -0.000000000000000000, -0.000000000000000000, -1.000000000000000000 ) ) ;
#81 = ORIENTED_EDGE ( 'NONE', *, *, #8, .T. ) ;
#82 = CARTESIAN_POINT ( 'NONE',  ( -3.000000000000000444, 0.000000000000000000, 205.0000000000000284 ) ) ;
#83 = AXIS2_PLACEMENT_3D ( 'NONE', #229, #324, #144 ) ;
#84 = ORIENTED_EDGE ( 'NONE', *, *, #337, .F. ) ;
#85 = DIRECTION ( 'NONE',  ( 1.000000000000000000, 0.000000000000000000, 0.000000000000000000 ) ) ;
#86 = ORIENTED_EDGE ( 'NONE', *, *, #1, .F. ) ;
#87 = PRODUCT_RELATED_PRODUCT_CATEGORY ( 'detail', '', ( #176 ) ) ;
#88 = AXIS2_PLACEMENT_3D ( 'NONE', #124, #351, #94 ) ;
#89 = ORIENTED_EDGE ( 'NONE', *, *, #268, .F. ) ;
#90 = AXIS2_PLACEMENT_3D ( 'NONE', #19, #348, #368 ) ;
#91 = EDGE_CURVE ( 'NONE', #223, #174, #344, .T. ) ;
#92 = CALENDAR_DATE ( 2022, 8, 7 ) ;
#93 = ORIENTED_EDGE ( 'NONE', *, *, #366, .T. ) ;
#94 = DIRECTION ( 'NONE',  ( -1.000000000000000000, 0.000000000000000000, 0.000000000000000000 ) ) ;
#95 = ORIENTED_EDGE ( 'NONE', *, *, #39, .F. ) ;
#96 = DIRECTION ( 'NONE',  ( -0.000000000000000000, -0.000000000000000000, -1.000000000000000000 ) ) ;
#97 = EDGE_CURVE ( 'NONE', #291, #259, #277, .T. ) ;
#98 = DIRECTION ( 'NONE',  ( 1.000000000000000000, 0.000000000000000000, -0.000000000000000000 ) ) ;
#99 = CARTESIAN_POINT ( 'NONE',  ( 0.000000000000000000, 0.000000000000000000, 205.0000000000000284 ) ) ;
#100 = LOCAL_TIME ( 16, 58, 2.000000000000000000, #213 ) ;
#101 = PERSON_AND_ORGANIZATION ( #57, #340 ) ;
#102 = CARTESIAN_POINT ( 'NONE',  ( 0.000000000000000000, 0.000000000000000000, 205.0000000000000284 ) ) ;
#103 = DIRECTION ( 'NONE',  ( 1.000000000000000000, 0.000000000000000000, 0.000000000000000000 ) ) ;
#104 = PERSON_AND_ORGANIZATION ( #57, #340 ) ;
#105 = APPROVAL_PERSON_ORGANIZATION ( #182, #243, #264 ) ;
#106 = DIRECTION ( 'NONE',  ( 0.000000000000000000, 0.000000000000000000, 1.000000000000000000 ) ) ;
#107 = CYLINDRICAL_SURFACE ( 'NONE', #196, 3.000000000000000444 ) ;
#108 = DIRECTION ( 'NONE',  ( 0.000000000000000000, 0.000000000000000000, 1.000000000000000000 ) ) ;
#109 = EDGE_CURVE ( 'NONE', #111, #113, #224, .T. ) ;
#110 = CIRCLE ( 'NONE', #276, 5.000000000000000000 ) ;
#111 = VERTEX_POINT ( 'NONE', #79 ) ;
#112 = CARTESIAN_POINT ( 'NONE',  ( 3.000000000000000444, 3.673940397442060361E-16, 205.0000000000000284 ) ) ;
#113 = VERTEX_POINT ( 'NONE', #336 ) ;
#114 = AXIS2_PLACEMENT_3D ( 'NONE', #297, #322, #62 ) ;
#115 = CARTESIAN_POINT ( 'NONE',  ( 5.500000000000000000, 0.000000000000000000, 5.500000000000005329 ) ) ;
#116 = EDGE_LOOP ( 'NONE', ( #58, #339 ) ) ;
#117 = CARTESIAN_POINT ( 'NONE',  ( -3.000000000000000444, 0.000000000000000000, 0.000000000000000000 ) ) ;
#118 = FACE_OUTER_BOUND ( 'NONE', #316, .T. ) ;
#119 = UNCERTAINTY_MEASURE_WITH_UNIT (LENGTH_MEASURE( 1.000000000000000082E-05 ), #22, 'distance_accuracy_value', 'NONE');
#120 = CC_DESIGN_PERSON_AND_ORGANIZATION_ASSIGNMENT ( #160, #43, ( #151 ) ) ;
#121 = CYLINDRICAL_SURFACE ( 'NONE', #114, 8.000000000000000000 ) ;
#122 = AXIS2_PLACEMENT_3D ( 'NONE', #102, #212, #162 ) ;
#123 = ORIENTED_EDGE ( 'NONE', *, *, #355, .T. ) ;
#124 = CARTESIAN_POINT ( 'NONE',  ( 0.000000000000000000, 0.000000000000000000, 5.000000000000000000 ) ) ;
#125 = EDGE_CURVE ( 'NONE', #174, #223, #23, .T. ) ;
#126 = CARTESIAN_POINT ( 'NONE',  ( -5.000000000000000000, 0.000000000000000000, 205.0000000000000284 ) ) ;
#127 = AXIS2_PLACEMENT_3D ( 'NONE', #370, #108, #287 ) ;
#128 = FACE_OUTER_BOUND ( 'NONE', #267, .T. ) ;
#129 = CIRCLE ( 'NONE', #280, 8.000000000000000000 ) ;
#130 = CARTESIAN_POINT ( 'NONE',  ( 0.000000000000000000, 0.000000000000000000, 5.500000000000005329 ) ) ;
#131 = CARTESIAN_POINT ( 'NONE',  ( 3.000000000000000444, 3.673940397442060361E-16, 205.0000000000000284 ) ) ;
#132 = PRODUCT_DEFINITION ( 'NEZNÁMÝ', '', #151, #233 ) ;
#133 = DATE_AND_TIME ( #16, #228 ) ;
#134 = APPROVAL_PERSON_ORGANIZATION ( #45, #18, #284 ) ;
#135 = ORIENTED_EDGE ( 'NONE', *, *, #8, .F. ) ;
#136 = APPROVAL_STATUS ( 'not_yet_approved' ) ;
#137 = ADVANCED_FACE ( 'NONE', ( #331 ), #179, .F. ) ;
#138 = DIRECTION ( 'NONE',  ( -1.000000000000000000, 1.224646799147351482E-16, 0.000000000000000000 ) ) ;
#139 = DIRECTION ( 'NONE',  ( 0.000000000000000000, -1.000000000000000000, 0.000000000000000000 ) ) ;
#140 = CARTESIAN_POINT ( 'NONE',  ( 5.000000000000000000, 6.123233995736766282E-16, 5.500000000000005329 ) ) ;
#141 = CIRCLE ( 'NONE', #266, 8.000000000000000000 ) ;
#142 = COORDINATED_UNIVERSAL_TIME_OFFSET ( 1, 0, .AHEAD. ) ;
#143 = ORIENTED_EDGE ( 'NONE', *, *, #39, .T. ) ;
#144 = DIRECTION ( 'NONE',  ( 1.000000000000000000, 0.000000000000000000, 0.000000000000000000 ) ) ;
#145 = CARTESIAN_POINT ( 'NONE',  ( 8.000000000000000000, 9.797174393178825657E-16, 5.000000000000000000 ) ) ;
#146 = APPLICATION_PROTOCOL_DEFINITION ( 'international standard', 'config_control_design', 1994, #343 ) ;
#147 = ORIENTED_EDGE ( 'NONE', *, *, #273, .T. ) ;
#148 = EDGE_CURVE ( 'NONE', #174, #253, #183, .T. ) ;
#149 = ORIENTED_EDGE ( 'NONE', *, *, #377, .F. ) ;
#150 = DIRECTION ( 'NONE',  ( 1.000000000000000000, 0.000000000000000000, 0.000000000000000000 ) ) ;
#151 = PRODUCT_DEFINITION_FORMATION_WITH_SPECIFIED_SOURCE ( 'LIBOVOLNÝ', '', #176, .NOT_KNOWN. ) ;
#152 = DIRECTION ( 'NONE',  ( -0.000000000000000000, -0.000000000000000000, -1.000000000000000000 ) ) ;
#153 = CC_DESIGN_PERSON_AND_ORGANIZATION_ASSIGNMENT ( #101, #29, ( #176 ) ) ;
#154 =( NAMED_UNIT ( * ) PLANE_ANGLE_UNIT ( ) SI_UNIT ( $, .RADIAN. ) );
#155 = PLANE ( 'NONE',  #290 ) ;
#156 = AXIS2_PLACEMENT_3D ( 'NONE', #292, #188, #138 ) ;
#157 = DIRECTION ( 'NONE',  ( 1.000000000000000000, 0.000000000000000000, 0.000000000000000000 ) ) ;
#158 = DIRECTION ( 'NONE',  ( 0.000000000000000000, 0.000000000000000000, 1.000000000000000000 ) ) ;
#159 = DIRECTION ( 'NONE',  ( 0.000000000000000000, 0.000000000000000000, 1.000000000000000000 ) ) ;
#160 = PERSON_AND_ORGANIZATION ( #57, #340 ) ;
#161 = CC_DESIGN_APPROVAL ( #243, ( #132 ) ) ;
#162 = DIRECTION ( 'NONE',  ( -1.000000000000000000, 0.000000000000000000, 0.000000000000000000 ) ) ;
#163 = ORIENTED_EDGE ( 'NONE', *, *, #195, .T. ) ;
#164 = CC_DESIGN_PERSON_AND_ORGANIZATION_ASSIGNMENT ( #104, #75, ( #261 ) ) ;
#165 = APPROVAL_DATE_TIME ( #133, #18 ) ;
#166 = CARTESIAN_POINT ( 'NONE',  ( -8.000000000000000000, 0.000000000000000000, 5.000000000000000000 ) ) ;
#167 = ORIENTED_EDGE ( 'NONE', *, *, #195, .F. ) ;
#168 = ORIENTED_EDGE ( 'NONE', *, *, #91, .F. ) ;
#169 = ORIENTED_EDGE ( 'NONE', *, *, #109, .T. ) ;
#170 = DIRECTION ( 'NONE',  ( 0.000000000000000000, 0.000000000000000000, 1.000000000000000000 ) ) ;
#171 = FACE_OUTER_BOUND ( 'NONE', #381, .T. ) ;
#172 = CARTESIAN_POINT ( 'NONE',  ( 5.000000000000000000, 6.123233995736766282E-16, 205.0000000000000284 ) ) ;
#173 = TOROIDAL_SURFACE ( 'NONE', #236, 5.500000000000000000, 0.5000000000000000000 ) ;
#174 = VERTEX_POINT ( 'NONE', #77 ) ;
#175 = AXIS2_PLACEMENT_3D ( 'NONE', #327, #67, #157 ) ;
#176 = PRODUCT ( '8e11', '8e11', '', ( #274 ) ) ;
#177 = CARTESIAN_POINT ( 'NONE',  ( 0.000000000000000000, 0.000000000000000000, 0.000000000000000000 ) ) ;
#178 = ORIENTED_EDGE ( 'NONE', *, *, #314, .F. ) ;
#179 = TOROIDAL_SURFACE ( 'NONE', #11, 5.500000000000000000, 0.5000000000000000000 ) ;
#180 = CYLINDRICAL_SURFACE ( 'NONE', #48, 3.000000000000000444 ) ;
#181 = FACE_OUTER_BOUND ( 'NONE', #116, .T. ) ;
#182 = PERSON_AND_ORGANIZATION ( #57, #340 ) ;
#183 = LINE ( 'NONE', #126, #205 ) ;
#184 = AXIS2_PLACEMENT_3D ( 'NONE', #338, #170, #318 ) ;
#185 = CARTESIAN_POINT ( 'NONE',  ( 0.000000000000000000, 0.000000000000000000, 0.000000000000000000 ) ) ;
#186 = CALENDAR_DATE ( 2022, 8, 7 ) ;
#187 = ADVANCED_FACE ( 'NONE', ( #333 ), #173, .F. ) ;
#188 = DIRECTION ( 'NONE',  ( 1.224646799147353207E-16, 1.000000000000000000, -0.000000000000000000 ) ) ;
#189 = ORIENTED_EDGE ( 'NONE', *, *, #230, .F. ) ;
#190 = SECURITY_CLASSIFICATION_LEVEL ( 'unclassified' ) ;
#191 = ORIENTED_EDGE ( 'NONE', *, *, #217, .T. ) ;
#192 = ORIENTED_EDGE ( 'NONE', *, *, #239, .F. ) ;
#193 = AXIS2_PLACEMENT_3D ( 'NONE', #32, #358, #98 ) ;
#194 = ORIENTED_EDGE ( 'NONE', *, *, #148, .F. ) ;
#195 = EDGE_CURVE ( 'NONE', #289, #111, #246, .T. ) ;
#196 = AXIS2_PLACEMENT_3D ( 'NONE', #375, #218, #197 ) ;
#197 = DIRECTION ( 'NONE',  ( -1.000000000000000000, 0.000000000000000000, 0.000000000000000000 ) ) ;
#198 = ORIENTED_EDGE ( 'NONE', *, *, #314, .T. ) ;
#199 = CARTESIAN_POINT ( 'NONE',  ( 0.000000000000000000, 0.000000000000000000, 0.000000000000000000 ) ) ;
#200 = APPROVAL_STATUS ( 'not_yet_approved' ) ;
#201 = EDGE_CURVE ( 'NONE', #253, #296, #269, .T. ) ;
#202 = DIRECTION ( 'NONE',  ( 0.000000000000000000, 0.000000000000000000, 1.000000000000000000 ) ) ;
#203 = APPLICATION_PROTOCOL_DEFINITION ( 'international standard', 'config_control_design', 1994, #70 ) ;
#204 = ORIENTED_EDGE ( 'NONE', *, *, #72, .F. ) ;
#205 = VECTOR ( 'NONE', #42, 1000.000000000000000 ) ;
#206 = PLANE ( 'NONE',  #278 ) ;
#207 = AXIS2_PLACEMENT_3D ( 'NONE', #210, #158, #247 ) ;
#208 = DIRECTION ( 'NONE',  ( 1.000000000000000000, 0.000000000000000000, 0.000000000000000000 ) ) ;
#209 = LOCAL_TIME ( 16, 58, 2.000000000000000000, #142 ) ;
#210 = CARTESIAN_POINT ( 'NONE',  ( 0.000000000000000000, 0.000000000000000000, 0.000000000000000000 ) ) ;
#211 = APPROVAL_STATUS ( 'not_yet_approved' ) ;
#212 = DIRECTION ( 'NONE',  ( -0.000000000000000000, -0.000000000000000000, -1.000000000000000000 ) ) ;
#213 = COORDINATED_UNIVERSAL_TIME_OFFSET ( 1, 0, .AHEAD. ) ;
#214 = DIRECTION ( 'NONE',  ( 1.000000000000000000, 0.000000000000000000, 0.000000000000000000 ) ) ;
#215 = CIRCLE ( 'NONE', #156, 0.5000000000000004441 ) ;
#216 = DIRECTION ( 'NONE',  ( 1.000000000000000000, 0.000000000000000000, 0.000000000000000000 ) ) ;
#217 = EDGE_CURVE ( 'NONE', #376, #294, #41, .T. ) ;
#218 = DIRECTION ( 'NONE',  ( 0.000000000000000000, 0.000000000000000000, -1.000000000000000000 ) ) ;
#219 = ORIENTED_EDGE ( 'NONE', *, *, #72, .T. ) ;
#220 = PRODUCT_DEFINITION_SHAPE ( 'NONE', 'NONE',  #132 ) ;
#221 = VECTOR ( 'NONE', #301, 1000.000000000000000 ) ;
#222 = CARTESIAN_POINT ( 'NONE',  ( 0.000000000000000000, 0.000000000000000000, 5.000000000000000000 ) ) ;
#223 = VERTEX_POINT ( 'NONE', #361 ) ;
#224 = CIRCLE ( 'NONE', #207, 8.000000000000000000 ) ;
#225 = FACE_OUTER_BOUND ( 'NONE', #374, .T. ) ;
#226 = ORIENTED_EDGE ( 'NONE', *, *, #78, .F. ) ;
#227 = ORIENTED_EDGE ( 'NONE', *, *, #97, .T. ) ;
#228 = LOCAL_TIME ( 16, 58, 2.000000000000000000, #282 ) ;
#229 = CARTESIAN_POINT ( 'NONE',  ( 0.000000000000000000, 0.000000000000000000, 0.000000000000000000 ) ) ;
#230 = EDGE_CURVE ( 'NONE', #259, #20, #335, .T. ) ;
#231 = PERSON_AND_ORGANIZATION ( #57, #340 ) ;
#232 = FACE_OUTER_BOUND ( 'NONE', #49, .T. ) ;
#233 = DESIGN_CONTEXT ( 'detailed design', #343, 'design' ) ;
#234 = COORDINATED_UNIVERSAL_TIME_OFFSET ( 1, 0, .AHEAD. ) ;
#235 = ORIENTED_EDGE ( 'NONE', *, *, #148, .T. ) ;
#236 = AXIS2_PLACEMENT_3D ( 'NONE', #130, #106, #241 ) ;
#237 = CARTESIAN_POINT ( 'NONE',  ( -3.000000000000000444, 0.000000000000000000, 205.0000000000000284 ) ) ;
#238 = EDGE_LOOP ( 'NONE', ( #359, #84 ) ) ;
#239 = EDGE_CURVE ( 'NONE', #296, #253, #110, .T. ) ;
#240 = DIRECTION ( 'NONE',  ( 1.000000000000000000, 0.000000000000000000, 0.000000000000000000 ) ) ;
#241 = DIRECTION ( 'NONE',  ( 1.000000000000000000, 0.000000000000000000, 0.000000000000000000 ) ) ;
#242 = CIRCLE ( 'NONE', #90, 5.500000000000000000 ) ;
#243 = APPROVAL ( #211, 'NEURÈENÝ' ) ;
#244 = DIRECTION ( 'NONE',  ( 0.000000000000000000, 0.000000000000000000, 1.000000000000000000 ) ) ;
#245 = DATE_AND_TIME ( #61, #34 ) ;
#246 = LINE ( 'NONE', #363, #221 ) ;
#247 = DIRECTION ( 'NONE',  ( 1.000000000000000000, 0.000000000000000000, 0.000000000000000000 ) ) ;
#248 = ADVANCED_FACE ( 'NONE', ( #308, #181 ), #155, .T. ) ;
#249 = CC_DESIGN_APPROVAL ( #59, ( #151 ) ) ;
#250 = SHAPE_DEFINITION_REPRESENTATION ( #220, #357 ) ;
#251 = DIRECTION ( 'NONE',  ( -0.000000000000000000, -0.000000000000000000, -1.000000000000000000 ) ) ;
#252 = CARTESIAN_POINT ( 'NONE',  ( -5.500000000000000000, 6.735557395310442023E-16, 5.000000000000002665 ) ) ;
#253 = VERTEX_POINT ( 'NONE', #275 ) ;
#254 = CIRCLE ( 'NONE', #184, 3.000000000000000444 ) ;
#255 = ADVANCED_FACE ( 'NONE', ( #69 ), #180, .F. ) ;
#256 = ORIENTED_EDGE ( 'NONE', *, *, #97, .F. ) ;
#257 = CLOSED_SHELL ( 'NONE', ( #328, #137, #260, #28, #46, #24, #54, #360, #248, #187, #255 ) ) ;
#258 = VECTOR ( 'NONE', #35, 1000.000000000000000 ) ;
#259 = VERTEX_POINT ( 'NONE', #44 ) ;
#260 = ADVANCED_FACE ( 'NONE', ( #128 ), #364, .T. ) ;
#261 = SECURITY_CLASSIFICATION ( '', '', #190 ) ;
#262 = PERSON_AND_ORGANIZATION ( #57, #340 ) ;
#263 = LINE ( 'NONE', #172, #51 ) ;
#264 = APPROVAL_ROLE ( '' ) ;
#265 = FACE_OUTER_BOUND ( 'NONE', #378, .T. ) ;
#266 = AXIS2_PLACEMENT_3D ( 'NONE', #177, #33, #208 ) ;
#267 = EDGE_LOOP ( 'NONE', ( #168, #143, #311, #194 ) ) ;
#268 = EDGE_CURVE ( 'NONE', #25, #113, #55, .T. ) ;
#269 = CIRCLE ( 'NONE', #304, 5.000000000000000000 ) ;
#270 = DIRECTION ( 'NONE',  ( 1.000000000000000000, 0.000000000000000000, -0.000000000000000000 ) ) ;
#271 = ORIENTED_EDGE ( 'NONE', *, *, #217, .F. ) ;
#272 = DIRECTION ( 'NONE',  ( 0.000000000000000000, 0.000000000000000000, 1.000000000000000000 ) ) ;
#273 = EDGE_CURVE ( 'NONE', #296, #376, #323, .T. ) ;
#274 = MECHANICAL_CONTEXT ( 'NONE', #70, 'mechanical' ) ;
#275 = CARTESIAN_POINT ( 'NONE',  ( -5.000000000000000000, 0.000000000000000000, 5.500000000000005329 ) ) ;
#276 = AXIS2_PLACEMENT_3D ( 'NONE', #38, #74, #103 ) ;
#277 = LINE ( 'NONE', #131, #14 ) ;
#278 = AXIS2_PLACEMENT_3D ( 'NONE', #27, #202, #270 ) ;
#279 = PERSON_AND_ORGANIZATION ( #57, #340 ) ;
#280 = AXIS2_PLACEMENT_3D ( 'NONE', #65, #298, #150 ) ;
#281 = DIRECTION ( 'NONE',  ( 0.000000000000000000, 0.000000000000000000, 1.000000000000000000 ) ) ;
#282 = COORDINATED_UNIVERSAL_TIME_OFFSET ( 1, 0, .AHEAD. ) ;
#283 = CARTESIAN_POINT ( 'NONE',  ( 0.000000000000000000, 0.000000000000000000, 5.500000000000005329 ) ) ;
#284 = APPROVAL_ROLE ( '' ) ;
#285 = DIRECTION ( 'NONE',  ( 0.000000000000000000, 0.000000000000000000, -1.000000000000000000 ) ) ;
#286 = EDGE_LOOP ( 'NONE', ( #256, #26, #288, #219 ) ) ;
#287 = DIRECTION ( 'NONE',  ( 1.000000000000000000, 0.000000000000000000, 0.000000000000000000 ) ) ;
#288 = ORIENTED_EDGE ( 'NONE', *, *, #1, .T. ) ;
#289 = VERTEX_POINT ( 'NONE', #166 ) ;
#290 = AXIS2_PLACEMENT_3D ( 'NONE', #99, #244, #334 ) ;
#291 = VERTEX_POINT ( 'NONE', #112 ) ;
#292 = CARTESIAN_POINT ( 'NONE',  ( -5.500000000000000000, 6.735557395310442023E-16, 5.500000000000005329 ) ) ;
#293 = PERSON_AND_ORGANIZATION_ROLE ( 'creator' ) ;
#294 = VERTEX_POINT ( 'NONE', #252 ) ;
#295 =( GEOMETRIC_REPRESENTATION_CONTEXT ( 3 ) GLOBAL_UNCERTAINTY_ASSIGNED_CONTEXT ( ( #119 ) ) GLOBAL_UNIT_ASSIGNED_CONTEXT ( ( #22, #154, #36 ) ) REPRESENTATION_CONTEXT ( 'NONE', 'WORKASPACE' ) );
#296 = VERTEX_POINT ( 'NONE', #140 ) ;
#297 = CARTESIAN_POINT ( 'NONE',  ( 0.000000000000000000, 0.000000000000000000, 5.000000000000000000 ) ) ;
#298 = DIRECTION ( 'NONE',  ( 0.000000000000000000, 0.000000000000000000, 1.000000000000000000 ) ) ;
#299 = AXIS2_PLACEMENT_3D ( 'NONE', #222, #341, #85 ) ;
#300 = ORIENTED_EDGE ( 'NONE', *, *, #201, .F. ) ;
#301 = DIRECTION ( 'NONE',  ( -0.000000000000000000, -0.000000000000000000, -1.000000000000000000 ) ) ;
#302 = CARTESIAN_POINT ( 'NONE',  ( 0.000000000000000000, 0.000000000000000000, 5.000000000000000000 ) ) ;
#303 = CARTESIAN_POINT ( 'NONE',  ( 0.000000000000000000, 0.000000000000000000, 205.0000000000000284 ) ) ;
#304 = AXIS2_PLACEMENT_3D ( 'NONE', #283, #159, #216 ) ;
#305 = DIRECTION ( 'NONE',  ( -1.000000000000000000, 0.000000000000000000, 0.000000000000000000 ) ) ;
#306 = DATE_AND_TIME ( #186, #100 ) ;
#307 = CC_DESIGN_PERSON_AND_ORGANIZATION_ASSIGNMENT ( #262, #293, ( #132 ) ) ;
#308 = FACE_BOUND ( 'NONE', #238, .T. ) ;
#309 = APPROVAL_DATE_TIME ( #245, #59 ) ;
#310 = CYLINDRICAL_SURFACE ( 'NONE', #6, 5.000000000000000000 ) ;
#311 = ORIENTED_EDGE ( 'NONE', *, *, #239, .T. ) ;
#312 = AXIS2_PLACEMENT_3D ( 'NONE', #303, #281, #15 ) ;
#313 = DATE_TIME_ROLE ( 'classification_date' ) ;
#314 = EDGE_CURVE ( 'NONE', #294, #376, #242, .T. ) ;
#315 = EDGE_LOOP ( 'NONE', ( #95, #347, #235, #349 ) ) ;
#316 = EDGE_LOOP ( 'NONE', ( #30, #135 ) ) ;
#317 = LOCAL_TIME ( 16, 58, 2.000000000000000000, #234 ) ;
#318 = DIRECTION ( 'NONE',  ( 1.000000000000000000, 0.000000000000000000, 0.000000000000000000 ) ) ;
#319 = EDGE_LOOP ( 'NONE', ( #300, #123, #271, #53 ) ) ;
#320 = FACE_BOUND ( 'NONE', #356, .T. ) ;
#321 = COORDINATED_UNIVERSAL_TIME_OFFSET ( 1, 0, .AHEAD. ) ;
#322 = DIRECTION ( 'NONE',  ( -0.000000000000000000, -0.000000000000000000, -1.000000000000000000 ) ) ;
#323 = CIRCLE ( 'NONE', #40, 0.5000000000000004441 ) ;
#324 = DIRECTION ( 'NONE',  ( 0.000000000000000000, 0.000000000000000000, 1.000000000000000000 ) ) ;
#325 = PLANE ( 'NONE',  #193 ) ;
#326 = DIRECTION ( 'NONE',  ( 1.000000000000000000, 0.000000000000000000, 0.000000000000000000 ) ) ;
#327 = CARTESIAN_POINT ( 'NONE',  ( 0.000000000000000000, 0.000000000000000000, 205.0000000000000284 ) ) ;
#328 = ADVANCED_FACE ( 'NONE', ( #225 ), #107, .F. ) ;
#329 = CIRCLE ( 'NONE', #127, 3.000000000000000444 ) ;
#330 = CARTESIAN_POINT ( 'NONE',  ( 0.000000000000000000, 0.000000000000000000, 5.500000000000005329 ) ) ;
#331 = FACE_OUTER_BOUND ( 'NONE', #319, .T. ) ;
#332 = CALENDAR_DATE ( 2022, 8, 7 ) ;
#333 = FACE_OUTER_BOUND ( 'NONE', #7, .T. ) ;
#334 = DIRECTION ( 'NONE',  ( 1.000000000000000000, 0.000000000000000000, -0.000000000000000000 ) ) ;
#335 = CIRCLE ( 'NONE', #76, 3.000000000000000444 ) ;
#336 = CARTESIAN_POINT ( 'NONE',  ( 8.000000000000000000, 9.797174393178825657E-16, 0.000000000000000000 ) ) ;
#337 = EDGE_CURVE ( 'NONE', #291, #353, #254, .T. ) ;
#338 = CARTESIAN_POINT ( 'NONE',  ( 0.000000000000000000, 0.000000000000000000, 205.0000000000000284 ) ) ;
#339 = ORIENTED_EDGE ( 'NONE', *, *, #91, .T. ) ;
#340 = ORGANIZATION ( 'NEURÈENÝ', 'NEURÈENÝ', '' ) ;
#341 = DIRECTION ( 'NONE',  ( 0.000000000000000000, 0.000000000000000000, 1.000000000000000000 ) ) ;
#342 = ORIENTED_EDGE ( 'NONE', *, *, #78, .T. ) ;
#343 = APPLICATION_CONTEXT ( 'configuration controlled 3d designs of mechanical parts and assemblies' ) ;
#344 = CIRCLE ( 'NONE', #175, 5.000000000000000000 ) ;
#345 = AXIS2_PLACEMENT_3D ( 'NONE', #199, #96, #326 ) ;
#346 = CARTESIAN_POINT ( 'NONE',  ( 8.000000000000000000, 9.797174393178825657E-16, 5.000000000000000000 ) ) ;
#347 = ORIENTED_EDGE ( 'NONE', *, *, #125, .F. ) ;
#348 = DIRECTION ( 'NONE',  ( -0.000000000000000000, -0.000000000000000000, -1.000000000000000000 ) ) ;
#349 = ORIENTED_EDGE ( 'NONE', *, *, #201, .T. ) ;
#350 = APPROVAL_PERSON_ORGANIZATION ( #231, #59, #352 ) ;
#351 = DIRECTION ( 'NONE',  ( -0.000000000000000000, -0.000000000000000000, -1.000000000000000000 ) ) ;
#352 = APPROVAL_ROLE ( '' ) ;
#353 = VERTEX_POINT ( 'NONE', #82 ) ;
#354 = DATE_AND_TIME ( #92, #209 ) ;
#355 = EDGE_CURVE ( 'NONE', #253, #294, #215, .T. ) ;
#356 = EDGE_LOOP ( 'NONE', ( #191, #198 ) ) ;
#357 = ADVANCED_BREP_SHAPE_REPRESENTATION ( '8e11', ( #4, #83 ), #295 ) ;
#358 = DIRECTION ( 'NONE',  ( 0.000000000000000000, 0.000000000000000000, 1.000000000000000000 ) ) ;
#359 = ORIENTED_EDGE ( 'NONE', *, *, #366, .F. ) ;
#360 = ADVANCED_FACE ( 'NONE', ( #56 ), #310, .T. ) ;
#361 = CARTESIAN_POINT ( 'NONE',  ( 5.000000000000000000, 6.123233995736766282E-16, 205.0000000000000284 ) ) ;
#362 = AXIS2_PLACEMENT_3D ( 'NONE', #302, #10, #240 ) ;
#363 = CARTESIAN_POINT ( 'NONE',  ( -8.000000000000000000, 0.000000000000000000, 5.000000000000000000 ) ) ;
#364 = CYLINDRICAL_SURFACE ( 'NONE', #122, 5.000000000000000000 ) ;
#365 = DIRECTION ( 'NONE',  ( -0.000000000000000000, -0.000000000000000000, -1.000000000000000000 ) ) ;
#366 = EDGE_CURVE ( 'NONE', #353, #291, #329, .T. ) ;
#367 = PERSON_AND_ORGANIZATION_ROLE ( 'design_supplier' ) ;
#368 = DIRECTION ( 'NONE',  ( 1.000000000000000000, 0.000000000000000000, 0.000000000000000000 ) ) ;
#369 = CC_DESIGN_PERSON_AND_ORGANIZATION_ASSIGNMENT ( #279, #367, ( #151 ) ) ;
#370 = CARTESIAN_POINT ( 'NONE',  ( 0.000000000000000000, 0.000000000000000000, 205.0000000000000284 ) ) ;
#371 = ORIENTED_EDGE ( 'NONE', *, *, #230, .T. ) ;
#372 = CARTESIAN_POINT ( 'NONE',  ( 5.500000000000000000, 0.000000000000000000, 5.000000000000002665 ) ) ;
#373 = EDGE_LOOP ( 'NONE', ( #204, #189 ) ) ;
#374 = EDGE_LOOP ( 'NONE', ( #93, #227, #371, #86 ) ) ;
#375 = CARTESIAN_POINT ( 'NONE',  ( 0.000000000000000000, 0.000000000000000000, 205.0000000000000284 ) ) ;
#376 = VERTEX_POINT ( 'NONE', #372 ) ;
#377 = EDGE_CURVE ( 'NONE', #289, #25, #63, .T. ) ;
#378 = EDGE_LOOP ( 'NONE', ( #226, #64, #81, #167 ) ) ;
#379 = VECTOR ( 'NONE', #80, 1000.000000000000000 ) ;
#380 = DATE_TIME_ROLE ( 'creation_date' ) ;
#381 = EDGE_LOOP ( 'NONE', ( #60, #342 ) ) ;
ENDSEC;
END-ISO-10303-21;
