ISO-10303-21;
HEADER;
FILE_DESCRIPTION (( 'STEP AP203' ),
    '1' );
FILE_NAME ('1fea.STEP',
    '2022-07-08T15:13:11',
    ( '' ),
    ( '' ),
    'SwSTEP 2.0',
    'SolidWorks 2019',
    '' );
FILE_SCHEMA (( 'CONFIG_CONTROL_DESIGN' ));
ENDSEC;

DATA;
#1 = COORDINATED_UNIVERSAL_TIME_OFFSET ( 1, 0, .AHEAD. ) ;
#2 = DIRECTION ( 'NONE',  ( -0.000000000000000000, -0.000000000000000000, -1.000000000000000000 ) ) ;
#3 = APPROVAL_PERSON_ORGANIZATION ( #89, #85, #23 ) ;
#4 = SHAPE_DEFINITION_REPRESENTATION ( #336, #370 ) ;
#5 = FACE_OUTER_BOUND ( 'NONE', #316, .T. ) ;
#6 = ORIENTED_EDGE ( 'NONE', *, *, #126, .T. ) ;
#7 = CIRCLE ( 'NONE', #58, 10.00000000000000000 ) ;
#8 =( GEOMETRIC_REPRESENTATION_CONTEXT ( 3 ) GLOBAL_UNCERTAINTY_ASSIGNED_CONTEXT ( ( #68 ) ) GLOBAL_UNIT_ASSIGNED_CONTEXT ( ( #12, #202, #47 ) ) REPRESENTATION_CONTEXT ( 'NONE', 'WORKASPACE' ) );
#9 = DIRECTION ( 'NONE',  ( 0.000000000000000000, 0.000000000000000000, 1.000000000000000000 ) ) ;
#10 = ORIENTED_EDGE ( 'NONE', *, *, #261, .T. ) ;
#11 = FACE_OUTER_BOUND ( 'NONE', #373, .T. ) ;
#12 =( LENGTH_UNIT ( ) NAMED_UNIT ( * ) SI_UNIT ( .MILLI., .METRE. ) );
#13 = EDGE_CURVE ( 'NONE', #365, #37, #48, .T. ) ;
#14 = ORIENTED_EDGE ( 'NONE', *, *, #261, .F. ) ;
#15 = AXIS2_PLACEMENT_3D ( 'NONE', #34, #184, #271 ) ;
#16 = CARTESIAN_POINT ( 'NONE',  ( 0.000000000000000000, 0.000000000000000000, 7.500000000000007105 ) ) ;
#17 = CARTESIAN_POINT ( 'NONE',  ( -10.00000000000000000, 0.000000000000000000, 0.000000000000000000 ) ) ;
#18 = ADVANCED_FACE ( 'NONE', ( #105 ), #83, .F. ) ;
#19 = EDGE_LOOP ( 'NONE', ( #265, #6, #374, #14 ) ) ;
#20 = AXIS2_PLACEMENT_3D ( 'NONE', #268, #150, #248 ) ;
#21 = CARTESIAN_POINT ( 'NONE',  ( 2.500000000000000000, 3.061616997868383141E-16, 182.0000000000000000 ) ) ;
#22 = ORIENTED_EDGE ( 'NONE', *, *, #333, .T. ) ;
#23 = APPROVAL_ROLE ( '' ) ;
#24 = CARTESIAN_POINT ( 'NONE',  ( 10.00000000000000000, 1.224646799147353256E-15, 7.000000000000000000 ) ) ;
#25 = DIRECTION ( 'NONE',  ( 1.224646799147353207E-16, 1.000000000000000000, -0.000000000000000000 ) ) ;
#26 = ADVANCED_FACE ( 'NONE', ( #211 ), #259, .T. ) ;
#27 = VECTOR ( 'NONE', #327, 1000.000000000000000 ) ;
#28 = CARTESIAN_POINT ( 'NONE',  ( 2.500000000000000000, 3.061616997868383141E-16, 0.000000000000000000 ) ) ;
#29 = EDGE_LOOP ( 'NONE', ( #180, #198, #167, #75 ) ) ;
#30 = PRODUCT_DEFINITION ( 'NEZNÁMÝ', '', #371, #131 ) ;
#31 = COORDINATED_UNIVERSAL_TIME_OFFSET ( 1, 0, .AHEAD. ) ;
#32 = CYLINDRICAL_SURFACE ( 'NONE', #59, 10.00000000000000000 ) ;
#33 = PERSON_AND_ORGANIZATION ( #233, #123 ) ;
#34 = CARTESIAN_POINT ( 'NONE',  ( 0.000000000000000000, 0.000000000000000000, 7.000000000000000000 ) ) ;
#35 = AXIS2_PLACEMENT_3D ( 'NONE', #51, #173, #137 ) ;
#36 = DIRECTION ( 'NONE',  ( -1.000000000000000000, 0.000000000000000000, 0.000000000000000000 ) ) ;
#37 = VERTEX_POINT ( 'NONE', #17 ) ;
#38 = ORIENTED_EDGE ( 'NONE', *, *, #188, .F. ) ;
#39 = CYLINDRICAL_SURFACE ( 'NONE', #264, 2.500000000000000000 ) ;
#40 = CIRCLE ( 'NONE', #304, 6.500000000000000888 ) ;
#41 = ORIENTED_EDGE ( 'NONE', *, *, #354, .T. ) ;
#42 = FACE_BOUND ( 'NONE', #136, .T. ) ;
#43 = ORIENTED_EDGE ( 'NONE', *, *, #333, .F. ) ;
#44 = EDGE_CURVE ( 'NONE', #343, #284, #117, .T. ) ;
#45 = LINE ( 'NONE', #21, #281 ) ;
#46 = VERTEX_POINT ( 'NONE', #313 ) ;
#47 =( NAMED_UNIT ( * ) SI_UNIT ( $, .STERADIAN. ) SOLID_ANGLE_UNIT ( ) );
#48 = CIRCLE ( 'NONE', #230, 10.00000000000000000 ) ;
#49 = ORIENTED_EDGE ( 'NONE', *, *, #53, .F. ) ;
#50 = CIRCLE ( 'NONE', #170, 0.5000000000000004441 ) ;
#51 = CARTESIAN_POINT ( 'NONE',  ( 0.000000000000000000, 0.000000000000000000, 7.000000000000000000 ) ) ;
#52 = EDGE_LOOP ( 'NONE', ( #78, #307 ) ) ;
#53 = EDGE_CURVE ( 'NONE', #284, #292, #350, .T. ) ;
#54 = DIRECTION ( 'NONE',  ( 0.000000000000000000, 0.000000000000000000, -1.000000000000000000 ) ) ;
#55 = ORIENTED_EDGE ( 'NONE', *, *, #74, .F. ) ;
#56 = CYLINDRICAL_SURFACE ( 'NONE', #35, 10.00000000000000000 ) ;
#57 = ORIENTED_EDGE ( 'NONE', *, *, #126, .F. ) ;
#58 = AXIS2_PLACEMENT_3D ( 'NONE', #295, #122, #92 ) ;
#59 = AXIS2_PLACEMENT_3D ( 'NONE', #274, #2, #66 ) ;
#60 = CARTESIAN_POINT ( 'NONE',  ( 0.000000000000000000, 0.000000000000000000, 182.0000000000000000 ) ) ;
#61 = DIRECTION ( 'NONE',  ( 1.000000000000000000, 0.000000000000000000, 0.000000000000000000 ) ) ;
#62 = PERSON_AND_ORGANIZATION ( #233, #123 ) ;
#63 = APPROVAL_DATE_TIME ( #276, #228 ) ;
#64 = DIRECTION ( 'NONE',  ( 1.000000000000000000, 0.000000000000000000, 0.000000000000000000 ) ) ;
#65 = DIRECTION ( 'NONE',  ( 1.000000000000000000, 0.000000000000000000, 0.000000000000000000 ) ) ;
#66 = DIRECTION ( 'NONE',  ( -1.000000000000000000, 0.000000000000000000, 0.000000000000000000 ) ) ;
#67 = VECTOR ( 'NONE', #160, 1000.000000000000000 ) ;
#68 = UNCERTAINTY_MEASURE_WITH_UNIT (LENGTH_MEASURE( 1.000000000000000082E-05 ), #12, 'distance_accuracy_value', 'NONE');
#69 = ORIENTED_EDGE ( 'NONE', *, *, #269, .F. ) ;
#70 = FACE_OUTER_BOUND ( 'NONE', #107, .T. ) ;
#71 = PRODUCT_RELATED_PRODUCT_CATEGORY ( 'detail', '', ( #138 ) ) ;
#72 = CARTESIAN_POINT ( 'NONE',  ( -10.00000000000000000, 0.000000000000000000, 7.000000000000000000 ) ) ;
#73 = CIRCLE ( 'NONE', #255, 6.000000000000000888 ) ;
#74 = EDGE_CURVE ( 'NONE', #368, #329, #7, .T. ) ;
#75 = ORIENTED_EDGE ( 'NONE', *, *, #132, .F. ) ;
#76 = ORIENTED_EDGE ( 'NONE', *, *, #152, .T. ) ;
#77 = DIRECTION ( 'NONE',  ( 0.000000000000000000, 0.000000000000000000, 1.000000000000000000 ) ) ;
#78 = ORIENTED_EDGE ( 'NONE', *, *, #223, .F. ) ;
#79 = AXIS2_PLACEMENT_3D ( 'NONE', #172, #260, #206 ) ;
#80 = DIRECTION ( 'NONE',  ( -0.000000000000000000, -0.000000000000000000, -1.000000000000000000 ) ) ;
#81 = CARTESIAN_POINT ( 'NONE',  ( 10.00000000000000000, 1.224646799147353256E-15, 0.000000000000000000 ) ) ;
#82 = ORIENTED_EDGE ( 'NONE', *, *, #53, .T. ) ;
#83 = CYLINDRICAL_SURFACE ( 'NONE', #100, 2.500000000000000000 ) ;
#84 = ORIENTED_EDGE ( 'NONE', *, *, #44, .T. ) ;
#85 = APPROVAL ( #375, 'NEURÈENÝ' ) ;
#86 = DATE_AND_TIME ( #243, #95 ) ;
#87 = DIRECTION ( 'NONE',  ( -1.000000000000000000, 0.000000000000000000, 0.000000000000000000 ) ) ;
#88 = EDGE_CURVE ( 'NONE', #306, #239, #109, .T. ) ;
#89 = PERSON_AND_ORGANIZATION ( #233, #123 ) ;
#90 = DIRECTION ( 'NONE',  ( -0.000000000000000000, -0.000000000000000000, -1.000000000000000000 ) ) ;
#91 = CALENDAR_DATE ( 2022, 8, 7 ) ;
#92 = DIRECTION ( 'NONE',  ( 1.000000000000000000, 0.000000000000000000, 0.000000000000000000 ) ) ;
#93 = APPLICATION_PROTOCOL_DEFINITION ( 'international standard', 'config_control_design', 1994, #319 ) ;
#94 = EDGE_CURVE ( 'NONE', #128, #292, #279, .T. ) ;
#95 = LOCAL_TIME ( 17, 13, 11.00000000000000000, #344 ) ;
#96 = DIRECTION ( 'NONE',  ( -0.000000000000000000, -0.000000000000000000, -1.000000000000000000 ) ) ;
#97 = CARTESIAN_POINT ( 'NONE',  ( -2.500000000000000000, 0.000000000000000000, 182.0000000000000000 ) ) ;
#98 = CARTESIAN_POINT ( 'NONE',  ( 6.500000000000000888, 0.000000000000000000, 7.000000000000002665 ) ) ;
#99 = ADVANCED_FACE ( 'NONE', ( #247, #277 ), #245, .F. ) ;
#100 = AXIS2_PLACEMENT_3D ( 'NONE', #209, #144, #87 ) ;
#101 = DIRECTION ( 'NONE',  ( 0.000000000000000000, 0.000000000000000000, 1.000000000000000000 ) ) ;
#102 = CYLINDRICAL_SURFACE ( 'NONE', #308, 6.000000000000000888 ) ;
#103 = ORIENTED_EDGE ( 'NONE', *, *, #293, .F. ) ;
#104 = EDGE_LOOP ( 'NONE', ( #43, #84, #82, #235 ) ) ;
#105 = FACE_OUTER_BOUND ( 'NONE', #104, .T. ) ;
#106 = CARTESIAN_POINT ( 'NONE',  ( 0.000000000000000000, 0.000000000000000000, 7.500000000000007105 ) ) ;
#107 = EDGE_LOOP ( 'NONE', ( #257, #22, #163, #49 ) ) ;
#108 = DIRECTION ( 'NONE',  ( 0.000000000000000000, 0.000000000000000000, 1.000000000000000000 ) ) ;
#109 = CIRCLE ( 'NONE', #236, 0.5000000000000004441 ) ;
#110 = ORIENTED_EDGE ( 'NONE', *, *, #74, .T. ) ;
#111 = FACE_OUTER_BOUND ( 'NONE', #200, .T. ) ;
#112 = EDGE_LOOP ( 'NONE', ( #57, #55, #10, #359 ) ) ;
#113 = PERSON_AND_ORGANIZATION_ROLE ( 'classification_officer' ) ;
#114 = VERTEX_POINT ( 'NONE', #252 ) ;
#115 = EDGE_CURVE ( 'NONE', #284, #343, #216, .T. ) ;
#116 = DATE_AND_TIME ( #91, #339 ) ;
#117 = CIRCLE ( 'NONE', #79, 2.500000000000000000 ) ;
#118 = DATE_AND_TIME ( #349, #189 ) ;
#119 = CARTESIAN_POINT ( 'NONE',  ( -6.500000000000000888, 7.960204194457796463E-16, 7.000000000000002665 ) ) ;
#120 = LINE ( 'NONE', #24, #140 ) ;
#121 = CALENDAR_DATE ( 2022, 8, 7 ) ;
#122 = DIRECTION ( 'NONE',  ( 0.000000000000000000, 0.000000000000000000, 1.000000000000000000 ) ) ;
#123 = ORGANIZATION ( 'NEURÈENÝ', 'NEURÈENÝ', '' ) ;
#124 = DIRECTION ( 'NONE',  ( 0.000000000000000000, 0.000000000000000000, -1.000000000000000000 ) ) ;
#125 = DIRECTION ( 'NONE',  ( 1.000000000000000000, 0.000000000000000000, 0.000000000000000000 ) ) ;
#126 = EDGE_CURVE ( 'NONE', #329, #365, #120, .T. ) ;
#127 = LINE ( 'NONE', #222, #67 ) ;
#128 = VERTEX_POINT ( 'NONE', #28 ) ;
#129 = EDGE_LOOP ( 'NONE', ( #179, #197 ) ) ;
#130 = APPROVAL_PERSON_ORGANIZATION ( #33, #303, #301 ) ;
#131 = DESIGN_CONTEXT ( 'detailed design', #319, 'design' ) ;
#132 = EDGE_CURVE ( 'NONE', #46, #203, #145, .T. ) ;
#133 = CARTESIAN_POINT ( 'NONE',  ( 0.000000000000000000, 0.000000000000000000, 0.000000000000000000 ) ) ;
#134 = MANIFOLD_SOLID_BREP ( 'Odebrat vysunutím3', #338 ) ;
#135 = AXIS2_PLACEMENT_3D ( 'NONE', #356, #101, #226 ) ;
#136 = EDGE_LOOP ( 'NONE', ( #76, #174 ) ) ;
#137 = DIRECTION ( 'NONE',  ( -1.000000000000000000, 0.000000000000000000, 0.000000000000000000 ) ) ;
#138 = PRODUCT ( '1fea', '1fea', '', ( #182 ) ) ;
#139 = CARTESIAN_POINT ( 'NONE',  ( -10.00000000000000000, 0.000000000000000000, 7.000000000000000000 ) ) ;
#140 = VECTOR ( 'NONE', #299, 1000.000000000000000 ) ;
#141 = CIRCLE ( 'NONE', #20, 10.00000000000000000 ) ;
#142 = EDGE_CURVE ( 'NONE', #329, #368, #141, .T. ) ;
#143 = DIRECTION ( 'NONE',  ( 0.000000000000000000, 0.000000000000000000, -1.000000000000000000 ) ) ;
#144 = DIRECTION ( 'NONE',  ( 0.000000000000000000, 0.000000000000000000, -1.000000000000000000 ) ) ;
#145 = LINE ( 'NONE', #379, #210 ) ;
#146 = PERSON_AND_ORGANIZATION_ROLE ( 'creator' ) ;
#147 = DIRECTION ( 'NONE',  ( -0.000000000000000000, -0.000000000000000000, -1.000000000000000000 ) ) ;
#148 = AXIS2_PLACEMENT_3D ( 'NONE', #305, #224, #125 ) ;
#149 = CIRCLE ( 'NONE', #251, 2.500000000000000000 ) ;
#150 = DIRECTION ( 'NONE',  ( 0.000000000000000000, 0.000000000000000000, 1.000000000000000000 ) ) ;
#151 = EDGE_LOOP ( 'NONE', ( #314, #366 ) ) ;
#152 = EDGE_CURVE ( 'NONE', #239, #161, #40, .T. ) ;
#153 = APPROVAL_STATUS ( 'not_yet_approved' ) ;
#154 = CC_DESIGN_PERSON_AND_ORGANIZATION_ASSIGNMENT ( #214, #246, ( #138 ) ) ;
#155 = ADVANCED_FACE ( 'NONE', ( #190 ), #32, .T. ) ;
#156 = CARTESIAN_POINT ( 'NONE',  ( 0.000000000000000000, 0.000000000000000000, 7.000000000000000000 ) ) ;
#157 = DIRECTION ( 'NONE',  ( 1.000000000000000000, 0.000000000000000000, -0.000000000000000000 ) ) ;
#158 = ORIENTED_EDGE ( 'NONE', *, *, #88, .F. ) ;
#159 = ORIENTED_EDGE ( 'NONE', *, *, #162, .F. ) ;
#160 = DIRECTION ( 'NONE',  ( -0.000000000000000000, -0.000000000000000000, -1.000000000000000000 ) ) ;
#161 = VERTEX_POINT ( 'NONE', #119 ) ;
#162 = EDGE_CURVE ( 'NONE', #161, #239, #377, .T. ) ;
#163 = ORIENTED_EDGE ( 'NONE', *, *, #94, .T. ) ;
#164 = AXIS2_PLACEMENT_3D ( 'NONE', #381, #273, #64 ) ;
#165 = CC_DESIGN_APPROVAL ( #228, ( #371 ) ) ;
#166 = ORIENTED_EDGE ( 'NONE', *, *, #132, .T. ) ;
#167 = ORIENTED_EDGE ( 'NONE', *, *, #269, .T. ) ;
#168 = CC_DESIGN_DATE_AND_TIME_ASSIGNMENT ( #86, #317, ( #218 ) ) ;
#169 = FACE_OUTER_BOUND ( 'NONE', #112, .T. ) ;
#170 = AXIS2_PLACEMENT_3D ( 'NONE', #297, #25, #194 ) ;
#171 = EDGE_CURVE ( 'NONE', #292, #128, #149, .T. ) ;
#172 = CARTESIAN_POINT ( 'NONE',  ( 0.000000000000000000, 0.000000000000000000, 182.0000000000000000 ) ) ;
#173 = DIRECTION ( 'NONE',  ( -0.000000000000000000, -0.000000000000000000, -1.000000000000000000 ) ) ;
#174 = ORIENTED_EDGE ( 'NONE', *, *, #162, .T. ) ;
#175 = CARTESIAN_POINT ( 'NONE',  ( 0.000000000000000000, 0.000000000000000000, 182.0000000000000000 ) ) ;
#176 = ORIENTED_EDGE ( 'NONE', *, *, #250, .F. ) ;
#177 = DIRECTION ( 'NONE',  ( 1.000000000000000000, 0.000000000000000000, 0.000000000000000000 ) ) ;
#178 = AXIS2_PLACEMENT_3D ( 'NONE', #106, #286, #266 ) ;
#179 = ORIENTED_EDGE ( 'NONE', *, *, #171, .F. ) ;
#180 = ORIENTED_EDGE ( 'NONE', *, *, #232, .F. ) ;
#181 = APPLICATION_CONTEXT ( 'configuration controlled 3d designs of mechanical parts and assemblies' ) ;
#182 = MECHANICAL_CONTEXT ( 'NONE', #181, 'mechanical' ) ;
#183 = PERSON_AND_ORGANIZATION_ROLE ( 'creator' ) ;
#184 = DIRECTION ( 'NONE',  ( -0.000000000000000000, -0.000000000000000000, -1.000000000000000000 ) ) ;
#185 = PERSON_AND_ORGANIZATION ( #233, #123 ) ;
#186 = DIRECTION ( 'NONE',  ( 1.000000000000000000, 0.000000000000000000, -0.000000000000000000 ) ) ;
#187 = VECTOR ( 'NONE', #124, 1000.000000000000000 ) ;
#188 = EDGE_CURVE ( 'NONE', #203, #161, #50, .T. ) ;
#189 = LOCAL_TIME ( 17, 13, 11.00000000000000000, #31 ) ;
#190 = FACE_OUTER_BOUND ( 'NONE', #19, .T. ) ;
#191 = ADVANCED_FACE ( 'NONE', ( #196 ), #102, .T. ) ;
#192 = DIRECTION ( 'NONE',  ( 1.000000000000000000, 0.000000000000000000, 0.000000000000000000 ) ) ;
#193 = CC_DESIGN_PERSON_AND_ORGANIZATION_ASSIGNMENT ( #62, #183, ( #371 ) ) ;
#194 = DIRECTION ( 'NONE',  ( -1.000000000000000000, 1.224646799147351482E-16, 0.000000000000000000 ) ) ;
#195 = CC_DESIGN_SECURITY_CLASSIFICATION ( #218, ( #371 ) ) ;
#196 = FACE_OUTER_BOUND ( 'NONE', #330, .T. ) ;
#197 = ORIENTED_EDGE ( 'NONE', *, *, #94, .F. ) ;
#198 = ORIENTED_EDGE ( 'NONE', *, *, #250, .T. ) ;
#199 = DIRECTION ( 'NONE',  ( 0.000000000000000000, 0.000000000000000000, 1.000000000000000000 ) ) ;
#200 = EDGE_LOOP ( 'NONE', ( #363, #345 ) ) ;
#201 = ADVANCED_FACE ( 'NONE', ( #42, #11 ), #256, .T. ) ;
#202 =( NAMED_UNIT ( * ) PLANE_ANGLE_UNIT ( ) SI_UNIT ( $, .RADIAN. ) );
#203 = VERTEX_POINT ( 'NONE', #326 ) ;
#204 = CIRCLE ( 'NONE', #346, 6.000000000000000888 ) ;
#205 = CARTESIAN_POINT ( 'NONE',  ( 0.000000000000000000, 0.000000000000000000, 182.0000000000000000 ) ) ;
#206 = DIRECTION ( 'NONE',  ( 1.000000000000000000, 0.000000000000000000, 0.000000000000000000 ) ) ;
#207 = CARTESIAN_POINT ( 'NONE',  ( -2.500000000000000000, 0.000000000000000000, 182.0000000000000000 ) ) ;
#208 = CARTESIAN_POINT ( 'NONE',  ( -2.500000000000000000, 0.000000000000000000, 0.000000000000000000 ) ) ;
#209 = CARTESIAN_POINT ( 'NONE',  ( 0.000000000000000000, 0.000000000000000000, 182.0000000000000000 ) ) ;
#210 = VECTOR ( 'NONE', #96, 1000.000000000000000 ) ;
#211 = FACE_OUTER_BOUND ( 'NONE', #29, .T. ) ;
#212 = CALENDAR_DATE ( 2022, 8, 7 ) ;
#213 = PERSON_AND_ORGANIZATION ( #233, #123 ) ;
#214 = PERSON_AND_ORGANIZATION ( #233, #123 ) ;
#215 = DIRECTION ( 'NONE',  ( 1.000000000000000000, 0.000000000000000000, 0.000000000000000000 ) ) ;
#216 = CIRCLE ( 'NONE', #263, 2.500000000000000000 ) ;
#217 = CC_DESIGN_DATE_AND_TIME_ASSIGNMENT ( #118, #272, ( #30 ) ) ;
#218 = SECURITY_CLASSIFICATION ( '', '', #249 ) ;
#219 = PERSON_AND_ORGANIZATION_ROLE ( 'design_supplier' ) ;
#220 = DIRECTION ( 'NONE',  ( 0.000000000000000000, 0.000000000000000000, 1.000000000000000000 ) ) ;
#221 = CARTESIAN_POINT ( 'NONE',  ( 0.000000000000000000, 0.000000000000000000, 0.000000000000000000 ) ) ;
#222 = CARTESIAN_POINT ( 'NONE',  ( 6.000000000000000888, 7.347880794884120722E-16, 182.0000000000000000 ) ) ;
#223 = EDGE_CURVE ( 'NONE', #37, #365, #270, .T. ) ;
#224 = DIRECTION ( 'NONE',  ( 0.000000000000000000, 0.000000000000000000, 1.000000000000000000 ) ) ;
#225 = DATE_AND_TIME ( #212, #231 ) ;
#226 = DIRECTION ( 'NONE',  ( 1.000000000000000000, 0.000000000000000000, 0.000000000000000000 ) ) ;
#227 = CARTESIAN_POINT ( 'NONE',  ( 0.000000000000000000, 0.000000000000000000, 182.0000000000000000 ) ) ;
#228 = APPROVAL ( #153, 'NEURÈENÝ' ) ;
#229 = ORIENTED_EDGE ( 'NONE', *, *, #88, .T. ) ;
#230 = AXIS2_PLACEMENT_3D ( 'NONE', #342, #315, #290 ) ;
#231 = LOCAL_TIME ( 17, 13, 11.00000000000000000, #347 ) ;
#232 = EDGE_CURVE ( 'NONE', #114, #46, #288, .T. ) ;
#233 = PERSON ( 'NEURÈENÝ', 'NEURÈENÝ', 'NEURÈENÝ', ('NEURÈENÝ'), ('NEURÈENÝ'), ('NEURÈENÝ') ) ;
#234 = ADVANCED_FACE ( 'NONE', ( #5 ), #334, .F. ) ;
#235 = ORIENTED_EDGE ( 'NONE', *, *, #171, .T. ) ;
#236 = AXIS2_PLACEMENT_3D ( 'NONE', #321, #376, #300 ) ;
#237 = APPROVAL_PERSON_ORGANIZATION ( #213, #228, #294 ) ;
#238 = DIRECTION ( 'NONE',  ( 1.000000000000000000, 0.000000000000000000, 0.000000000000000000 ) ) ;
#239 = VERTEX_POINT ( 'NONE', #98 ) ;
#240 = CARTESIAN_POINT ( 'NONE',  ( 2.500000000000000000, 3.061616997868383141E-16, 182.0000000000000000 ) ) ;
#241 = ORIENTED_EDGE ( 'NONE', *, *, #354, .F. ) ;
#242 = ORIENTED_EDGE ( 'NONE', *, *, #188, .T. ) ;
#243 = CALENDAR_DATE ( 2022, 8, 7 ) ;
#244 = AXIS2_PLACEMENT_3D ( 'NONE', #156, #9, #157 ) ;
#245 = PLANE ( 'NONE',  #369 ) ;
#246 = PERSON_AND_ORGANIZATION_ROLE ( 'design_owner' ) ;
#247 = FACE_BOUND ( 'NONE', #129, .T. ) ;
#248 = DIRECTION ( 'NONE',  ( 1.000000000000000000, 0.000000000000000000, 0.000000000000000000 ) ) ;
#249 = SECURITY_CLASSIFICATION_LEVEL ( 'unclassified' ) ;
#250 = EDGE_CURVE ( 'NONE', #114, #306, #127, .T. ) ;
#251 = AXIS2_PLACEMENT_3D ( 'NONE', #348, #90, #61 ) ;
#252 = CARTESIAN_POINT ( 'NONE',  ( 6.000000000000000888, 7.347880794884120722E-16, 182.0000000000000000 ) ) ;
#253 = DIRECTION ( 'NONE',  ( -0.000000000000000000, -0.000000000000000000, -1.000000000000000000 ) ) ;
#254 = LINE ( 'NONE', #72, #27 ) ;
#255 = AXIS2_PLACEMENT_3D ( 'NONE', #175, #199, #177 ) ;
#256 = PLANE ( 'NONE',  #244 ) ;
#257 = ORIENTED_EDGE ( 'NONE', *, *, #115, .T. ) ;
#258 = CC_DESIGN_APPROVAL ( #303, ( #30 ) ) ;
#259 = CYLINDRICAL_SURFACE ( 'NONE', #287, 6.000000000000000888 ) ;
#260 = DIRECTION ( 'NONE',  ( 0.000000000000000000, 0.000000000000000000, 1.000000000000000000 ) ) ;
#261 = EDGE_CURVE ( 'NONE', #368, #37, #254, .T. ) ;
#262 = ORIENTED_EDGE ( 'NONE', *, *, #142, .T. ) ;
#263 = AXIS2_PLACEMENT_3D ( 'NONE', #60, #220, #302 ) ;
#264 = AXIS2_PLACEMENT_3D ( 'NONE', #227, #54, #372 ) ;
#265 = ORIENTED_EDGE ( 'NONE', *, *, #142, .F. ) ;
#266 = DIRECTION ( 'NONE',  ( 1.000000000000000000, 0.000000000000000000, 0.000000000000000000 ) ) ;
#267 = COORDINATED_UNIVERSAL_TIME_OFFSET ( 1, 0, .AHEAD. ) ;
#268 = CARTESIAN_POINT ( 'NONE',  ( 0.000000000000000000, 0.000000000000000000, 7.000000000000000000 ) ) ;
#269 = EDGE_CURVE ( 'NONE', #306, #203, #357, .T. ) ;
#270 = CIRCLE ( 'NONE', #311, 10.00000000000000000 ) ;
#271 = DIRECTION ( 'NONE',  ( 1.000000000000000000, 0.000000000000000000, 0.000000000000000000 ) ) ;
#272 = DATE_TIME_ROLE ( 'creation_date' ) ;
#273 = DIRECTION ( 'NONE',  ( -0.000000000000000000, -0.000000000000000000, -1.000000000000000000 ) ) ;
#274 = CARTESIAN_POINT ( 'NONE',  ( 0.000000000000000000, 0.000000000000000000, 7.000000000000000000 ) ) ;
#275 = ADVANCED_FACE ( 'NONE', ( #70 ), #39, .F. ) ;
#276 = DATE_AND_TIME ( #121, #323 ) ;
#277 = FACE_OUTER_BOUND ( 'NONE', #52, .T. ) ;
#278 = AXIS2_PLACEMENT_3D ( 'NONE', #205, #77, #309 ) ;
#279 = CIRCLE ( 'NONE', #164, 2.500000000000000000 ) ;
#280 = ORIENTED_EDGE ( 'NONE', *, *, #152, .F. ) ;
#281 = VECTOR ( 'NONE', #143, 1000.000000000000000 ) ;
#282 = CC_DESIGN_PERSON_AND_ORGANIZATION_ASSIGNMENT ( #298, #113, ( #218 ) ) ;
#283 = EDGE_LOOP ( 'NONE', ( #241, #242, #280, #158 ) ) ;
#284 = VERTEX_POINT ( 'NONE', #207 ) ;
#285 = DIRECTION ( 'NONE',  ( 0.000000000000000000, 0.000000000000000000, 1.000000000000000000 ) ) ;
#286 = DIRECTION ( 'NONE',  ( 0.000000000000000000, 0.000000000000000000, 1.000000000000000000 ) ) ;
#287 = AXIS2_PLACEMENT_3D ( 'NONE', #337, #80, #310 ) ;
#288 = CIRCLE ( 'NONE', #358, 6.000000000000000888 ) ;
#289 = FACE_BOUND ( 'NONE', #151, .T. ) ;
#290 = DIRECTION ( 'NONE',  ( 1.000000000000000000, 0.000000000000000000, 0.000000000000000000 ) ) ;
#291 = CARTESIAN_POINT ( 'NONE',  ( 10.00000000000000000, 1.224646799147353256E-15, 7.000000000000000000 ) ) ;
#292 = VERTEX_POINT ( 'NONE', #208 ) ;
#293 = EDGE_CURVE ( 'NONE', #46, #114, #73, .T. ) ;
#294 = APPROVAL_ROLE ( '' ) ;
#295 = CARTESIAN_POINT ( 'NONE',  ( 0.000000000000000000, 0.000000000000000000, 7.000000000000000000 ) ) ;
#296 = DIRECTION ( 'NONE',  ( 0.000000000000000000, 0.000000000000000000, 1.000000000000000000 ) ) ;
#297 = CARTESIAN_POINT ( 'NONE',  ( -6.500000000000000888, 7.960204194457796463E-16, 7.500000000000007105 ) ) ;
#298 = PERSON_AND_ORGANIZATION ( #233, #123 ) ;
#299 = DIRECTION ( 'NONE',  ( -0.000000000000000000, -0.000000000000000000, -1.000000000000000000 ) ) ;
#300 = DIRECTION ( 'NONE',  ( 0.000000000000000000, 0.000000000000000000, -1.000000000000000000 ) ) ;
#301 = APPROVAL_ROLE ( '' ) ;
#302 = DIRECTION ( 'NONE',  ( 1.000000000000000000, 0.000000000000000000, 0.000000000000000000 ) ) ;
#303 = APPROVAL ( #322, 'NEURÈENÝ' ) ;
#304 = AXIS2_PLACEMENT_3D ( 'NONE', #351, #147, #215 ) ;
#305 = CARTESIAN_POINT ( 'NONE',  ( 0.000000000000000000, 0.000000000000000000, 7.500000000000007105 ) ) ;
#306 = VERTEX_POINT ( 'NONE', #335 ) ;
#307 = ORIENTED_EDGE ( 'NONE', *, *, #13, .F. ) ;
#308 = AXIS2_PLACEMENT_3D ( 'NONE', #332, #253, #36 ) ;
#309 = DIRECTION ( 'NONE',  ( 1.000000000000000000, 0.000000000000000000, -0.000000000000000000 ) ) ;
#310 = DIRECTION ( 'NONE',  ( -1.000000000000000000, 0.000000000000000000, 0.000000000000000000 ) ) ;
#311 = AXIS2_PLACEMENT_3D ( 'NONE', #133, #355, #362 ) ;
#312 = APPLICATION_PROTOCOL_DEFINITION ( 'international standard', 'config_control_design', 1994, #181 ) ;
#313 = CARTESIAN_POINT ( 'NONE',  ( -6.000000000000000888, 0.000000000000000000, 182.0000000000000000 ) ) ;
#314 = ORIENTED_EDGE ( 'NONE', *, *, #115, .F. ) ;
#315 = DIRECTION ( 'NONE',  ( 0.000000000000000000, 0.000000000000000000, 1.000000000000000000 ) ) ;
#316 = EDGE_LOOP ( 'NONE', ( #38, #69, #229, #159 ) ) ;
#317 = DATE_TIME_ROLE ( 'classification_date' ) ;
#318 = CC_DESIGN_PERSON_AND_ORGANIZATION_ASSIGNMENT ( #378, #146, ( #30 ) ) ;
#319 = APPLICATION_CONTEXT ( 'configuration controlled 3d designs of mechanical parts and assemblies' ) ;
#320 = ADVANCED_FACE ( 'NONE', ( #169 ), #56, .T. ) ;
#321 = CARTESIAN_POINT ( 'NONE',  ( 6.500000000000000888, 0.000000000000000000, 7.500000000000007105 ) ) ;
#322 = APPROVAL_STATUS ( 'not_yet_approved' ) ;
#323 = LOCAL_TIME ( 17, 13, 11.00000000000000000, #267 ) ;
#324 = ADVANCED_FACE ( 'NONE', ( #289, #111 ), #367, .T. ) ;
#325 = APPROVAL_DATE_TIME ( #116, #303 ) ;
#326 = CARTESIAN_POINT ( 'NONE',  ( -6.000000000000000888, 0.000000000000000000, 7.500000000000007105 ) ) ;
#327 = DIRECTION ( 'NONE',  ( -0.000000000000000000, -0.000000000000000000, -1.000000000000000000 ) ) ;
#328 = TOROIDAL_SURFACE ( 'NONE', #178, 6.500000000000000888, 0.5000000000000000000 ) ;
#329 = VERTEX_POINT ( 'NONE', #291 ) ;
#330 = EDGE_LOOP ( 'NONE', ( #176, #103, #166, #41 ) ) ;
#331 = APPROVAL_DATE_TIME ( #225, #85 ) ;
#332 = CARTESIAN_POINT ( 'NONE',  ( 0.000000000000000000, 0.000000000000000000, 182.0000000000000000 ) ) ;
#333 = EDGE_CURVE ( 'NONE', #343, #128, #45, .T. ) ;
#334 = TOROIDAL_SURFACE ( 'NONE', #148, 6.500000000000000888, 0.5000000000000000000 ) ;
#335 = CARTESIAN_POINT ( 'NONE',  ( 6.000000000000000888, 7.347880794884120722E-16, 7.500000000000007105 ) ) ;
#336 = PRODUCT_DEFINITION_SHAPE ( 'NONE', 'NONE',  #30 ) ;
#337 = CARTESIAN_POINT ( 'NONE',  ( 0.000000000000000000, 0.000000000000000000, 182.0000000000000000 ) ) ;
#338 = CLOSED_SHELL ( 'NONE', ( #275, #360, #26, #155, #320, #201, #99, #191, #324, #234, #18 ) ) ;
#339 = LOCAL_TIME ( 17, 13, 11.00000000000000000, #1 ) ;
#340 = FACE_OUTER_BOUND ( 'NONE', #283, .T. ) ;
#341 = CC_DESIGN_PERSON_AND_ORGANIZATION_ASSIGNMENT ( #185, #219, ( #371 ) ) ;
#342 = CARTESIAN_POINT ( 'NONE',  ( 0.000000000000000000, 0.000000000000000000, 0.000000000000000000 ) ) ;
#343 = VERTEX_POINT ( 'NONE', #240 ) ;
#344 = COORDINATED_UNIVERSAL_TIME_OFFSET ( 1, 0, .AHEAD. ) ;
#345 = ORIENTED_EDGE ( 'NONE', *, *, #232, .T. ) ;
#346 = AXIS2_PLACEMENT_3D ( 'NONE', #16, #108, #238 ) ;
#347 = COORDINATED_UNIVERSAL_TIME_OFFSET ( 1, 0, .AHEAD. ) ;
#348 = CARTESIAN_POINT ( 'NONE',  ( 0.000000000000000000, 0.000000000000000000, 0.000000000000000000 ) ) ;
#349 = CALENDAR_DATE ( 2022, 8, 7 ) ;
#350 = LINE ( 'NONE', #97, #187 ) ;
#351 = CARTESIAN_POINT ( 'NONE',  ( 0.000000000000000000, 0.000000000000000000, 7.000000000000000000 ) ) ;
#352 = CC_DESIGN_APPROVAL ( #85, ( #218 ) ) ;
#353 = DIRECTION ( 'NONE',  ( 0.000000000000000000, 0.000000000000000000, 1.000000000000000000 ) ) ;
#354 = EDGE_CURVE ( 'NONE', #203, #306, #204, .T. ) ;
#355 = DIRECTION ( 'NONE',  ( 0.000000000000000000, 0.000000000000000000, 1.000000000000000000 ) ) ;
#356 = CARTESIAN_POINT ( 'NONE',  ( 0.000000000000000000, 0.000000000000000000, 7.500000000000007105 ) ) ;
#357 = CIRCLE ( 'NONE', #135, 6.000000000000000888 ) ;
#358 = AXIS2_PLACEMENT_3D ( 'NONE', #361, #285, #192 ) ;
#359 = ORIENTED_EDGE ( 'NONE', *, *, #223, .T. ) ;
#360 = ADVANCED_FACE ( 'NONE', ( #340 ), #328, .F. ) ;
#361 = CARTESIAN_POINT ( 'NONE',  ( 0.000000000000000000, 0.000000000000000000, 182.0000000000000000 ) ) ;
#362 = DIRECTION ( 'NONE',  ( 1.000000000000000000, 0.000000000000000000, 0.000000000000000000 ) ) ;
#363 = ORIENTED_EDGE ( 'NONE', *, *, #293, .T. ) ;
#364 = AXIS2_PLACEMENT_3D ( 'NONE', #380, #296, #65 ) ;
#365 = VERTEX_POINT ( 'NONE', #81 ) ;
#366 = ORIENTED_EDGE ( 'NONE', *, *, #44, .F. ) ;
#367 = PLANE ( 'NONE',  #278 ) ;
#368 = VERTEX_POINT ( 'NONE', #139 ) ;
#369 = AXIS2_PLACEMENT_3D ( 'NONE', #221, #353, #186 ) ;
#370 = ADVANCED_BREP_SHAPE_REPRESENTATION ( '1fea', ( #134, #364 ), #8 ) ;
#371 = PRODUCT_DEFINITION_FORMATION_WITH_SPECIFIED_SOURCE ( 'LIBOVOLNÝ', '', #138, .NOT_KNOWN. ) ;
#372 = DIRECTION ( 'NONE',  ( -1.000000000000000000, 0.000000000000000000, 0.000000000000000000 ) ) ;
#373 = EDGE_LOOP ( 'NONE', ( #110, #262 ) ) ;
#374 = ORIENTED_EDGE ( 'NONE', *, *, #13, .T. ) ;
#375 = APPROVAL_STATUS ( 'not_yet_approved' ) ;
#376 = DIRECTION ( 'NONE',  ( 0.000000000000000000, -1.000000000000000000, 0.000000000000000000 ) ) ;
#377 = CIRCLE ( 'NONE', #15, 6.500000000000000888 ) ;
#378 = PERSON_AND_ORGANIZATION ( #233, #123 ) ;
#379 = CARTESIAN_POINT ( 'NONE',  ( -6.000000000000000888, 0.000000000000000000, 182.0000000000000000 ) ) ;
#380 = CARTESIAN_POINT ( 'NONE',  ( 0.000000000000000000, 0.000000000000000000, 0.000000000000000000 ) ) ;
#381 = CARTESIAN_POINT ( 'NONE',  ( 0.000000000000000000, 0.000000000000000000, 0.000000000000000000 ) ) ;
ENDSEC;
END-ISO-10303-21;
