ISO-10303-21;
HEADER;
FILE_DESCRIPTION (( 'STEP AP203' ),
    '1' );
FILE_NAME ('b734.STEP',
    '2022-07-08T15:00:01',
    ( '' ),
    ( '' ),
    'SwSTEP 2.0',
    'SolidWorks 2019',
    '' );
FILE_SCHEMA (( 'CONFIG_CONTROL_DESIGN' ));
ENDSEC;

DATA;
#1 = DIRECTION ( 'NONE',  ( 0.000000000000000000, 0.000000000000000000, 1.000000000000000000 ) ) ;
#2 = CARTESIAN_POINT ( 'NONE',  ( -2.750000000000000000, 0.000000000000000000, 607.0000000000000000 ) ) ;
#3 = EDGE_LOOP ( 'NONE', ( #245, #182 ) ) ;
#4 = EDGE_CURVE ( 'NONE', #300, #70, #255, .T. ) ;
#5 = CYLINDRICAL_SURFACE ( 'NONE', #163, 2.750000000000000000 ) ;
#6 = ORIENTED_EDGE ( 'NONE', *, *, #373, .F. ) ;
#7 = DIRECTION ( 'NONE',  ( 0.000000000000000000, 0.000000000000000000, -1.000000000000000000 ) ) ;
#8 = CALENDAR_DATE ( 2022, 8, 7 ) ;
#9 = DIRECTION ( 'NONE',  ( 1.000000000000000000, 0.000000000000000000, 0.000000000000000000 ) ) ;
#10 = DATE_AND_TIME ( #8, #196 ) ;
#11 = LINE ( 'NONE', #336, #350 ) ;
#12 = CC_DESIGN_PERSON_AND_ORGANIZATION_ASSIGNMENT ( #339, #84, ( #364 ) ) ;
#13 = DIRECTION ( 'NONE',  ( 0.000000000000000000, 0.000000000000000000, 1.000000000000000000 ) ) ;
#14 = EDGE_CURVE ( 'NONE', #293, #273, #138, .T. ) ;
#15 = CIRCLE ( 'NONE', #233, 6.000000000000000888 ) ;
#16 = VECTOR ( 'NONE', #147, 1000.000000000000000 ) ;
#17 = DIRECTION ( 'NONE',  ( 1.000000000000000000, 0.000000000000000000, 0.000000000000000000 ) ) ;
#18 = FACE_OUTER_BOUND ( 'NONE', #74, .T. ) ;
#19 = CIRCLE ( 'NONE', #363, 6.000000000000000888 ) ;
#20 = AXIS2_PLACEMENT_3D ( 'NONE', #69, #120, #122 ) ;
#21 = FACE_OUTER_BOUND ( 'NONE', #45, .T. ) ;
#22 = CARTESIAN_POINT ( 'NONE',  ( 6.000000000000000888, 7.347880794884120722E-16, 7.499999999999951150 ) ) ;
#23 = ADVANCED_FACE ( 'NONE', ( #153 ), #5, .F. ) ;
#24 = APPROVAL_DATE_TIME ( #294, #61 ) ;
#25 = CIRCLE ( 'NONE', #180, 2.750000000000000000 ) ;
#26 = DIRECTION ( 'NONE',  ( 0.000000000000000000, 0.000000000000000000, 1.000000000000000000 ) ) ;
#27 = ADVANCED_FACE ( 'NONE', ( #269, #210 ), #104, .T. ) ;
#28 = PERSON_AND_ORGANIZATION_ROLE ( 'creator' ) ;
#29 = ORIENTED_EDGE ( 'NONE', *, *, #325, .T. ) ;
#30 = ORIENTED_EDGE ( 'NONE', *, *, #91, .F. ) ;
#31 = ORIENTED_EDGE ( 'NONE', *, *, #223, .F. ) ;
#32 = CIRCLE ( 'NONE', #259, 2.750000000000000000 ) ;
#33 = CC_DESIGN_APPROVAL ( #61, ( #199 ) ) ;
#34 = EDGE_LOOP ( 'NONE', ( #321, #296, #100, #67 ) ) ;
#35 = PERSON_AND_ORGANIZATION ( #323, #126 ) ;
#36 = DIRECTION ( 'NONE',  ( 0.000000000000000000, 0.000000000000000000, 1.000000000000000000 ) ) ;
#37 = PERSON_AND_ORGANIZATION ( #323, #126 ) ;
#38 = VERTEX_POINT ( 'NONE', #324 ) ;
#39 = DIRECTION ( 'NONE',  ( 1.000000000000000000, 0.000000000000000000, 0.000000000000000000 ) ) ;
#40 = VECTOR ( 'NONE', #137, 1000.000000000000000 ) ;
#41 = DIRECTION ( 'NONE',  ( 0.000000000000000000, 0.000000000000000000, -1.000000000000000000 ) ) ;
#42 = EDGE_CURVE ( 'NONE', #230, #131, #307, .T. ) ;
#43 = CALENDAR_DATE ( 2022, 8, 7 ) ;
#44 = CARTESIAN_POINT ( 'NONE',  ( 10.00000000000000000, 1.224646799147353256E-15, 7.000000000000000000 ) ) ;
#45 = EDGE_LOOP ( 'NONE', ( #359, #216, #353, #30 ) ) ;
#46 = DIRECTION ( 'NONE',  ( -0.000000000000000000, -0.000000000000000000, -1.000000000000000000 ) ) ;
#47 = CLOSED_SHELL ( 'NONE', ( #334, #370, #347, #312, #264, #253, #130, #281, #27, #157, #23 ) ) ;
#48 =( GEOMETRIC_REPRESENTATION_CONTEXT ( 3 ) GLOBAL_UNCERTAINTY_ASSIGNED_CONTEXT ( ( #181 ) ) GLOBAL_UNIT_ASSIGNED_CONTEXT ( ( #98, #356, #215 ) ) REPRESENTATION_CONTEXT ( 'NONE', 'WORKASPACE' ) );
#49 = LOCAL_TIME ( 17, 0, 1.000000000000000000, #305 ) ;
#50 = DIRECTION ( 'NONE',  ( 0.000000000000000000, 0.000000000000000000, -1.000000000000000000 ) ) ;
#51 = FACE_BOUND ( 'NONE', #360, .T. ) ;
#52 = LINE ( 'NONE', #260, #16 ) ;
#53 = CARTESIAN_POINT ( 'NONE',  ( 6.000000000000000888, 7.347880794884120722E-16, 607.0000000000000000 ) ) ;
#54 = APPROVAL ( #256, 'NEURÈENÝ' ) ;
#55 = DIRECTION ( 'NONE',  ( -1.000000000000000000, 0.000000000000000000, 0.000000000000000000 ) ) ;
#56 = DIRECTION ( 'NONE',  ( -0.000000000000000000, -0.000000000000000000, -1.000000000000000000 ) ) ;
#57 = AXIS2_PLACEMENT_3D ( 'NONE', #219, #66, #161 ) ;
#58 = COORDINATED_UNIVERSAL_TIME_OFFSET ( 1, 0, .AHEAD. ) ;
#59 = AXIS2_PLACEMENT_3D ( 'NONE', #333, #76, #192 ) ;
#60 = CARTESIAN_POINT ( 'NONE',  ( 0.000000000000000000, 0.000000000000000000, 7.499999999999951150 ) ) ;
#61 = APPROVAL ( #318, 'NEURÈENÝ' ) ;
#62 = MECHANICAL_CONTEXT ( 'NONE', #204, 'mechanical' ) ;
#63 = ORIENTED_EDGE ( 'NONE', *, *, #172, .F. ) ;
#64 = ORIENTED_EDGE ( 'NONE', *, *, #91, .T. ) ;
#65 = APPLICATION_PROTOCOL_DEFINITION ( 'international standard', 'config_control_design', 1994, #204 ) ;
#66 = DIRECTION ( 'NONE',  ( 0.000000000000000000, 0.000000000000000000, 1.000000000000000000 ) ) ;
#67 = ORIENTED_EDGE ( 'NONE', *, *, #298, .T. ) ;
#68 = AXIS2_PLACEMENT_3D ( 'NONE', #171, #173, #285 ) ;
#69 = CARTESIAN_POINT ( 'NONE',  ( 0.000000000000000000, 0.000000000000000000, 0.000000000000000000 ) ) ;
#70 = VERTEX_POINT ( 'NONE', #331 ) ;
#71 = CIRCLE ( 'NONE', #284, 2.750000000000000000 ) ;
#72 = ORIENTED_EDGE ( 'NONE', *, *, #102, .F. ) ;
#73 = PERSON_AND_ORGANIZATION ( #323, #126 ) ;
#74 = EDGE_LOOP ( 'NONE', ( #361, #101 ) ) ;
#75 = APPROVAL_ROLE ( '' ) ;
#76 = DIRECTION ( 'NONE',  ( -0.000000000000000000, -0.000000000000000000, -1.000000000000000000 ) ) ;
#77 = ORIENTED_EDGE ( 'NONE', *, *, #202, .F. ) ;
#78 = CIRCLE ( 'NONE', #68, 10.00000000000000000 ) ;
#79 = CARTESIAN_POINT ( 'NONE',  ( 10.00000000000000000, 1.224646799147353256E-15, 7.000000000000000000 ) ) ;
#80 = TOROIDAL_SURFACE ( 'NONE', #125, 6.500000000000000888, 0.5000000000000000000 ) ;
#81 = EDGE_CURVE ( 'NONE', #300, #278, #15, .T. ) ;
#82 = CARTESIAN_POINT ( 'NONE',  ( 10.00000000000000000, 1.224646799147353256E-15, 0.000000000000000000 ) ) ;
#83 = DIRECTION ( 'NONE',  ( 0.000000000000000000, 0.000000000000000000, 1.000000000000000000 ) ) ;
#84 = PERSON_AND_ORGANIZATION_ROLE ( 'classification_officer' ) ;
#85 = CARTESIAN_POINT ( 'NONE',  ( 2.750000000000000000, 3.367778697655221012E-16, 0.000000000000000000 ) ) ;
#86 = AXIS2_PLACEMENT_3D ( 'NONE', #124, #1, #185 ) ;
#87 = CC_DESIGN_APPROVAL ( #54, ( #249 ) ) ;
#88 = DIRECTION ( 'NONE',  ( -0.000000000000000000, -0.000000000000000000, -1.000000000000000000 ) ) ;
#89 = APPROVAL ( #197, 'NEURÈENÝ' ) ;
#90 = PLANE ( 'NONE',  #271 ) ;
#91 = EDGE_CURVE ( 'NONE', #38, #322, #266, .T. ) ;
#92 = DIRECTION ( 'NONE',  ( 1.000000000000000000, 0.000000000000000000, 0.000000000000000000 ) ) ;
#93 = DIRECTION ( 'NONE',  ( 1.000000000000000000, 0.000000000000000000, 0.000000000000000000 ) ) ;
#94 = ORIENTED_EDGE ( 'NONE', *, *, #4, .T. ) ;
#95 = DIRECTION ( 'NONE',  ( -1.000000000000000000, 0.000000000000000000, 0.000000000000000000 ) ) ;
#96 = AXIS2_PLACEMENT_3D ( 'NONE', #340, #368, #227 ) ;
#97 = EDGE_LOOP ( 'NONE', ( #320, #160, #328, #155 ) ) ;
#98 =( LENGTH_UNIT ( ) NAMED_UNIT ( * ) SI_UNIT ( .MILLI., .METRE. ) );
#99 = ORIENTED_EDGE ( 'NONE', *, *, #102, .T. ) ;
#100 = ORIENTED_EDGE ( 'NONE', *, *, #223, .T. ) ;
#101 = ORIENTED_EDGE ( 'NONE', *, *, #184, .F. ) ;
#102 = EDGE_CURVE ( 'NONE', #221, #218, #78, .T. ) ;
#103 = PERSON_AND_ORGANIZATION ( #323, #126 ) ;
#104 = PLANE ( 'NONE',  #344 ) ;
#105 = FACE_OUTER_BOUND ( 'NONE', #187, .T. ) ;
#106 = DATE_TIME_ROLE ( 'classification_date' ) ;
#107 = PLANE ( 'NONE',  #193 ) ;
#108 = EDGE_CURVE ( 'NONE', #221, #131, #139, .T. ) ;
#109 = PERSON_AND_ORGANIZATION ( #323, #126 ) ;
#110 = CARTESIAN_POINT ( 'NONE',  ( 0.000000000000000000, 0.000000000000000000, 0.000000000000000000 ) ) ;
#111 = CARTESIAN_POINT ( 'NONE',  ( -6.000000000000000888, 0.000000000000000000, 7.499999999999951150 ) ) ;
#112 = DIRECTION ( 'NONE',  ( -1.000000000000000000, 0.000000000000000000, 0.000000000000000000 ) ) ;
#113 = FACE_OUTER_BOUND ( 'NONE', #301, .T. ) ;
#114 = EDGE_CURVE ( 'NONE', #218, #221, #313, .T. ) ;
#115 = CARTESIAN_POINT ( 'NONE',  ( 0.000000000000000000, 0.000000000000000000, 607.0000000000000000 ) ) ;
#116 = CIRCLE ( 'NONE', #374, 6.500000000000000888 ) ;
#117 = LOCAL_TIME ( 17, 0, 1.000000000000000000, #141 ) ;
#118 = CARTESIAN_POINT ( 'NONE',  ( -6.000000000000000888, 0.000000000000000000, 607.0000000000000000 ) ) ;
#119 = EDGE_LOOP ( 'NONE', ( #242, #149 ) ) ;
#120 = DIRECTION ( 'NONE',  ( 0.000000000000000000, 0.000000000000000000, 1.000000000000000000 ) ) ;
#121 = EDGE_LOOP ( 'NONE', ( #72, #267, #276, #297 ) ) ;
#122 = DIRECTION ( 'NONE',  ( 1.000000000000000000, 0.000000000000000000, 0.000000000000000000 ) ) ;
#123 = ORIENTED_EDGE ( 'NONE', *, *, #114, .F. ) ;
#124 = CARTESIAN_POINT ( 'NONE',  ( 0.000000000000000000, 0.000000000000000000, 607.0000000000000000 ) ) ;
#125 = AXIS2_PLACEMENT_3D ( 'NONE', #152, #238, #265 ) ;
#126 = ORGANIZATION ( 'NEURÈENÝ', 'NEURÈENÝ', '' ) ;
#127 = DIRECTION ( 'NONE',  ( 0.000000000000000000, 0.000000000000000000, 1.000000000000000000 ) ) ;
#128 = VERTEX_POINT ( 'NONE', #85 ) ;
#129 = CARTESIAN_POINT ( 'NONE',  ( 0.000000000000000000, 0.000000000000000000, 607.0000000000000000 ) ) ;
#130 = ADVANCED_FACE ( 'NONE', ( #165, #18 ), #107, .F. ) ;
#131 = VERTEX_POINT ( 'NONE', #82 ) ;
#132 = APPROVAL_DATE_TIME ( #10, #89 ) ;
#133 = ORIENTED_EDGE ( 'NONE', *, *, #174, .F. ) ;
#134 = AXIS2_PLACEMENT_3D ( 'NONE', #366, #13, #39 ) ;
#135 = EDGE_CURVE ( 'NONE', #274, #38, #337, .T. ) ;
#136 = CARTESIAN_POINT ( 'NONE',  ( 0.000000000000000000, 0.000000000000000000, 0.000000000000000000 ) ) ;
#137 = DIRECTION ( 'NONE',  ( -0.000000000000000000, -0.000000000000000000, -1.000000000000000000 ) ) ;
#138 = CIRCLE ( 'NONE', #176, 6.000000000000000888 ) ;
#139 = LINE ( 'NONE', #44, #279 ) ;
#140 = PRODUCT_RELATED_PRODUCT_CATEGORY ( 'detail', '', ( #291 ) ) ;
#141 = COORDINATED_UNIVERSAL_TIME_OFFSET ( 1, 0, .AHEAD. ) ;
#142 = CARTESIAN_POINT ( 'NONE',  ( 0.000000000000000000, 0.000000000000000000, 0.000000000000000000 ) ) ;
#143 = CARTESIAN_POINT ( 'NONE',  ( 0.000000000000000000, 0.000000000000000000, 7.000000000000000000 ) ) ;
#144 = AXIS2_PLACEMENT_3D ( 'NONE', #175, #351, #55 ) ;
#145 = AXIS2_PLACEMENT_3D ( 'NONE', #376, #232, #348 ) ;
#146 = CC_DESIGN_DATE_AND_TIME_ASSIGNMENT ( #226, #332, ( #199 ) ) ;
#147 = DIRECTION ( 'NONE',  ( -0.000000000000000000, -0.000000000000000000, -1.000000000000000000 ) ) ;
#148 = DIRECTION ( 'NONE',  ( 0.000000000000000000, 0.000000000000000000, 1.000000000000000000 ) ) ;
#149 = ORIENTED_EDGE ( 'NONE', *, *, #135, .F. ) ;
#150 = DIRECTION ( 'NONE',  ( 1.000000000000000000, 0.000000000000000000, 0.000000000000000000 ) ) ;
#151 = ORIENTED_EDGE ( 'NONE', *, *, #108, .F. ) ;
#152 = CARTESIAN_POINT ( 'NONE',  ( 0.000000000000000000, 0.000000000000000000, 7.499999999999951150 ) ) ;
#153 = FACE_OUTER_BOUND ( 'NONE', #240, .T. ) ;
#154 = CC_DESIGN_PERSON_AND_ORGANIZATION_ASSIGNMENT ( #109, #367, ( #249 ) ) ;
#155 = ORIENTED_EDGE ( 'NONE', *, *, #4, .F. ) ;
#156 = CIRCLE ( 'NONE', #134, 10.00000000000000000 ) ;
#157 = ADVANCED_FACE ( 'NONE', ( #105 ), #234, .F. ) ;
#158 = APPROVAL_PERSON_ORGANIZATION ( #342, #54, #369 ) ;
#159 = EDGE_LOOP ( 'NONE', ( #295, #99 ) ) ;
#160 = ORIENTED_EDGE ( 'NONE', *, *, #174, .T. ) ;
#161 = DIRECTION ( 'NONE',  ( 1.000000000000000000, 0.000000000000000000, 0.000000000000000000 ) ) ;
#162 = ORIENTED_EDGE ( 'NONE', *, *, #303, .T. ) ;
#163 = AXIS2_PLACEMENT_3D ( 'NONE', #191, #7, #95 ) ;
#164 = CC_DESIGN_PERSON_AND_ORGANIZATION_ASSIGNMENT ( #37, #168, ( #249 ) ) ;
#165 = FACE_BOUND ( 'NONE', #217, .T. ) ;
#166 = CIRCLE ( 'NONE', #280, 0.5000000000000004441 ) ;
#167 = APPLICATION_CONTEXT ( 'configuration controlled 3d designs of mechanical parts and assemblies' ) ;
#168 = PERSON_AND_ORGANIZATION_ROLE ( 'creator' ) ;
#169 = DIRECTION ( 'NONE',  ( 1.224646799147353207E-16, 1.000000000000000000, -0.000000000000000000 ) ) ;
#170 = DATE_AND_TIME ( #335, #49 ) ;
#171 = CARTESIAN_POINT ( 'NONE',  ( 0.000000000000000000, 0.000000000000000000, 7.000000000000000000 ) ) ;
#172 = EDGE_CURVE ( 'NONE', #270, #70, #381, .T. ) ;
#173 = DIRECTION ( 'NONE',  ( 0.000000000000000000, 0.000000000000000000, 1.000000000000000000 ) ) ;
#174 = EDGE_CURVE ( 'NONE', #278, #270, #166, .T. ) ;
#175 = CARTESIAN_POINT ( 'NONE',  ( 0.000000000000000000, 0.000000000000000000, 607.0000000000000000 ) ) ;
#176 = AXIS2_PLACEMENT_3D ( 'NONE', #327, #36, #9 ) ;
#177 = DIRECTION ( 'NONE',  ( 0.000000000000000000, 0.000000000000000000, 1.000000000000000000 ) ) ;
#178 = CARTESIAN_POINT ( 'NONE',  ( 0.000000000000000000, 0.000000000000000000, 7.499999999999951150 ) ) ;
#179 = DIRECTION ( 'NONE',  ( 1.000000000000000000, 0.000000000000000000, 0.000000000000000000 ) ) ;
#180 = AXIS2_PLACEMENT_3D ( 'NONE', #110, #225, #341 ) ;
#181 = UNCERTAINTY_MEASURE_WITH_UNIT (LENGTH_MEASURE( 1.000000000000000082E-05 ), #98, 'distance_accuracy_value', 'NONE');
#182 = ORIENTED_EDGE ( 'NONE', *, *, #373, .T. ) ;
#183 = CALENDAR_DATE ( 2022, 8, 7 ) ;
#184 = EDGE_CURVE ( 'NONE', #131, #230, #156, .T. ) ;
#185 = DIRECTION ( 'NONE',  ( 1.000000000000000000, 0.000000000000000000, 0.000000000000000000 ) ) ;
#186 = EDGE_LOOP ( 'NONE', ( #6, #162, #214, #31 ) ) ;
#187 = EDGE_LOOP ( 'NONE', ( #133, #243, #94, #63 ) ) ;
#188 = AXIS2_PLACEMENT_3D ( 'NONE', #222, #83, #198 ) ;
#189 = ORIENTED_EDGE ( 'NONE', *, *, #42, .T. ) ;
#190 = CALENDAR_DATE ( 2022, 8, 7 ) ;
#191 = CARTESIAN_POINT ( 'NONE',  ( 0.000000000000000000, 0.000000000000000000, 607.0000000000000000 ) ) ;
#192 = DIRECTION ( 'NONE',  ( 1.000000000000000000, 0.000000000000000000, 0.000000000000000000 ) ) ;
#193 = AXIS2_PLACEMENT_3D ( 'NONE', #136, #250, #365 ) ;
#194 = MANIFOLD_SOLID_BREP ( 'Odebrat vysunutím3', #47 ) ;
#195 = LINE ( 'NONE', #306, #40 ) ;
#196 = LOCAL_TIME ( 17, 0, 1.000000000000000000, #304 ) ;
#197 = APPROVAL_STATUS ( 'not_yet_approved' ) ;
#198 = DIRECTION ( 'NONE',  ( 1.000000000000000000, 0.000000000000000000, 0.000000000000000000 ) ) ;
#199 = PRODUCT_DEFINITION ( 'NEZNÁMÝ', '', #249, #263 ) ;
#200 = CARTESIAN_POINT ( 'NONE',  ( 0.000000000000000000, 0.000000000000000000, 7.000000000000000000 ) ) ;
#201 = CC_DESIGN_SECURITY_CLASSIFICATION ( #364, ( #249 ) ) ;
#202 = EDGE_CURVE ( 'NONE', #274, #128, #11, .T. ) ;
#203 = FACE_OUTER_BOUND ( 'NONE', #121, .T. ) ;
#204 = APPLICATION_CONTEXT ( 'configuration controlled 3d designs of mechanical parts and assemblies' ) ;
#205 = DIRECTION ( 'NONE',  ( 1.000000000000000000, 0.000000000000000000, -0.000000000000000000 ) ) ;
#206 = CYLINDRICAL_SURFACE ( 'NONE', #288, 6.000000000000000888 ) ;
#207 = CYLINDRICAL_SURFACE ( 'NONE', #145, 2.750000000000000000 ) ;
#208 = ORIENTED_EDGE ( 'NONE', *, *, #239, .T. ) ;
#209 = PERSON_AND_ORGANIZATION_ROLE ( 'design_owner' ) ;
#210 = FACE_OUTER_BOUND ( 'NONE', #3, .T. ) ;
#211 = AXIS2_PLACEMENT_3D ( 'NONE', #317, #56, #311 ) ;
#212 = ORIENTED_EDGE ( 'NONE', *, *, #358, .F. ) ;
#213 = CC_DESIGN_PERSON_AND_ORGANIZATION_ASSIGNMENT ( #73, #28, ( #199 ) ) ;
#214 = ORIENTED_EDGE ( 'NONE', *, *, #81, .T. ) ;
#215 =( NAMED_UNIT ( * ) SI_UNIT ( $, .STERADIAN. ) SOLID_ANGLE_UNIT ( ) );
#216 = ORIENTED_EDGE ( 'NONE', *, *, #202, .T. ) ;
#217 = EDGE_LOOP ( 'NONE', ( #212, #254 ) ) ;
#218 = VERTEX_POINT ( 'NONE', #282 ) ;
#219 = CARTESIAN_POINT ( 'NONE',  ( 0.000000000000000000, 0.000000000000000000, 0.000000000000000000 ) ) ;
#220 = DIRECTION ( 'NONE',  ( 1.000000000000000000, 0.000000000000000000, 0.000000000000000000 ) ) ;
#221 = VERTEX_POINT ( 'NONE', #79 ) ;
#222 = CARTESIAN_POINT ( 'NONE',  ( 0.000000000000000000, 0.000000000000000000, 607.0000000000000000 ) ) ;
#223 = EDGE_CURVE ( 'NONE', #293, #278, #195, .T. ) ;
#224 = SECURITY_CLASSIFICATION_LEVEL ( 'unclassified' ) ;
#225 = DIRECTION ( 'NONE',  ( -0.000000000000000000, -0.000000000000000000, -1.000000000000000000 ) ) ;
#226 = DATE_AND_TIME ( #190, #229 ) ;
#227 = DIRECTION ( 'NONE',  ( 1.000000000000000000, 0.000000000000000000, 0.000000000000000000 ) ) ;
#228 = CYLINDRICAL_SURFACE ( 'NONE', #144, 6.000000000000000888 ) ;
#229 = LOCAL_TIME ( 17, 0, 1.000000000000000000, #268 ) ;
#230 = VERTEX_POINT ( 'NONE', #252 ) ;
#231 = CARTESIAN_POINT ( 'NONE',  ( -2.750000000000000000, 0.000000000000000000, 0.000000000000000000 ) ) ;
#232 = DIRECTION ( 'NONE',  ( 0.000000000000000000, 0.000000000000000000, -1.000000000000000000 ) ) ;
#233 = AXIS2_PLACEMENT_3D ( 'NONE', #60, #26, #150 ) ;
#234 = TOROIDAL_SURFACE ( 'NONE', #315, 6.500000000000000888, 0.5000000000000000000 ) ;
#235 = EDGE_CURVE ( 'NONE', #128, #322, #25, .T. ) ;
#236 = DIRECTION ( 'NONE',  ( -0.000000000000000000, -0.000000000000000000, -1.000000000000000000 ) ) ;
#237 = ORIENTED_EDGE ( 'NONE', *, *, #172, .T. ) ;
#238 = DIRECTION ( 'NONE',  ( 0.000000000000000000, 0.000000000000000000, 1.000000000000000000 ) ) ;
#239 = EDGE_CURVE ( 'NONE', #70, #270, #116, .T. ) ;
#240 = EDGE_LOOP ( 'NONE', ( #77, #275, #64, #357 ) ) ;
#241 = VECTOR ( 'NONE', #50, 1000.000000000000000 ) ;
#242 = ORIENTED_EDGE ( 'NONE', *, *, #289, .F. ) ;
#243 = ORIENTED_EDGE ( 'NONE', *, *, #81, .F. ) ;
#244 = FACE_OUTER_BOUND ( 'NONE', #97, .T. ) ;
#245 = ORIENTED_EDGE ( 'NONE', *, *, #14, .T. ) ;
#246 = APPLICATION_PROTOCOL_DEFINITION ( 'international standard', 'config_control_design', 1994, #167 ) ;
#247 = SHAPE_DEFINITION_REPRESENTATION ( #377, #310 ) ;
#248 = VECTOR ( 'NONE', #345, 1000.000000000000000 ) ;
#249 = PRODUCT_DEFINITION_FORMATION_WITH_SPECIFIED_SOURCE ( 'LIBOVOLNÝ', '', #291, .NOT_KNOWN. ) ;
#250 = DIRECTION ( 'NONE',  ( 0.000000000000000000, 0.000000000000000000, 1.000000000000000000 ) ) ;
#251 = CARTESIAN_POINT ( 'NONE',  ( -6.500000000000000888, 7.960204194457796463E-16, 7.499999999999951150 ) ) ;
#252 = CARTESIAN_POINT ( 'NONE',  ( -10.00000000000000000, 0.000000000000000000, 0.000000000000000000 ) ) ;
#253 = ADVANCED_FACE ( 'NONE', ( #51, #286 ), #90, .T. ) ;
#254 = ORIENTED_EDGE ( 'NONE', *, *, #235, .F. ) ;
#255 = CIRCLE ( 'NONE', #326, 0.5000000000000004441 ) ;
#256 = APPROVAL_STATUS ( 'not_yet_approved' ) ;
#257 = DATE_AND_TIME ( #43, #117 ) ;
#258 = CARTESIAN_POINT ( 'NONE',  ( 0.000000000000000000, 0.000000000000000000, 7.000000000000000000 ) ) ;
#259 = AXIS2_PLACEMENT_3D ( 'NONE', #115, #177, #93 ) ;
#260 = CARTESIAN_POINT ( 'NONE',  ( 6.000000000000000888, 7.347880794884120722E-16, 607.0000000000000000 ) ) ;
#261 = CC_DESIGN_PERSON_AND_ORGANIZATION_ASSIGNMENT ( #35, #209, ( #291 ) ) ;
#262 = CYLINDRICAL_SURFACE ( 'NONE', #211, 10.00000000000000000 ) ;
#263 = DESIGN_CONTEXT ( 'detailed design', #167, 'design' ) ;
#264 = ADVANCED_FACE ( 'NONE', ( #113 ), #262, .T. ) ;
#265 = DIRECTION ( 'NONE',  ( 1.000000000000000000, 0.000000000000000000, 0.000000000000000000 ) ) ;
#266 = LINE ( 'NONE', #2, #241 ) ;
#267 = ORIENTED_EDGE ( 'NONE', *, *, #108, .T. ) ;
#268 = COORDINATED_UNIVERSAL_TIME_OFFSET ( 1, 0, .AHEAD. ) ;
#269 = FACE_BOUND ( 'NONE', #119, .T. ) ;
#270 = VERTEX_POINT ( 'NONE', #346 ) ;
#271 = AXIS2_PLACEMENT_3D ( 'NONE', #258, #148, #205 ) ;
#272 = CC_DESIGN_APPROVAL ( #89, ( #364 ) ) ;
#273 = VERTEX_POINT ( 'NONE', #53 ) ;
#274 = VERTEX_POINT ( 'NONE', #375 ) ;
#275 = ORIENTED_EDGE ( 'NONE', *, *, #135, .T. ) ;
#276 = ORIENTED_EDGE ( 'NONE', *, *, #184, .T. ) ;
#277 = PERSON_AND_ORGANIZATION ( #323, #126 ) ;
#278 = VERTEX_POINT ( 'NONE', #111 ) ;
#279 = VECTOR ( 'NONE', #343, 1000.000000000000000 ) ;
#280 = AXIS2_PLACEMENT_3D ( 'NONE', #251, #169, #302 ) ;
#281 = ADVANCED_FACE ( 'NONE', ( #380 ), #228, .T. ) ;
#282 = CARTESIAN_POINT ( 'NONE',  ( -10.00000000000000000, 0.000000000000000000, 7.000000000000000000 ) ) ;
#283 = DIRECTION ( 'NONE',  ( 0.000000000000000000, 0.000000000000000000, 1.000000000000000000 ) ) ;
#284 = AXIS2_PLACEMENT_3D ( 'NONE', #142, #88, #179 ) ;
#285 = DIRECTION ( 'NONE',  ( 1.000000000000000000, 0.000000000000000000, 0.000000000000000000 ) ) ;
#286 = FACE_OUTER_BOUND ( 'NONE', #159, .T. ) ;
#287 = DIRECTION ( 'NONE',  ( -0.000000000000000000, -0.000000000000000000, -1.000000000000000000 ) ) ;
#288 = AXIS2_PLACEMENT_3D ( 'NONE', #316, #236, #292 ) ;
#289 = EDGE_CURVE ( 'NONE', #38, #274, #32, .T. ) ;
#290 = FACE_OUTER_BOUND ( 'NONE', #186, .T. ) ;
#291 = PRODUCT ( 'b734', 'b734', '', ( #62 ) ) ;
#292 = DIRECTION ( 'NONE',  ( -1.000000000000000000, 0.000000000000000000, 0.000000000000000000 ) ) ;
#293 = VERTEX_POINT ( 'NONE', #118 ) ;
#294 = DATE_AND_TIME ( #183, #355 ) ;
#295 = ORIENTED_EDGE ( 'NONE', *, *, #114, .T. ) ;
#296 = ORIENTED_EDGE ( 'NONE', *, *, #14, .F. ) ;
#297 = ORIENTED_EDGE ( 'NONE', *, *, #325, .F. ) ;
#298 = EDGE_CURVE ( 'NONE', #278, #300, #19, .T. ) ;
#299 = DIRECTION ( 'NONE',  ( 0.000000000000000000, 0.000000000000000000, -1.000000000000000000 ) ) ;
#300 = VERTEX_POINT ( 'NONE', #22 ) ;
#301 = EDGE_LOOP ( 'NONE', ( #151, #123, #29, #189 ) ) ;
#302 = DIRECTION ( 'NONE',  ( -1.000000000000000000, 1.224646799147351482E-16, 0.000000000000000000 ) ) ;
#303 = EDGE_CURVE ( 'NONE', #273, #300, #52, .T. ) ;
#304 = COORDINATED_UNIVERSAL_TIME_OFFSET ( 1, 0, .AHEAD. ) ;
#305 = COORDINATED_UNIVERSAL_TIME_OFFSET ( 1, 0, .AHEAD. ) ;
#306 = CARTESIAN_POINT ( 'NONE',  ( -6.000000000000000888, 0.000000000000000000, 607.0000000000000000 ) ) ;
#307 = CIRCLE ( 'NONE', #57, 10.00000000000000000 ) ;
#308 = CARTESIAN_POINT ( 'NONE',  ( 0.000000000000000000, 0.000000000000000000, 7.499999999999951150 ) ) ;
#309 = APPROVAL_PERSON_ORGANIZATION ( #103, #61, #330 ) ;
#310 = ADVANCED_BREP_SHAPE_REPRESENTATION ( 'b734', ( #194, #20 ), #48 ) ;
#311 = DIRECTION ( 'NONE',  ( -1.000000000000000000, 0.000000000000000000, 0.000000000000000000 ) ) ;
#312 = ADVANCED_FACE ( 'NONE', ( #203 ), #378, .T. ) ;
#313 = CIRCLE ( 'NONE', #96, 10.00000000000000000 ) ;
#314 = CARTESIAN_POINT ( 'NONE',  ( -10.00000000000000000, 0.000000000000000000, 7.000000000000000000 ) ) ;
#315 = AXIS2_PLACEMENT_3D ( 'NONE', #308, #283, #220 ) ;
#316 = CARTESIAN_POINT ( 'NONE',  ( 0.000000000000000000, 0.000000000000000000, 607.0000000000000000 ) ) ;
#317 = CARTESIAN_POINT ( 'NONE',  ( 0.000000000000000000, 0.000000000000000000, 7.000000000000000000 ) ) ;
#318 = APPROVAL_STATUS ( 'not_yet_approved' ) ;
#319 = DIRECTION ( 'NONE',  ( 1.000000000000000000, 0.000000000000000000, -0.000000000000000000 ) ) ;
#320 = ORIENTED_EDGE ( 'NONE', *, *, #298, .F. ) ;
#321 = ORIENTED_EDGE ( 'NONE', *, *, #303, .F. ) ;
#322 = VERTEX_POINT ( 'NONE', #231 ) ;
#323 = PERSON ( 'NEURÈENÝ', 'NEURÈENÝ', 'NEURÈENÝ', ('NEURÈENÝ'), ('NEURÈENÝ'), ('NEURÈENÝ') ) ;
#324 = CARTESIAN_POINT ( 'NONE',  ( -2.750000000000000000, 0.000000000000000000, 607.0000000000000000 ) ) ;
#325 = EDGE_CURVE ( 'NONE', #218, #230, #372, .T. ) ;
#326 = AXIS2_PLACEMENT_3D ( 'NONE', #362, #352, #299 ) ;
#327 = CARTESIAN_POINT ( 'NONE',  ( 0.000000000000000000, 0.000000000000000000, 607.0000000000000000 ) ) ;
#328 = ORIENTED_EDGE ( 'NONE', *, *, #239, .F. ) ;
#329 = APPROVAL_PERSON_ORGANIZATION ( #277, #89, #75 ) ;
#330 = APPROVAL_ROLE ( '' ) ;
#331 = CARTESIAN_POINT ( 'NONE',  ( 6.500000000000000888, 0.000000000000000000, 6.999999999999975131 ) ) ;
#332 = DATE_TIME_ROLE ( 'creation_date' ) ;
#333 = CARTESIAN_POINT ( 'NONE',  ( 0.000000000000000000, 0.000000000000000000, 7.000000000000000000 ) ) ;
#334 = ADVANCED_FACE ( 'NONE', ( #21 ), #207, .F. ) ;
#335 = CALENDAR_DATE ( 2022, 8, 7 ) ;
#336 = CARTESIAN_POINT ( 'NONE',  ( 2.750000000000000000, 3.367778697655221012E-16, 607.0000000000000000 ) ) ;
#337 = CIRCLE ( 'NONE', #188, 2.750000000000000000 ) ;
#338 = CIRCLE ( 'NONE', #86, 6.000000000000000888 ) ;
#339 = PERSON_AND_ORGANIZATION ( #323, #126 ) ;
#340 = CARTESIAN_POINT ( 'NONE',  ( 0.000000000000000000, 0.000000000000000000, 7.000000000000000000 ) ) ;
#341 = DIRECTION ( 'NONE',  ( 1.000000000000000000, 0.000000000000000000, 0.000000000000000000 ) ) ;
#342 = PERSON_AND_ORGANIZATION ( #323, #126 ) ;
#343 = DIRECTION ( 'NONE',  ( -0.000000000000000000, -0.000000000000000000, -1.000000000000000000 ) ) ;
#344 = AXIS2_PLACEMENT_3D ( 'NONE', #129, #127, #319 ) ;
#345 = DIRECTION ( 'NONE',  ( -0.000000000000000000, -0.000000000000000000, -1.000000000000000000 ) ) ;
#346 = CARTESIAN_POINT ( 'NONE',  ( -6.500000000000000888, 7.960204194457796463E-16, 6.999999999999975131 ) ) ;
#347 = ADVANCED_FACE ( 'NONE', ( #290 ), #206, .T. ) ;
#348 = DIRECTION ( 'NONE',  ( -1.000000000000000000, 0.000000000000000000, 0.000000000000000000 ) ) ;
#349 = DIRECTION ( 'NONE',  ( 0.000000000000000000, 0.000000000000000000, 1.000000000000000000 ) ) ;
#350 = VECTOR ( 'NONE', #41, 1000.000000000000000 ) ;
#351 = DIRECTION ( 'NONE',  ( -0.000000000000000000, -0.000000000000000000, -1.000000000000000000 ) ) ;
#352 = DIRECTION ( 'NONE',  ( 0.000000000000000000, -1.000000000000000000, 0.000000000000000000 ) ) ;
#353 = ORIENTED_EDGE ( 'NONE', *, *, #235, .T. ) ;
#354 = AXIS2_PLACEMENT_3D ( 'NONE', #143, #287, #112 ) ;
#355 = LOCAL_TIME ( 17, 0, 1.000000000000000000, #58 ) ;
#356 =( NAMED_UNIT ( * ) PLANE_ANGLE_UNIT ( ) SI_UNIT ( $, .RADIAN. ) );
#357 = ORIENTED_EDGE ( 'NONE', *, *, #358, .T. ) ;
#358 = EDGE_CURVE ( 'NONE', #322, #128, #71, .T. ) ;
#359 = ORIENTED_EDGE ( 'NONE', *, *, #289, .T. ) ;
#360 = EDGE_LOOP ( 'NONE', ( #208, #237 ) ) ;
#361 = ORIENTED_EDGE ( 'NONE', *, *, #42, .F. ) ;
#362 = CARTESIAN_POINT ( 'NONE',  ( 6.500000000000000888, 0.000000000000000000, 7.499999999999951150 ) ) ;
#363 = AXIS2_PLACEMENT_3D ( 'NONE', #178, #349, #92 ) ;
#364 = SECURITY_CLASSIFICATION ( '', '', #224 ) ;
#365 = DIRECTION ( 'NONE',  ( 1.000000000000000000, 0.000000000000000000, -0.000000000000000000 ) ) ;
#366 = CARTESIAN_POINT ( 'NONE',  ( 0.000000000000000000, 0.000000000000000000, 0.000000000000000000 ) ) ;
#367 = PERSON_AND_ORGANIZATION_ROLE ( 'design_supplier' ) ;
#368 = DIRECTION ( 'NONE',  ( 0.000000000000000000, 0.000000000000000000, 1.000000000000000000 ) ) ;
#369 = APPROVAL_ROLE ( '' ) ;
#370 = ADVANCED_FACE ( 'NONE', ( #244 ), #80, .F. ) ;
#371 = APPROVAL_DATE_TIME ( #257, #54 ) ;
#372 = LINE ( 'NONE', #314, #248 ) ;
#373 = EDGE_CURVE ( 'NONE', #273, #293, #338, .T. ) ;
#374 = AXIS2_PLACEMENT_3D ( 'NONE', #200, #46, #17 ) ;
#375 = CARTESIAN_POINT ( 'NONE',  ( 2.750000000000000000, 3.367778697655221012E-16, 607.0000000000000000 ) ) ;
#376 = CARTESIAN_POINT ( 'NONE',  ( 0.000000000000000000, 0.000000000000000000, 607.0000000000000000 ) ) ;
#377 = PRODUCT_DEFINITION_SHAPE ( 'NONE', 'NONE',  #199 ) ;
#378 = CYLINDRICAL_SURFACE ( 'NONE', #354, 10.00000000000000000 ) ;
#379 = CC_DESIGN_DATE_AND_TIME_ASSIGNMENT ( #170, #106, ( #364 ) ) ;
#380 = FACE_OUTER_BOUND ( 'NONE', #34, .T. ) ;
#381 = CIRCLE ( 'NONE', #59, 6.500000000000000888 ) ;
ENDSEC;
END-ISO-10303-21;
