ISO-10303-21;
HEADER;
FILE_DESCRIPTION (( 'STEP AP203' ),
    '1' );
FILE_NAME ('b553.STEP',
    '2022-07-08T14:22:56',
    ( '' ),
    ( '' ),
    'SwSTEP 2.0',
    'SolidWorks 2019',
    '' );
FILE_SCHEMA (( 'CONFIG_CONTROL_DESIGN' ));
ENDSEC;

DATA;
#1 = EDGE_CURVE ( 'NONE', #32, #147, #84, .T. ) ;
#2 = EDGE_LOOP ( 'NONE', ( #237, #172 ) ) ;
#3 =( GEOMETRIC_REPRESENTATION_CONTEXT ( 3 ) GLOBAL_UNCERTAINTY_ASSIGNED_CONTEXT ( ( #354 ) ) GLOBAL_UNIT_ASSIGNED_CONTEXT ( ( #253, #190, #43 ) ) REPRESENTATION_CONTEXT ( 'NONE', 'WORKASPACE' ) );
#4 = DIRECTION ( 'NONE',  ( 1.000000000000000000, 0.000000000000000000, 0.000000000000000000 ) ) ;
#5 = ADVANCED_BREP_SHAPE_REPRESENTATION ( 'b553', ( #324, #312 ), #3 ) ;
#6 = DIRECTION ( 'NONE',  ( 0.000000000000000000, 0.000000000000000000, 1.000000000000000000 ) ) ;
#7 = APPROVAL ( #205, 'NEURÈENÝ' ) ;
#8 = CYLINDRICAL_SURFACE ( 'NONE', #242, 5.000000000000000000 ) ;
#9 = CARTESIAN_POINT ( 'NONE',  ( 0.000000000000000000, 0.000000000000000000, 307.0000000000000000 ) ) ;
#10 = AXIS2_PLACEMENT_3D ( 'NONE', #9, #244, #13 ) ;
#11 = CC_DESIGN_SECURITY_CLASSIFICATION ( #126, ( #182 ) ) ;
#12 = ADVANCED_FACE ( 'NONE', ( #154 ), #219, .T. ) ;
#13 = DIRECTION ( 'NONE',  ( -1.000000000000000000, 0.000000000000000000, 0.000000000000000000 ) ) ;
#14 = FACE_OUTER_BOUND ( 'NONE', #2, .T. ) ;
#15 = DIRECTION ( 'NONE',  ( 0.000000000000000000, 0.000000000000000000, 1.000000000000000000 ) ) ;
#16 = EDGE_CURVE ( 'NONE', #314, #28, #162, .T. ) ;
#17 = DIRECTION ( 'NONE',  ( -0.000000000000000000, -0.000000000000000000, -1.000000000000000000 ) ) ;
#18 = CARTESIAN_POINT ( 'NONE',  ( 0.000000000000000000, 0.000000000000000000, 307.0000000000000000 ) ) ;
#19 = CARTESIAN_POINT ( 'NONE',  ( -11.00000000000000000, 0.000000000000000000, 7.000000000000000000 ) ) ;
#20 = VECTOR ( 'NONE', #156, 1000.000000000000000 ) ;
#21 = AXIS2_PLACEMENT_3D ( 'NONE', #360, #108, #223 ) ;
#22 = ORIENTED_EDGE ( 'NONE', *, *, #134, .T. ) ;
#23 = PRODUCT ( 'b553', 'b553', '', ( #285 ) ) ;
#24 = ORIENTED_EDGE ( 'NONE', *, *, #240, .F. ) ;
#25 = DIRECTION ( 'NONE',  ( 1.000000000000000000, 0.000000000000000000, 0.000000000000000000 ) ) ;
#26 = VERTEX_POINT ( 'NONE', #220 ) ;
#27 = COORDINATED_UNIVERSAL_TIME_OFFSET ( 1, 0, .AHEAD. ) ;
#28 = VERTEX_POINT ( 'NONE', #33 ) ;
#29 = PERSON_AND_ORGANIZATION_ROLE ( 'design_owner' ) ;
#30 = ORIENTED_EDGE ( 'NONE', *, *, #238, .F. ) ;
#31 = APPROVAL_DATE_TIME ( #55, #7 ) ;
#32 = VERTEX_POINT ( 'NONE', #359 ) ;
#33 = CARTESIAN_POINT ( 'NONE',  ( -11.00000000000000000, 0.000000000000000000, 0.000000000000000000 ) ) ;
#34 = AXIS2_PLACEMENT_3D ( 'NONE', #328, #161, #241 ) ;
#35 = DIRECTION ( 'NONE',  ( -0.000000000000000000, -0.000000000000000000, -1.000000000000000000 ) ) ;
#36 = CC_DESIGN_PERSON_AND_ORGANIZATION_ASSIGNMENT ( #90, #169, ( #357 ) ) ;
#37 = CARTESIAN_POINT ( 'NONE',  ( 0.000000000000000000, 0.000000000000000000, 0.000000000000000000 ) ) ;
#38 = FACE_BOUND ( 'NONE', #116, .T. ) ;
#39 = AXIS2_PLACEMENT_3D ( 'NONE', #252, #163, #306 ) ;
#40 = PLANE ( 'NONE',  #34 ) ;
#41 = CARTESIAN_POINT ( 'NONE',  ( -7.700000000000001066, 9.429780353434621002E-16, 6.999999999999992006 ) ) ;
#42 = DIRECTION ( 'NONE',  ( 1.000000000000000000, 0.000000000000000000, 0.000000000000000000 ) ) ;
#43 =( NAMED_UNIT ( * ) SI_UNIT ( $, .STERADIAN. ) SOLID_ANGLE_UNIT ( ) );
#44 = DIRECTION ( 'NONE',  ( 1.000000000000000000, 0.000000000000000000, 0.000000000000000000 ) ) ;
#45 = AXIS2_PLACEMENT_3D ( 'NONE', #364, #15, #78 ) ;
#46 = CARTESIAN_POINT ( 'NONE',  ( 0.000000000000000000, 0.000000000000000000, 7.000000000000000000 ) ) ;
#47 = EDGE_CURVE ( 'NONE', #339, #374, #128, .T. ) ;
#48 = DIRECTION ( 'NONE',  ( 0.000000000000000000, 0.000000000000000000, 1.000000000000000000 ) ) ;
#49 = ORIENTED_EDGE ( 'NONE', *, *, #378, .F. ) ;
#50 = ORIENTED_EDGE ( 'NONE', *, *, #139, .T. ) ;
#51 = DESIGN_CONTEXT ( 'detailed design', #180, 'design' ) ;
#52 = ORIENTED_EDGE ( 'NONE', *, *, #105, .T. ) ;
#53 = APPLICATION_PROTOCOL_DEFINITION ( 'international standard', 'config_control_design', 1994, #180 ) ;
#54 = VERTEX_POINT ( 'NONE', #217 ) ;
#55 = DATE_AND_TIME ( #316, #218 ) ;
#56 = VECTOR ( 'NONE', #209, 1000.000000000000000 ) ;
#57 = CIRCLE ( 'NONE', #45, 7.000000000000000888 ) ;
#58 = VERTEX_POINT ( 'NONE', #212 ) ;
#59 = CC_DESIGN_PERSON_AND_ORGANIZATION_ASSIGNMENT ( #174, #61, ( #182 ) ) ;
#60 = ORIENTED_EDGE ( 'NONE', *, *, #139, .F. ) ;
#61 = PERSON_AND_ORGANIZATION_ROLE ( 'creator' ) ;
#62 = CARTESIAN_POINT ( 'NONE',  ( -7.000000000000000888, 0.000000000000000000, 7.699999999999985079 ) ) ;
#63 = APPROVAL ( #113, 'NEURÈENÝ' ) ;
#64 = AXIS2_PLACEMENT_3D ( 'NONE', #327, #6, #239 ) ;
#65 = LINE ( 'NONE', #353, #109 ) ;
#66 = CIRCLE ( 'NONE', #21, 11.00000000000000000 ) ;
#67 = DIRECTION ( 'NONE',  ( 1.000000000000000000, 0.000000000000000000, 0.000000000000000000 ) ) ;
#68 = DIRECTION ( 'NONE',  ( -1.000000000000000000, 1.224646799147351975E-16, 0.000000000000000000 ) ) ;
#69 = AXIS2_PLACEMENT_3D ( 'NONE', #181, #331, #159 ) ;
#70 = FACE_OUTER_BOUND ( 'NONE', #120, .T. ) ;
#71 = AXIS2_PLACEMENT_3D ( 'NONE', #308, #48, #103 ) ;
#72 = CARTESIAN_POINT ( 'NONE',  ( 0.000000000000000000, 0.000000000000000000, 7.699999999999985079 ) ) ;
#73 = LINE ( 'NONE', #107, #125 ) ;
#74 = DIRECTION ( 'NONE',  ( 1.000000000000000000, 0.000000000000000000, 0.000000000000000000 ) ) ;
#75 = ORIENTED_EDGE ( 'NONE', *, *, #229, .T. ) ;
#76 = DIRECTION ( 'NONE',  ( 1.000000000000000000, 0.000000000000000000, 0.000000000000000000 ) ) ;
#77 = CC_DESIGN_PERSON_AND_ORGANIZATION_ASSIGNMENT ( #178, #87, ( #126 ) ) ;
#78 = DIRECTION ( 'NONE',  ( 1.000000000000000000, 0.000000000000000000, 0.000000000000000000 ) ) ;
#79 = CARTESIAN_POINT ( 'NONE',  ( 0.000000000000000000, 0.000000000000000000, 0.000000000000000000 ) ) ;
#80 = PERSON ( 'NEURÈENÝ', 'NEURÈENÝ', 'NEURÈENÝ', ('NEURÈENÝ'), ('NEURÈENÝ'), ('NEURÈENÝ') ) ;
#81 = APPLICATION_PROTOCOL_DEFINITION ( 'international standard', 'config_control_design', 1994, #227 ) ;
#82 = EDGE_LOOP ( 'NONE', ( #140, #259 ) ) ;
#83 = ORGANIZATION ( 'NEURÈENÝ', 'NEURÈENÝ', '' ) ;
#84 = LINE ( 'NONE', #92, #56 ) ;
#85 = COORDINATED_UNIVERSAL_TIME_OFFSET ( 1, 0, .AHEAD. ) ;
#86 = EDGE_LOOP ( 'NONE', ( #281, #318, #204, #141 ) ) ;
#87 = PERSON_AND_ORGANIZATION_ROLE ( 'classification_officer' ) ;
#88 = ADVANCED_FACE ( 'NONE', ( #183 ), #235, .F. ) ;
#89 = EDGE_LOOP ( 'NONE', ( #233, #118, #75, #350 ) ) ;
#90 = PERSON_AND_ORGANIZATION ( #80, #83 ) ;
#91 = CIRCLE ( 'NONE', #137, 7.700000000000001066 ) ;
#92 = CARTESIAN_POINT ( 'NONE',  ( 11.00000000000000000, 1.347111479062088405E-15, 7.000000000000000000 ) ) ;
#93 = DIRECTION ( 'NONE',  ( 0.000000000000000000, 0.000000000000000000, 1.000000000000000000 ) ) ;
#94 = DIRECTION ( 'NONE',  ( 1.224646799147353207E-16, 1.000000000000000000, -0.000000000000000000 ) ) ;
#95 = AXIS2_PLACEMENT_3D ( 'NONE', #267, #94, #68 ) ;
#96 = CARTESIAN_POINT ( 'NONE',  ( 0.000000000000000000, 0.000000000000000000, 307.0000000000000000 ) ) ;
#97 = CIRCLE ( 'NONE', #361, 7.000000000000000888 ) ;
#98 = CC_DESIGN_APPROVAL ( #63, ( #182 ) ) ;
#99 = DIRECTION ( 'NONE',  ( -0.000000000000000000, -0.000000000000000000, -1.000000000000000000 ) ) ;
#100 = DIRECTION ( 'NONE',  ( 1.000000000000000000, 0.000000000000000000, -0.000000000000000000 ) ) ;
#101 = DIRECTION ( 'NONE',  ( -0.000000000000000000, -0.000000000000000000, -1.000000000000000000 ) ) ;
#102 = AXIS2_PLACEMENT_3D ( 'NONE', #185, #127, #100 ) ;
#103 = DIRECTION ( 'NONE',  ( 1.000000000000000000, 0.000000000000000000, -0.000000000000000000 ) ) ;
#104 = EDGE_LOOP ( 'NONE', ( #376, #292, #321, #49 ) ) ;
#105 = EDGE_CURVE ( 'NONE', #114, #58, #65, .T. ) ;
#106 = DIRECTION ( 'NONE',  ( 1.000000000000000000, 0.000000000000000000, 0.000000000000000000 ) ) ;
#107 = CARTESIAN_POINT ( 'NONE',  ( -7.000000000000000888, 0.000000000000000000, 307.0000000000000000 ) ) ;
#108 = DIRECTION ( 'NONE',  ( 0.000000000000000000, 0.000000000000000000, 1.000000000000000000 ) ) ;
#109 = VECTOR ( 'NONE', #299, 1000.000000000000000 ) ;
#110 = CIRCLE ( 'NONE', #160, 5.000000000000000000 ) ;
#111 = CARTESIAN_POINT ( 'NONE',  ( 0.000000000000000000, 0.000000000000000000, 7.699999999999985079 ) ) ;
#112 = VERTEX_POINT ( 'NONE', #62 ) ;
#113 = APPROVAL_STATUS ( 'not_yet_approved' ) ;
#114 = VERTEX_POINT ( 'NONE', #179 ) ;
#115 = APPROVAL ( #380, 'NEURÈENÝ' ) ;
#116 = EDGE_LOOP ( 'NONE', ( #228, #60 ) ) ;
#117 = SHAPE_DEFINITION_REPRESENTATION ( #340, #5 ) ;
#118 = ORIENTED_EDGE ( 'NONE', *, *, #47, .T. ) ;
#119 = AXIS2_PLACEMENT_3D ( 'NONE', #332, #17, #247 ) ;
#120 = EDGE_LOOP ( 'NONE', ( #348, #311, #177, #231 ) ) ;
#121 = CARTESIAN_POINT ( 'NONE',  ( 0.000000000000000000, 0.000000000000000000, 307.0000000000000000 ) ) ;
#122 = ADVANCED_FACE ( 'NONE', ( #352 ), #246, .T. ) ;
#123 = DIRECTION ( 'NONE',  ( -1.000000000000000000, 0.000000000000000000, 0.000000000000000000 ) ) ;
#124 = DIRECTION ( 'NONE',  ( -0.000000000000000000, -0.000000000000000000, -1.000000000000000000 ) ) ;
#125 = VECTOR ( 'NONE', #303, 1000.000000000000000 ) ;
#126 = SECURITY_CLASSIFICATION ( '', '', #370 ) ;
#127 = DIRECTION ( 'NONE',  ( 0.000000000000000000, 0.000000000000000000, 1.000000000000000000 ) ) ;
#128 = LINE ( 'NONE', #323, #317 ) ;
#129 = DIRECTION ( 'NONE',  ( 0.000000000000000000, 0.000000000000000000, -1.000000000000000000 ) ) ;
#130 = ADVANCED_FACE ( 'NONE', ( #70 ), #295, .T. ) ;
#131 = AXIS2_PLACEMENT_3D ( 'NONE', #37, #99, #186 ) ;
#132 = LOCAL_TIME ( 16, 22, 56.00000000000000000, #27 ) ;
#133 = DIRECTION ( 'NONE',  ( -0.000000000000000000, -0.000000000000000000, -1.000000000000000000 ) ) ;
#134 = EDGE_CURVE ( 'NONE', #112, #189, #158, .T. ) ;
#135 = DIRECTION ( 'NONE',  ( 1.000000000000000000, 0.000000000000000000, 0.000000000000000000 ) ) ;
#136 = CARTESIAN_POINT ( 'NONE',  ( 7.700000000000001066, 0.000000000000000000, 7.699999999999985079 ) ) ;
#137 = AXIS2_PLACEMENT_3D ( 'NONE', #225, #133, #106 ) ;
#138 = LOCAL_TIME ( 16, 22, 56.00000000000000000, #294 ) ;
#139 = EDGE_CURVE ( 'NONE', #339, #114, #207, .T. ) ;
#140 = ORIENTED_EDGE ( 'NONE', *, *, #148, .T. ) ;
#141 = ORIENTED_EDGE ( 'NONE', *, *, #245, .T. ) ;
#142 = ORIENTED_EDGE ( 'NONE', *, *, #210, .T. ) ;
#143 = CC_DESIGN_PERSON_AND_ORGANIZATION_ASSIGNMENT ( #373, #29, ( #23 ) ) ;
#144 = DATE_AND_TIME ( #230, #132 ) ;
#145 = AXIS2_PLACEMENT_3D ( 'NONE', #136, #279, #129 ) ;
#146 = CC_DESIGN_APPROVAL ( #115, ( #357 ) ) ;
#147 = VERTEX_POINT ( 'NONE', #355 ) ;
#148 = EDGE_CURVE ( 'NONE', #346, #170, #305, .T. ) ;
#149 = APPROVAL_ROLE ( '' ) ;
#150 = ORIENTED_EDGE ( 'NONE', *, *, #210, .F. ) ;
#151 = EDGE_LOOP ( 'NONE', ( #254, #262, #263, #193 ) ) ;
#152 = APPROVAL_ROLE ( '' ) ;
#153 = AXIS2_PLACEMENT_3D ( 'NONE', #46, #362, #333 ) ;
#154 = FACE_OUTER_BOUND ( 'NONE', #104, .T. ) ;
#155 = FACE_OUTER_BOUND ( 'NONE', #255, .T. ) ;
#156 = DIRECTION ( 'NONE',  ( -0.000000000000000000, -0.000000000000000000, -1.000000000000000000 ) ) ;
#157 = CYLINDRICAL_SURFACE ( 'NONE', #10, 5.000000000000000000 ) ;
#158 = CIRCLE ( 'NONE', #95, 0.7000000000000000666 ) ;
#159 = DIRECTION ( 'NONE',  ( -1.000000000000000000, 0.000000000000000000, 0.000000000000000000 ) ) ;
#160 = AXIS2_PLACEMENT_3D ( 'NONE', #18, #275, #135 ) ;
#161 = DIRECTION ( 'NONE',  ( 0.000000000000000000, 0.000000000000000000, 1.000000000000000000 ) ) ;
#162 = LINE ( 'NONE', #297, #20 ) ;
#163 = DIRECTION ( 'NONE',  ( -0.000000000000000000, -0.000000000000000000, -1.000000000000000000 ) ) ;
#164 = DIRECTION ( 'NONE',  ( 1.000000000000000000, 0.000000000000000000, 0.000000000000000000 ) ) ;
#165 = CARTESIAN_POINT ( 'NONE',  ( 0.000000000000000000, 0.000000000000000000, 0.000000000000000000 ) ) ;
#166 = DIRECTION ( 'NONE',  ( 0.000000000000000000, 0.000000000000000000, 1.000000000000000000 ) ) ;
#167 = AXIS2_PLACEMENT_3D ( 'NONE', #79, #166, #188 ) ;
#168 = ORIENTED_EDGE ( 'NONE', *, *, #268, .F. ) ;
#169 = PERSON_AND_ORGANIZATION_ROLE ( 'creator' ) ;
#170 = VERTEX_POINT ( 'NONE', #269 ) ;
#171 = PERSON_AND_ORGANIZATION ( #80, #83 ) ;
#172 = ORIENTED_EDGE ( 'NONE', *, *, #330, .F. ) ;
#173 = CIRCLE ( 'NONE', #131, 5.000000000000000000 ) ;
#174 = PERSON_AND_ORGANIZATION ( #80, #83 ) ;
#175 = ORIENTED_EDGE ( 'NONE', *, *, #265, .T. ) ;
#176 = APPROVAL_DATE_TIME ( #351, #115 ) ;
#177 = ORIENTED_EDGE ( 'NONE', *, *, #378, .T. ) ;
#178 = PERSON_AND_ORGANIZATION ( #80, #83 ) ;
#179 = CARTESIAN_POINT ( 'NONE',  ( -5.000000000000000000, 0.000000000000000000, 307.0000000000000000 ) ) ;
#180 = APPLICATION_CONTEXT ( 'configuration controlled 3d designs of mechanical parts and assemblies' ) ;
#181 = CARTESIAN_POINT ( 'NONE',  ( 0.000000000000000000, 0.000000000000000000, 307.0000000000000000 ) ) ;
#182 = PRODUCT_DEFINITION_FORMATION_WITH_SPECIFIED_SOURCE ( 'LIBOVOLNÝ', '', #23, .NOT_KNOWN. ) ;
#183 = FACE_OUTER_BOUND ( 'NONE', #234, .T. ) ;
#184 = EDGE_CURVE ( 'NONE', #58, #374, #173, .T. ) ;
#185 = CARTESIAN_POINT ( 'NONE',  ( 0.000000000000000000, 0.000000000000000000, 307.0000000000000000 ) ) ;
#186 = DIRECTION ( 'NONE',  ( 1.000000000000000000, 0.000000000000000000, 0.000000000000000000 ) ) ;
#187 = CARTESIAN_POINT ( 'NONE',  ( 0.000000000000000000, 0.000000000000000000, 307.0000000000000000 ) ) ;
#188 = DIRECTION ( 'NONE',  ( 1.000000000000000000, 0.000000000000000000, 0.000000000000000000 ) ) ;
#189 = VERTEX_POINT ( 'NONE', #41 ) ;
#190 =( NAMED_UNIT ( * ) PLANE_ANGLE_UNIT ( ) SI_UNIT ( $, .RADIAN. ) );
#191 = ADVANCED_FACE ( 'NONE', ( #272 ), #157, .F. ) ;
#192 = CARTESIAN_POINT ( 'NONE',  ( 7.000000000000000888, 8.572527594031474176E-16, 307.0000000000000000 ) ) ;
#193 = ORIENTED_EDGE ( 'NONE', *, *, #16, .F. ) ;
#194 = CYLINDRICAL_SURFACE ( 'NONE', #39, 11.00000000000000000 ) ;
#195 = AXIS2_PLACEMENT_3D ( 'NONE', #111, #283, #76 ) ;
#196 = CARTESIAN_POINT ( 'NONE',  ( 5.000000000000000000, 6.123233995736766282E-16, 307.0000000000000000 ) ) ;
#197 = ORIENTED_EDGE ( 'NONE', *, *, #47, .F. ) ;
#198 = ORIENTED_EDGE ( 'NONE', *, *, #184, .F. ) ;
#199 = CIRCLE ( 'NONE', #119, 7.700000000000001066 ) ;
#200 = CALENDAR_DATE ( 2022, 8, 7 ) ;
#201 = ADVANCED_FACE ( 'NONE', ( #38, #358 ), #329, .T. ) ;
#202 = ORIENTED_EDGE ( 'NONE', *, *, #251, .F. ) ;
#203 = ADVANCED_FACE ( 'NONE', ( #273, #14 ), #304, .F. ) ;
#204 = ORIENTED_EDGE ( 'NONE', *, *, #16, .T. ) ;
#205 = APPROVAL_STATUS ( 'not_yet_approved' ) ;
#206 = ORIENTED_EDGE ( 'NONE', *, *, #240, .T. ) ;
#207 = CIRCLE ( 'NONE', #64, 5.000000000000000000 ) ;
#208 = VECTOR ( 'NONE', #276, 1000.000000000000000 ) ;
#209 = DIRECTION ( 'NONE',  ( -0.000000000000000000, -0.000000000000000000, -1.000000000000000000 ) ) ;
#210 = EDGE_CURVE ( 'NONE', #189, #54, #91, .T. ) ;
#211 = COORDINATED_UNIVERSAL_TIME_OFFSET ( 1, 0, .AHEAD. ) ;
#212 = CARTESIAN_POINT ( 'NONE',  ( -5.000000000000000000, 0.000000000000000000, 0.000000000000000000 ) ) ;
#213 = DIRECTION ( 'NONE',  ( 0.000000000000000000, 0.000000000000000000, -1.000000000000000000 ) ) ;
#214 = AXIS2_PLACEMENT_3D ( 'NONE', #264, #124, #298 ) ;
#215 = PRODUCT_RELATED_PRODUCT_CATEGORY ( 'detail', '', ( #23 ) ) ;
#216 = CIRCLE ( 'NONE', #222, 11.00000000000000000 ) ;
#217 = CARTESIAN_POINT ( 'NONE',  ( 7.700000000000001066, 0.000000000000000000, 6.999999999999992006 ) ) ;
#218 = LOCAL_TIME ( 16, 22, 56.00000000000000000, #211 ) ;
#219 = CYLINDRICAL_SURFACE ( 'NONE', #69, 7.000000000000000888 ) ;
#220 = CARTESIAN_POINT ( 'NONE',  ( 7.000000000000000888, 8.572527594031474176E-16, 7.699999999999985079 ) ) ;
#221 = CARTESIAN_POINT ( 'NONE',  ( 0.000000000000000000, 0.000000000000000000, 7.000000000000000000 ) ) ;
#222 = AXIS2_PLACEMENT_3D ( 'NONE', #221, #224, #164 ) ;
#223 = DIRECTION ( 'NONE',  ( 1.000000000000000000, 0.000000000000000000, 0.000000000000000000 ) ) ;
#224 = DIRECTION ( 'NONE',  ( 0.000000000000000000, 0.000000000000000000, 1.000000000000000000 ) ) ;
#225 = CARTESIAN_POINT ( 'NONE',  ( 0.000000000000000000, 0.000000000000000000, 7.000000000000000000 ) ) ;
#226 = CIRCLE ( 'NONE', #366, 5.000000000000000000 ) ;
#227 = APPLICATION_CONTEXT ( 'configuration controlled 3d designs of mechanical parts and assemblies' ) ;
#228 = ORIENTED_EDGE ( 'NONE', *, *, #345, .F. ) ;
#229 = EDGE_CURVE ( 'NONE', #374, #58, #226, .T. ) ;
#230 = CALENDAR_DATE ( 2022, 8, 7 ) ;
#231 = ORIENTED_EDGE ( 'NONE', *, *, #268, .T. ) ;
#232 = PERSON_AND_ORGANIZATION ( #80, #83 ) ;
#233 = ORIENTED_EDGE ( 'NONE', *, *, #345, .T. ) ;
#234 = EDGE_LOOP ( 'NONE', ( #168, #22, #24, #202 ) ) ;
#235 = TOROIDAL_SURFACE ( 'NONE', #381, 7.700000000000001066, 0.6999999999999999556 ) ;
#236 = APPROVAL_PERSON_ORGANIZATION ( #341, #7, #149 ) ;
#237 = ORIENTED_EDGE ( 'NONE', *, *, #245, .F. ) ;
#238 = EDGE_CURVE ( 'NONE', #26, #112, #57, .T. ) ;
#239 = DIRECTION ( 'NONE',  ( 1.000000000000000000, 0.000000000000000000, 0.000000000000000000 ) ) ;
#240 = EDGE_CURVE ( 'NONE', #54, #189, #199, .T. ) ;
#241 = DIRECTION ( 'NONE',  ( 1.000000000000000000, 0.000000000000000000, -0.000000000000000000 ) ) ;
#242 = AXIS2_PLACEMENT_3D ( 'NONE', #187, #266, #274 ) ;
#243 = CIRCLE ( 'NONE', #167, 11.00000000000000000 ) ;
#244 = DIRECTION ( 'NONE',  ( 0.000000000000000000, 0.000000000000000000, -1.000000000000000000 ) ) ;
#245 = EDGE_CURVE ( 'NONE', #28, #147, #66, .T. ) ;
#246 = CYLINDRICAL_SURFACE ( 'NONE', #214, 11.00000000000000000 ) ;
#247 = DIRECTION ( 'NONE',  ( 1.000000000000000000, 0.000000000000000000, 0.000000000000000000 ) ) ;
#248 = TOROIDAL_SURFACE ( 'NONE', #195, 7.700000000000001066, 0.6999999999999999556 ) ;
#249 = DIRECTION ( 'NONE',  ( 0.000000000000000000, 0.000000000000000000, 1.000000000000000000 ) ) ;
#250 = FACE_OUTER_BOUND ( 'NONE', #286, .T. ) ;
#251 = EDGE_CURVE ( 'NONE', #26, #54, #271, .T. ) ;
#252 = CARTESIAN_POINT ( 'NONE',  ( 0.000000000000000000, 0.000000000000000000, 7.000000000000000000 ) ) ;
#253 =( LENGTH_UNIT ( ) NAMED_UNIT ( * ) SI_UNIT ( .MILLI., .METRE. ) );
#254 = ORIENTED_EDGE ( 'NONE', *, *, #265, .F. ) ;
#255 = EDGE_LOOP ( 'NONE', ( #197, #50, #52, #257 ) ) ;
#256 = CARTESIAN_POINT ( 'NONE',  ( 0.000000000000000000, 0.000000000000000000, 0.000000000000000000 ) ) ;
#257 = ORIENTED_EDGE ( 'NONE', *, *, #184, .T. ) ;
#258 = APPROVAL_DATE_TIME ( #144, #63 ) ;
#259 = ORIENTED_EDGE ( 'NONE', *, *, #309, .T. ) ;
#260 = PERSON_AND_ORGANIZATION ( #80, #83 ) ;
#261 = EDGE_CURVE ( 'NONE', #314, #32, #216, .T. ) ;
#262 = ORIENTED_EDGE ( 'NONE', *, *, #1, .T. ) ;
#263 = ORIENTED_EDGE ( 'NONE', *, *, #330, .T. ) ;
#264 = CARTESIAN_POINT ( 'NONE',  ( 0.000000000000000000, 0.000000000000000000, 7.000000000000000000 ) ) ;
#265 = EDGE_CURVE ( 'NONE', #32, #314, #319, .T. ) ;
#266 = DIRECTION ( 'NONE',  ( 0.000000000000000000, 0.000000000000000000, -1.000000000000000000 ) ) ;
#267 = CARTESIAN_POINT ( 'NONE',  ( -7.700000000000001066, 9.429780353434621002E-16, 7.699999999999985079 ) ) ;
#268 = EDGE_CURVE ( 'NONE', #112, #26, #97, .T. ) ;
#269 = CARTESIAN_POINT ( 'NONE',  ( 7.000000000000000888, 8.572527594031474176E-16, 307.0000000000000000 ) ) ;
#270 = CLOSED_SHELL ( 'NONE', ( #191, #88, #12, #343, #122, #356, #203, #130, #201, #372, #367 ) ) ;
#271 = CIRCLE ( 'NONE', #145, 0.7000000000000000666 ) ;
#272 = FACE_OUTER_BOUND ( 'NONE', #89, .T. ) ;
#273 = FACE_BOUND ( 'NONE', #288, .T. ) ;
#274 = DIRECTION ( 'NONE',  ( -1.000000000000000000, 0.000000000000000000, 0.000000000000000000 ) ) ;
#275 = DIRECTION ( 'NONE',  ( 0.000000000000000000, 0.000000000000000000, 1.000000000000000000 ) ) ;
#276 = DIRECTION ( 'NONE',  ( -0.000000000000000000, -0.000000000000000000, -1.000000000000000000 ) ) ;
#277 = CC_DESIGN_PERSON_AND_ORGANIZATION_ASSIGNMENT ( #260, #347, ( #182 ) ) ;
#278 = APPROVAL_PERSON_ORGANIZATION ( #171, #63, #377 ) ;
#279 = DIRECTION ( 'NONE',  ( 0.000000000000000000, -1.000000000000000000, 0.000000000000000000 ) ) ;
#280 = CARTESIAN_POINT ( 'NONE',  ( 0.000000000000000000, 0.000000000000000000, 307.0000000000000000 ) ) ;
#281 = ORIENTED_EDGE ( 'NONE', *, *, #1, .F. ) ;
#282 = CIRCLE ( 'NONE', #307, 7.000000000000000888 ) ;
#283 = DIRECTION ( 'NONE',  ( 0.000000000000000000, 0.000000000000000000, 1.000000000000000000 ) ) ;
#284 = ORIENTED_EDGE ( 'NONE', *, *, #229, .F. ) ;
#285 = MECHANICAL_CONTEXT ( 'NONE', #227, 'mechanical' ) ;
#286 = EDGE_LOOP ( 'NONE', ( #371, #175 ) ) ;
#287 = COORDINATED_UNIVERSAL_TIME_OFFSET ( 1, 0, .AHEAD. ) ;
#288 = EDGE_LOOP ( 'NONE', ( #198, #284 ) ) ;
#289 = EDGE_CURVE ( 'NONE', #170, #26, #335, .T. ) ;
#290 = CC_DESIGN_DATE_AND_TIME_ASSIGNMENT ( #313, #375, ( #126 ) ) ;
#291 = DIRECTION ( 'NONE',  ( 0.000000000000000000, 0.000000000000000000, 1.000000000000000000 ) ) ;
#292 = ORIENTED_EDGE ( 'NONE', *, *, #289, .T. ) ;
#293 = EDGE_LOOP ( 'NONE', ( #206, #142 ) ) ;
#294 = COORDINATED_UNIVERSAL_TIME_OFFSET ( 1, 0, .AHEAD. ) ;
#295 = CYLINDRICAL_SURFACE ( 'NONE', #365, 7.000000000000000888 ) ;
#296 = APPROVAL_PERSON_ORGANIZATION ( #232, #115, #152 ) ;
#297 = CARTESIAN_POINT ( 'NONE',  ( -11.00000000000000000, 0.000000000000000000, 7.000000000000000000 ) ) ;
#298 = DIRECTION ( 'NONE',  ( -1.000000000000000000, 0.000000000000000000, 0.000000000000000000 ) ) ;
#299 = DIRECTION ( 'NONE',  ( 0.000000000000000000, 0.000000000000000000, -1.000000000000000000 ) ) ;
#300 = CC_DESIGN_DATE_AND_TIME_ASSIGNMENT ( #322, #320, ( #357 ) ) ;
#301 = DIRECTION ( 'NONE',  ( 0.000000000000000000, 0.000000000000000000, 1.000000000000000000 ) ) ;
#302 = FACE_BOUND ( 'NONE', #293, .T. ) ;
#303 = DIRECTION ( 'NONE',  ( -0.000000000000000000, -0.000000000000000000, -1.000000000000000000 ) ) ;
#304 = PLANE ( 'NONE',  #71 ) ;
#305 = CIRCLE ( 'NONE', #336, 7.000000000000000888 ) ;
#306 = DIRECTION ( 'NONE',  ( -1.000000000000000000, 0.000000000000000000, 0.000000000000000000 ) ) ;
#307 = AXIS2_PLACEMENT_3D ( 'NONE', #280, #249, #42 ) ;
#308 = CARTESIAN_POINT ( 'NONE',  ( 0.000000000000000000, 0.000000000000000000, 0.000000000000000000 ) ) ;
#309 = EDGE_CURVE ( 'NONE', #170, #346, #282, .T. ) ;
#310 = CARTESIAN_POINT ( 'NONE',  ( 5.000000000000000000, 6.123233995736766282E-16, 0.000000000000000000 ) ) ;
#311 = ORIENTED_EDGE ( 'NONE', *, *, #148, .F. ) ;
#312 = AXIS2_PLACEMENT_3D ( 'NONE', #256, #291, #25 ) ;
#313 = DATE_AND_TIME ( #344, #138 ) ;
#314 = VERTEX_POINT ( 'NONE', #19 ) ;
#315 = ORIENTED_EDGE ( 'NONE', *, *, #251, .T. ) ;
#316 = CALENDAR_DATE ( 2022, 8, 7 ) ;
#317 = VECTOR ( 'NONE', #213, 1000.000000000000000 ) ;
#318 = ORIENTED_EDGE ( 'NONE', *, *, #261, .F. ) ;
#319 = CIRCLE ( 'NONE', #153, 11.00000000000000000 ) ;
#320 = DATE_TIME_ROLE ( 'creation_date' ) ;
#321 = ORIENTED_EDGE ( 'NONE', *, *, #238, .T. ) ;
#322 = DATE_AND_TIME ( #349, #369 ) ;
#323 = CARTESIAN_POINT ( 'NONE',  ( 5.000000000000000000, 6.123233995736766282E-16, 307.0000000000000000 ) ) ;
#324 = MANIFOLD_SOLID_BREP ( 'Odebrat vysunutím3', #270 ) ;
#325 = CARTESIAN_POINT ( 'NONE',  ( 0.000000000000000000, 0.000000000000000000, 7.699999999999985079 ) ) ;
#326 = LOCAL_TIME ( 16, 22, 56.00000000000000000, #287 ) ;
#327 = CARTESIAN_POINT ( 'NONE',  ( 0.000000000000000000, 0.000000000000000000, 307.0000000000000000 ) ) ;
#328 = CARTESIAN_POINT ( 'NONE',  ( 0.000000000000000000, 0.000000000000000000, 7.000000000000000000 ) ) ;
#329 = PLANE ( 'NONE',  #102 ) ;
#330 = EDGE_CURVE ( 'NONE', #147, #28, #243, .T. ) ;
#331 = DIRECTION ( 'NONE',  ( -0.000000000000000000, -0.000000000000000000, -1.000000000000000000 ) ) ;
#332 = CARTESIAN_POINT ( 'NONE',  ( 0.000000000000000000, 0.000000000000000000, 7.000000000000000000 ) ) ;
#333 = DIRECTION ( 'NONE',  ( 1.000000000000000000, 0.000000000000000000, 0.000000000000000000 ) ) ;
#334 = FACE_OUTER_BOUND ( 'NONE', #342, .T. ) ;
#335 = LINE ( 'NONE', #192, #208 ) ;
#336 = AXIS2_PLACEMENT_3D ( 'NONE', #96, #301, #67 ) ;
#337 = DIRECTION ( 'NONE',  ( 0.000000000000000000, 0.000000000000000000, 1.000000000000000000 ) ) ;
#338 = CC_DESIGN_APPROVAL ( #7, ( #126 ) ) ;
#339 = VERTEX_POINT ( 'NONE', #196 ) ;
#340 = PRODUCT_DEFINITION_SHAPE ( 'NONE', 'NONE',  #357 ) ;
#341 = PERSON_AND_ORGANIZATION ( #80, #83 ) ;
#342 = EDGE_LOOP ( 'NONE', ( #379, #30, #315, #150 ) ) ;
#343 = ADVANCED_FACE ( 'NONE', ( #363 ), #194, .T. ) ;
#344 = CALENDAR_DATE ( 2022, 8, 7 ) ;
#345 = EDGE_CURVE ( 'NONE', #114, #339, #110, .T. ) ;
#346 = VERTEX_POINT ( 'NONE', #368 ) ;
#347 = PERSON_AND_ORGANIZATION_ROLE ( 'design_supplier' ) ;
#348 = ORIENTED_EDGE ( 'NONE', *, *, #289, .F. ) ;
#349 = CALENDAR_DATE ( 2022, 8, 7 ) ;
#350 = ORIENTED_EDGE ( 'NONE', *, *, #105, .F. ) ;
#351 = DATE_AND_TIME ( #200, #326 ) ;
#352 = FACE_OUTER_BOUND ( 'NONE', #86, .T. ) ;
#353 = CARTESIAN_POINT ( 'NONE',  ( -5.000000000000000000, 0.000000000000000000, 307.0000000000000000 ) ) ;
#354 = UNCERTAINTY_MEASURE_WITH_UNIT (LENGTH_MEASURE( 1.000000000000000082E-05 ), #253, 'distance_accuracy_value', 'NONE');
#355 = CARTESIAN_POINT ( 'NONE',  ( 11.00000000000000000, 1.347111479062088405E-15, 0.000000000000000000 ) ) ;
#356 = ADVANCED_FACE ( 'NONE', ( #302, #250 ), #40, .T. ) ;
#357 = PRODUCT_DEFINITION ( 'NEZNÁMÝ', '', #182, #51 ) ;
#358 = FACE_OUTER_BOUND ( 'NONE', #82, .T. ) ;
#359 = CARTESIAN_POINT ( 'NONE',  ( 11.00000000000000000, 1.347111479062088405E-15, 7.000000000000000000 ) ) ;
#360 = CARTESIAN_POINT ( 'NONE',  ( 0.000000000000000000, 0.000000000000000000, 0.000000000000000000 ) ) ;
#361 = AXIS2_PLACEMENT_3D ( 'NONE', #72, #337, #74 ) ;
#362 = DIRECTION ( 'NONE',  ( 0.000000000000000000, 0.000000000000000000, 1.000000000000000000 ) ) ;
#363 = FACE_OUTER_BOUND ( 'NONE', #151, .T. ) ;
#364 = CARTESIAN_POINT ( 'NONE',  ( 0.000000000000000000, 0.000000000000000000, 7.699999999999985079 ) ) ;
#365 = AXIS2_PLACEMENT_3D ( 'NONE', #121, #35, #123 ) ;
#366 = AXIS2_PLACEMENT_3D ( 'NONE', #165, #101, #44 ) ;
#367 = ADVANCED_FACE ( 'NONE', ( #155 ), #8, .F. ) ;
#368 = CARTESIAN_POINT ( 'NONE',  ( -7.000000000000000888, 0.000000000000000000, 307.0000000000000000 ) ) ;
#369 = LOCAL_TIME ( 16, 22, 56.00000000000000000, #85 ) ;
#370 = SECURITY_CLASSIFICATION_LEVEL ( 'unclassified' ) ;
#371 = ORIENTED_EDGE ( 'NONE', *, *, #261, .T. ) ;
#372 = ADVANCED_FACE ( 'NONE', ( #334 ), #248, .F. ) ;
#373 = PERSON_AND_ORGANIZATION ( #80, #83 ) ;
#374 = VERTEX_POINT ( 'NONE', #310 ) ;
#375 = DATE_TIME_ROLE ( 'classification_date' ) ;
#376 = ORIENTED_EDGE ( 'NONE', *, *, #309, .F. ) ;
#377 = APPROVAL_ROLE ( '' ) ;
#378 = EDGE_CURVE ( 'NONE', #346, #112, #73, .T. ) ;
#379 = ORIENTED_EDGE ( 'NONE', *, *, #134, .F. ) ;
#380 = APPROVAL_STATUS ( 'not_yet_approved' ) ;
#381 = AXIS2_PLACEMENT_3D ( 'NONE', #325, #93, #4 ) ;
ENDSEC;
END-ISO-10303-21;
