ISO-10303-21;
HEADER;
FILE_DESCRIPTION (( 'STEP AP203' ),
    '1' );
FILE_NAME ('b15f.STEP',
    '2022-07-08T15:04:23',
    ( '' ),
    ( '' ),
    'SwSTEP 2.0',
    'SolidWorks 2019',
    '' );
FILE_SCHEMA (( 'CONFIG_CONTROL_DESIGN' ));
ENDSEC;

DATA;
#1 = CARTESIAN_POINT ( 'NONE',  ( 5.500000000000000000, 0.000000000000000000, 5.500000000000005329 ) ) ;
#2 = CARTESIAN_POINT ( 'NONE',  ( -5.500000000000000000, 6.735557395310442023E-16, 5.500000000000005329 ) ) ;
#3 = CIRCLE ( 'NONE', #61, 5.500000000000000000 ) ;
#4 = CIRCLE ( 'NONE', #62, 5.500000000000000000 ) ;
#5 = FACE_BOUND ( 'NONE', #85, .T. ) ;
#6 = CYLINDRICAL_SURFACE ( 'NONE', #307, 2.750000000000000000 ) ;
#7 = EDGE_CURVE ( 'NONE', #381, #101, #344, .T. ) ;
#8 = DIRECTION ( 'NONE',  ( 1.000000000000000000, 0.000000000000000000, 0.000000000000000000 ) ) ;
#9 = EDGE_LOOP ( 'NONE', ( #130, #318, #349, #170 ) ) ;
#10 = DIRECTION ( 'NONE',  ( 1.000000000000000000, 0.000000000000000000, 0.000000000000000000 ) ) ;
#11 = VECTOR ( 'NONE', #271, 1000.000000000000000 ) ;
#12 = ORIENTED_EDGE ( 'NONE', *, *, #281, .F. ) ;
#13 = CIRCLE ( 'NONE', #69, 0.5000000000000004441 ) ;
#14 = PRODUCT_DEFINITION_SHAPE ( 'NONE', 'NONE',  #59 ) ;
#15 = EDGE_CURVE ( 'NONE', #117, #114, #248, .T. ) ;
#16 = DATE_AND_TIME ( #365, #79 ) ;
#17 = CARTESIAN_POINT ( 'NONE',  ( 0.000000000000000000, 0.000000000000000000, 0.000000000000000000 ) ) ;
#18 = ORIENTED_EDGE ( 'NONE', *, *, #49, .F. ) ;
#19 = ADVANCED_FACE ( 'NONE', ( #175 ), #293, .F. ) ;
#20 = DIRECTION ( 'NONE',  ( -0.000000000000000000, -0.000000000000000000, -1.000000000000000000 ) ) ;
#21 = LOCAL_TIME ( 17, 4, 23.00000000000000000, #376 ) ;
#22 = DATE_TIME_ROLE ( 'creation_date' ) ;
#23 = DIRECTION ( 'NONE',  ( -0.000000000000000000, -0.000000000000000000, -1.000000000000000000 ) ) ;
#24 = PERSON_AND_ORGANIZATION_ROLE ( 'design_supplier' ) ;
#25 = ORIENTED_EDGE ( 'NONE', *, *, #15, .F. ) ;
#26 = EDGE_CURVE ( 'NONE', #114, #117, #180, .T. ) ;
#27 = VERTEX_POINT ( 'NONE', #233 ) ;
#28 = VECTOR ( 'NONE', #63, 1000.000000000000000 ) ;
#29 = CARTESIAN_POINT ( 'NONE',  ( 8.000000000000000000, 9.797174393178825657E-16, 5.000000000000000000 ) ) ;
#30 = DIRECTION ( 'NONE',  ( -0.000000000000000000, -0.000000000000000000, -1.000000000000000000 ) ) ;
#31 = EDGE_CURVE ( 'NONE', #381, #246, #269, .T. ) ;
#32 = CARTESIAN_POINT ( 'NONE',  ( 0.000000000000000000, 0.000000000000000000, 5.500000000000005329 ) ) ;
#33 = VERTEX_POINT ( 'NONE', #347 ) ;
#34 = AXIS2_PLACEMENT_3D ( 'NONE', #100, #217, #329 ) ;
#35 = FACE_OUTER_BOUND ( 'NONE', #330, .T. ) ;
#36 = DIRECTION ( 'NONE',  ( -0.000000000000000000, -0.000000000000000000, -1.000000000000000000 ) ) ;
#37 = LINE ( 'NONE', #29, #235 ) ;
#38 = EDGE_CURVE ( 'NONE', #283, #74, #3, .T. ) ;
#39 = ORIENTED_EDGE ( 'NONE', *, *, #84, .T. ) ;
#40 = FACE_OUTER_BOUND ( 'NONE', #9, .T. ) ;
#41 = PERSON_AND_ORGANIZATION ( #346, #151 ) ;
#42 = AXIS2_PLACEMENT_3D ( 'NONE', #270, #36, #211 ) ;
#43 = SECURITY_CLASSIFICATION ( '', '', #202 ) ;
#44 = APPROVAL_DATE_TIME ( #16, #212 ) ;
#45 = FACE_OUTER_BOUND ( 'NONE', #150, .T. ) ;
#46 = APPROVAL_STATUS ( 'not_yet_approved' ) ;
#47 = AXIS2_PLACEMENT_3D ( 'NONE', #134, #354, #10 ) ;
#48 = ORIENTED_EDGE ( 'NONE', *, *, #315, .F. ) ;
#49 = EDGE_CURVE ( 'NONE', #303, #83, #107, .T. ) ;
#50 = PERSON_AND_ORGANIZATION ( #346, #151 ) ;
#51 = ORIENTED_EDGE ( 'NONE', *, *, #348, .T. ) ;
#52 = DIRECTION ( 'NONE',  ( 1.000000000000000000, 0.000000000000000000, 0.000000000000000000 ) ) ;
#53 = VECTOR ( 'NONE', #280, 1000.000000000000000 ) ;
#54 = PERSON_AND_ORGANIZATION ( #346, #151 ) ;
#55 = EDGE_CURVE ( 'NONE', #27, #33, #139, .T. ) ;
#56 = DIRECTION ( 'NONE',  ( 1.000000000000000000, 0.000000000000000000, 0.000000000000000000 ) ) ;
#57 = CALENDAR_DATE ( 2022, 8, 7 ) ;
#58 = ORIENTED_EDGE ( 'NONE', *, *, #292, .F. ) ;
#59 = PRODUCT_DEFINITION ( 'NEZNÁMÝ', '', #89, #179 ) ;
#60 = COORDINATED_UNIVERSAL_TIME_OFFSET ( 1, 0, .AHEAD. ) ;
#61 = AXIS2_PLACEMENT_3D ( 'NONE', #86, #199, #52 ) ;
#62 = AXIS2_PLACEMENT_3D ( 'NONE', #96, #325, #304 ) ;
#63 = DIRECTION ( 'NONE',  ( -0.000000000000000000, -0.000000000000000000, -1.000000000000000000 ) ) ;
#64 = CARTESIAN_POINT ( 'NONE',  ( -8.000000000000000000, 0.000000000000000000, 5.000000000000000000 ) ) ;
#65 = CARTESIAN_POINT ( 'NONE',  ( 0.000000000000000000, 0.000000000000000000, 0.000000000000000000 ) ) ;
#66 = DIRECTION ( 'NONE',  ( 0.000000000000000000, -1.000000000000000000, 0.000000000000000000 ) ) ;
#67 = ADVANCED_FACE ( 'NONE', ( #162, #68 ), #92, .F. ) ;
#68 = FACE_OUTER_BOUND ( 'NONE', #142, .T. ) ;
#69 = AXIS2_PLACEMENT_3D ( 'NONE', #2, #152, #272 ) ;
#70 = AXIS2_PLACEMENT_3D ( 'NONE', #17, #366, #334 ) ;
#71 = DIRECTION ( 'NONE',  ( -0.000000000000000000, -0.000000000000000000, -1.000000000000000000 ) ) ;
#72 = FACE_OUTER_BOUND ( 'NONE', #310, .T. ) ;
#73 = PRODUCT_RELATED_PRODUCT_CATEGORY ( 'detail', '', ( #209 ) ) ;
#74 = VERTEX_POINT ( 'NONE', #156 ) ;
#75 = CARTESIAN_POINT ( 'NONE',  ( -5.000000000000000000, 0.000000000000000000, 405.0000000000000000 ) ) ;
#76 = CYLINDRICAL_SURFACE ( 'NONE', #82, 8.000000000000000000 ) ;
#77 = PERSON_AND_ORGANIZATION_ROLE ( 'creator' ) ;
#78 = APPROVAL_PERSON_ORGANIZATION ( #50, #203, #345 ) ;
#79 = LOCAL_TIME ( 17, 4, 23.00000000000000000, #282 ) ;
#80 = LINE ( 'NONE', #109, #53 ) ;
#81 =( NAMED_UNIT ( * ) SI_UNIT ( $, .STERADIAN. ) SOLID_ANGLE_UNIT ( ) );
#82 = AXIS2_PLACEMENT_3D ( 'NONE', #298, #30, #210 ) ;
#83 = VERTEX_POINT ( 'NONE', #267 ) ;
#84 = EDGE_CURVE ( 'NONE', #289, #74, #13, .T. ) ;
#85 = EDGE_LOOP ( 'NONE', ( #91, #219 ) ) ;
#86 = CARTESIAN_POINT ( 'NONE',  ( 0.000000000000000000, 0.000000000000000000, 5.000000000000000000 ) ) ;
#87 = COORDINATED_UNIVERSAL_TIME_OFFSET ( 1, 0, .AHEAD. ) ;
#88 = DIRECTION ( 'NONE',  ( 1.000000000000000000, 0.000000000000000000, 0.000000000000000000 ) ) ;
#89 = PRODUCT_DEFINITION_FORMATION_WITH_SPECIFIED_SOURCE ( 'LIBOVOLNÝ', '', #209, .NOT_KNOWN. ) ;
#90 = PERSON_AND_ORGANIZATION ( #346, #151 ) ;
#91 = ORIENTED_EDGE ( 'NONE', *, *, #224, .F. ) ;
#92 = PLANE ( 'NONE',  #278 ) ;
#93 = CARTESIAN_POINT ( 'NONE',  ( -5.000000000000000000, 0.000000000000000000, 5.500000000000005329 ) ) ;
#94 = VECTOR ( 'NONE', #361, 1000.000000000000000 ) ;
#95 = CIRCLE ( 'NONE', #102, 0.5000000000000004441 ) ;
#96 = CARTESIAN_POINT ( 'NONE',  ( 0.000000000000000000, 0.000000000000000000, 5.000000000000000000 ) ) ;
#97 = DIRECTION ( 'NONE',  ( 0.000000000000000000, 0.000000000000000000, -1.000000000000000000 ) ) ;
#98 = ORIENTED_EDGE ( 'NONE', *, *, #31, .F. ) ;
#99 = DIRECTION ( 'NONE',  ( 0.000000000000000000, 0.000000000000000000, 1.000000000000000000 ) ) ;
#100 = CARTESIAN_POINT ( 'NONE',  ( 0.000000000000000000, 0.000000000000000000, 405.0000000000000000 ) ) ;
#101 = VERTEX_POINT ( 'NONE', #123 ) ;
#102 = AXIS2_PLACEMENT_3D ( 'NONE', #1, #66, #295 ) ;
#103 = CARTESIAN_POINT ( 'NONE',  ( 0.000000000000000000, 0.000000000000000000, 405.0000000000000000 ) ) ;
#104 = EDGE_CURVE ( 'NONE', #83, #303, #319, .T. ) ;
#105 = CARTESIAN_POINT ( 'NONE',  ( 5.000000000000000000, 6.123233995736766282E-16, 405.0000000000000000 ) ) ;
#106 = EDGE_CURVE ( 'NONE', #291, #83, #122, .T. ) ;
#107 = CIRCLE ( 'NONE', #367, 2.750000000000000000 ) ;
#108 = CC_DESIGN_APPROVAL ( #212, ( #59 ) ) ;
#109 = CARTESIAN_POINT ( 'NONE',  ( 2.750000000000000000, 3.367778697655221012E-16, 405.0000000000000000 ) ) ;
#110 = ORIENTED_EDGE ( 'NONE', *, *, #38, .T. ) ;
#111 = AXIS2_PLACEMENT_3D ( 'NONE', #165, #194, #225 ) ;
#112 = DIRECTION ( 'NONE',  ( 0.000000000000000000, 0.000000000000000000, 1.000000000000000000 ) ) ;
#113 = APPROVAL_DATE_TIME ( #177, #203 ) ;
#114 = VERTEX_POINT ( 'NONE', #129 ) ;
#115 = DIRECTION ( 'NONE',  ( 1.000000000000000000, 0.000000000000000000, 0.000000000000000000 ) ) ;
#116 = DATE_AND_TIME ( #379, #21 ) ;
#117 = VERTEX_POINT ( 'NONE', #182 ) ;
#118 = AXIS2_PLACEMENT_3D ( 'NONE', #266, #268, #188 ) ;
#119 = APPROVAL_STATUS ( 'not_yet_approved' ) ;
#120 = DIRECTION ( 'NONE',  ( 0.000000000000000000, 0.000000000000000000, 1.000000000000000000 ) ) ;
#121 = ADVANCED_FACE ( 'NONE', ( #239 ), #159, .F. ) ;
#122 = LINE ( 'NONE', #357, #94 ) ;
#123 = CARTESIAN_POINT ( 'NONE',  ( 5.000000000000000000, 6.123233995736766282E-16, 5.500000000000005329 ) ) ;
#124 = CC_DESIGN_APPROVAL ( #203, ( #43 ) ) ;
#125 = DIRECTION ( 'NONE',  ( 1.000000000000000000, 0.000000000000000000, 0.000000000000000000 ) ) ;
#126 = CARTESIAN_POINT ( 'NONE',  ( 0.000000000000000000, 0.000000000000000000, 0.000000000000000000 ) ) ;
#127 = ORIENTED_EDGE ( 'NONE', *, *, #136, .T. ) ;
#128 = CARTESIAN_POINT ( 'NONE',  ( 0.000000000000000000, 0.000000000000000000, 5.000000000000000000 ) ) ;
#129 = CARTESIAN_POINT ( 'NONE',  ( -8.000000000000000000, 0.000000000000000000, 5.000000000000000000 ) ) ;
#130 = ORIENTED_EDGE ( 'NONE', *, *, #373, .F. ) ;
#131 = ADVANCED_FACE ( 'NONE', ( #154, #72 ), #301, .T. ) ;
#132 = ORIENTED_EDGE ( 'NONE', *, *, #104, .F. ) ;
#133 = AXIS2_PLACEMENT_3D ( 'NONE', #275, #323, #241 ) ;
#134 = CARTESIAN_POINT ( 'NONE',  ( 0.000000000000000000, 0.000000000000000000, 405.0000000000000000 ) ) ;
#135 = APPLICATION_PROTOCOL_DEFINITION ( 'international standard', 'config_control_design', 1994, #229 ) ;
#136 = EDGE_CURVE ( 'NONE', #33, #27, #190, .T. ) ;
#137 = FACE_OUTER_BOUND ( 'NONE', #362, .T. ) ;
#138 = EDGE_CURVE ( 'NONE', #101, #289, #249, .T. ) ;
#139 = CIRCLE ( 'NONE', #350, 8.000000000000000000 ) ;
#140 = PLANE ( 'NONE',  #111 ) ;
#141 = CIRCLE ( 'NONE', #118, 5.000000000000000000 ) ;
#142 = EDGE_LOOP ( 'NONE', ( #262, #214 ) ) ;
#143 = CARTESIAN_POINT ( 'NONE',  ( 0.000000000000000000, 0.000000000000000000, 5.000000000000000000 ) ) ;
#144 = SHAPE_DEFINITION_REPRESENTATION ( #14, #168 ) ;
#145 = APPROVAL_PERSON_ORGANIZATION ( #250, #212, #169 ) ;
#146 = EDGE_LOOP ( 'NONE', ( #25, #265, #127, #48 ) ) ;
#147 = DIRECTION ( 'NONE',  ( 1.000000000000000000, 0.000000000000000000, 0.000000000000000000 ) ) ;
#148 = ORIENTED_EDGE ( 'NONE', *, *, #49, .T. ) ;
#149 = PERSON_AND_ORGANIZATION_ROLE ( 'classification_officer' ) ;
#150 = EDGE_LOOP ( 'NONE', ( #58, #226, #276, #183 ) ) ;
#151 = ORGANIZATION ( 'NEURÈENÝ', 'NEURÈENÝ', '' ) ;
#152 = DIRECTION ( 'NONE',  ( 1.224646799147353207E-16, 1.000000000000000000, -0.000000000000000000 ) ) ;
#153 = CARTESIAN_POINT ( 'NONE',  ( 0.000000000000000000, 0.000000000000000000, 405.0000000000000000 ) ) ;
#154 = FACE_BOUND ( 'NONE', #305, .T. ) ;
#155 = DIRECTION ( 'NONE',  ( -0.000000000000000000, -0.000000000000000000, -1.000000000000000000 ) ) ;
#156 = CARTESIAN_POINT ( 'NONE',  ( -5.500000000000000000, 6.735557395310442023E-16, 5.000000000000002665 ) ) ;
#157 = VECTOR ( 'NONE', #20, 1000.000000000000000 ) ;
#158 = CYLINDRICAL_SURFACE ( 'NONE', #355, 5.000000000000000000 ) ;
#159 = CYLINDRICAL_SURFACE ( 'NONE', #34, 2.750000000000000000 ) ;
#160 = ORIENTED_EDGE ( 'NONE', *, *, #359, .T. ) ;
#161 = CARTESIAN_POINT ( 'NONE',  ( 2.750000000000000000, 3.367778697655221012E-16, 0.000000000000000000 ) ) ;
#162 = FACE_BOUND ( 'NONE', #178, .T. ) ;
#163 = ORIENTED_EDGE ( 'NONE', *, *, #7, .F. ) ;
#164 = AXIS2_PLACEMENT_3D ( 'NONE', #230, #288, #115 ) ;
#165 = CARTESIAN_POINT ( 'NONE',  ( 0.000000000000000000, 0.000000000000000000, 405.0000000000000000 ) ) ;
#166 = CC_DESIGN_PERSON_AND_ORGANIZATION_ASSIGNMENT ( #237, #198, ( #89 ) ) ;
#167 = MANIFOLD_SOLID_BREP ( 'Odebrat vysunutím3', #313 ) ;
#168 = ADVANCED_BREP_SHAPE_REPRESENTATION ( 'b15f', ( #167, #70 ), #308 ) ;
#169 = APPROVAL_ROLE ( '' ) ;
#170 = ORIENTED_EDGE ( 'NONE', *, *, #104, .T. ) ;
#171 =( LENGTH_UNIT ( ) NAMED_UNIT ( * ) SI_UNIT ( .MILLI., .METRE. ) );
#172 = EDGE_LOOP ( 'NONE', ( #297, #375, #148, #176 ) ) ;
#173 = CARTESIAN_POINT ( 'NONE',  ( 0.000000000000000000, 0.000000000000000000, 5.500000000000005329 ) ) ;
#174 = AXIS2_PLACEMENT_3D ( 'NONE', #173, #112, #88 ) ;
#175 = FACE_OUTER_BOUND ( 'NONE', #327, .T. ) ;
#176 = ORIENTED_EDGE ( 'NONE', *, *, #106, .F. ) ;
#177 = DATE_AND_TIME ( #311, #286 ) ;
#178 = EDGE_LOOP ( 'NONE', ( #132, #18 ) ) ;
#179 = DESIGN_CONTEXT ( 'detailed design', #229, 'design' ) ;
#180 = CIRCLE ( 'NONE', #164, 8.000000000000000000 ) ;
#181 = CIRCLE ( 'NONE', #218, 2.750000000000000000 ) ;
#182 = CARTESIAN_POINT ( 'NONE',  ( 8.000000000000000000, 9.797174393178825657E-16, 5.000000000000000000 ) ) ;
#183 = ORIENTED_EDGE ( 'NONE', *, *, #55, .T. ) ;
#184 = CARTESIAN_POINT ( 'NONE',  ( 5.500000000000000000, 0.000000000000000000, 5.000000000000002665 ) ) ;
#185 = DIRECTION ( 'NONE',  ( 0.000000000000000000, 0.000000000000000000, 1.000000000000000000 ) ) ;
#186 = LINE ( 'NONE', #75, #11 ) ;
#187 = ORIENTED_EDGE ( 'NONE', *, *, #31, .T. ) ;
#188 = DIRECTION ( 'NONE',  ( 1.000000000000000000, 0.000000000000000000, 0.000000000000000000 ) ) ;
#189 = ORIENTED_EDGE ( 'NONE', *, *, #244, .F. ) ;
#190 = CIRCLE ( 'NONE', #287, 8.000000000000000000 ) ;
#191 = APPLICATION_PROTOCOL_DEFINITION ( 'international standard', 'config_control_design', 1994, #255 ) ;
#192 = MECHANICAL_CONTEXT ( 'NONE', #255, 'mechanical' ) ;
#193 = ADVANCED_FACE ( 'NONE', ( #45 ), #76, .T. ) ;
#194 = DIRECTION ( 'NONE',  ( 0.000000000000000000, 0.000000000000000000, 1.000000000000000000 ) ) ;
#195 = ORIENTED_EDGE ( 'NONE', *, *, #348, .F. ) ;
#196 = CARTESIAN_POINT ( 'NONE',  ( 0.000000000000000000, 0.000000000000000000, 405.0000000000000000 ) ) ;
#197 = ADVANCED_FACE ( 'NONE', ( #35 ), #356, .T. ) ;
#198 = PERSON_AND_ORGANIZATION_ROLE ( 'creator' ) ;
#199 = DIRECTION ( 'NONE',  ( -0.000000000000000000, -0.000000000000000000, -1.000000000000000000 ) ) ;
#200 = DATE_TIME_ROLE ( 'classification_date' ) ;
#201 = EDGE_LOOP ( 'NONE', ( #98, #285, #364, #189 ) ) ;
#202 = SECURITY_CLASSIFICATION_LEVEL ( 'unclassified' ) ;
#203 = APPROVAL ( #119, 'NEURÈENÝ' ) ;
#204 = VERTEX_POINT ( 'NONE', #363 ) ;
#205 = APPROVAL_DATE_TIME ( #317, #302 ) ;
#206 = DIRECTION ( 'NONE',  ( 1.000000000000000000, 0.000000000000000000, -0.000000000000000000 ) ) ;
#207 = DIRECTION ( 'NONE',  ( -1.000000000000000000, 0.000000000000000000, 0.000000000000000000 ) ) ;
#208 = APPROVAL_PERSON_ORGANIZATION ( #54, #302, #257 ) ;
#209 = PRODUCT ( 'b15f', 'b15f', '', ( #192 ) ) ;
#210 = DIRECTION ( 'NONE',  ( -1.000000000000000000, 0.000000000000000000, 0.000000000000000000 ) ) ;
#211 = DIRECTION ( 'NONE',  ( 1.000000000000000000, 0.000000000000000000, 0.000000000000000000 ) ) ;
#212 = APPROVAL ( #46, 'NEURÈENÝ' ) ;
#213 = DIRECTION ( 'NONE',  ( -0.000000000000000000, -0.000000000000000000, -1.000000000000000000 ) ) ;
#214 = ORIENTED_EDGE ( 'NONE', *, *, #136, .F. ) ;
#215 = FACE_OUTER_BOUND ( 'NONE', #201, .T. ) ;
#216 = EDGE_CURVE ( 'NONE', #204, #291, #181, .T. ) ;
#217 = DIRECTION ( 'NONE',  ( 0.000000000000000000, 0.000000000000000000, -1.000000000000000000 ) ) ;
#218 = AXIS2_PLACEMENT_3D ( 'NONE', #300, #277, #8 ) ;
#219 = ORIENTED_EDGE ( 'NONE', *, *, #216, .F. ) ;
#220 = LINE ( 'NONE', #64, #28 ) ;
#221 =( NAMED_UNIT ( * ) PLANE_ANGLE_UNIT ( ) SI_UNIT ( $, .RADIAN. ) );
#222 = DIRECTION ( 'NONE',  ( 0.000000000000000000, 0.000000000000000000, 1.000000000000000000 ) ) ;
#223 = TOROIDAL_SURFACE ( 'NONE', #378, 5.500000000000000000, 0.5000000000000000000 ) ;
#224 = EDGE_CURVE ( 'NONE', #291, #204, #264, .T. ) ;
#225 = DIRECTION ( 'NONE',  ( 1.000000000000000000, 0.000000000000000000, -0.000000000000000000 ) ) ;
#226 = ORIENTED_EDGE ( 'NONE', *, *, #26, .F. ) ;
#227 = AXIS2_PLACEMENT_3D ( 'NONE', #196, #259, #372 ) ;
#228 = AXIS2_PLACEMENT_3D ( 'NONE', #328, #99, #125 ) ;
#229 = APPLICATION_CONTEXT ( 'configuration controlled 3d designs of mechanical parts and assemblies' ) ;
#230 = CARTESIAN_POINT ( 'NONE',  ( 0.000000000000000000, 0.000000000000000000, 5.000000000000000000 ) ) ;
#231 = CC_DESIGN_DATE_AND_TIME_ASSIGNMENT ( #116, #200, ( #43 ) ) ;
#232 = DATE_AND_TIME ( #57, #351 ) ;
#233 = CARTESIAN_POINT ( 'NONE',  ( -8.000000000000000000, 0.000000000000000000, 0.000000000000000000 ) ) ;
#234 = DIRECTION ( 'NONE',  ( 0.000000000000000000, 0.000000000000000000, 1.000000000000000000 ) ) ;
#235 = VECTOR ( 'NONE', #320, 1000.000000000000000 ) ;
#236 = ORIENTED_EDGE ( 'NONE', *, *, #244, .T. ) ;
#237 = PERSON_AND_ORGANIZATION ( #346, #151 ) ;
#238 = CC_DESIGN_PERSON_AND_ORGANIZATION_ASSIGNMENT ( #263, #24, ( #89 ) ) ;
#239 = FACE_OUTER_BOUND ( 'NONE', #172, .T. ) ;
#240 = CARTESIAN_POINT ( 'NONE',  ( -2.750000000000000000, 0.000000000000000000, 405.0000000000000000 ) ) ;
#241 = DIRECTION ( 'NONE',  ( 1.000000000000000000, 0.000000000000000000, -0.000000000000000000 ) ) ;
#242 = FACE_OUTER_BOUND ( 'NONE', #316, .T. ) ;
#243 = ORIENTED_EDGE ( 'NONE', *, *, #15, .T. ) ;
#244 = EDGE_CURVE ( 'NONE', #246, #289, #186, .T. ) ;
#245 = FACE_OUTER_BOUND ( 'NONE', #146, .T. ) ;
#246 = VERTEX_POINT ( 'NONE', #331 ) ;
#247 = ADVANCED_FACE ( 'NONE', ( #215 ), #158, .T. ) ;
#248 = CIRCLE ( 'NONE', #299, 8.000000000000000000 ) ;
#249 = CIRCLE ( 'NONE', #343, 5.000000000000000000 ) ;
#250 = PERSON_AND_ORGANIZATION ( #346, #151 ) ;
#251 = ADVANCED_FACE ( 'NONE', ( #40 ), #6, .F. ) ;
#252 = DIRECTION ( 'NONE',  ( 1.000000000000000000, 0.000000000000000000, 0.000000000000000000 ) ) ;
#253 = AXIS2_PLACEMENT_3D ( 'NONE', #128, #71, #360 ) ;
#254 = ADVANCED_FACE ( 'NONE', ( #245 ), #322, .T. ) ;
#255 = APPLICATION_CONTEXT ( 'configuration controlled 3d designs of mechanical parts and assemblies' ) ;
#256 = DIRECTION ( 'NONE',  ( 0.000000000000000000, 0.000000000000000000, 1.000000000000000000 ) ) ;
#257 = APPROVAL_ROLE ( '' ) ;
#258 = CC_DESIGN_APPROVAL ( #302, ( #89 ) ) ;
#259 = DIRECTION ( 'NONE',  ( 0.000000000000000000, 0.000000000000000000, 1.000000000000000000 ) ) ;
#260 = CARTESIAN_POINT ( 'NONE',  ( 0.000000000000000000, 0.000000000000000000, 0.000000000000000000 ) ) ;
#261 = CALENDAR_DATE ( 2022, 8, 7 ) ;
#262 = ORIENTED_EDGE ( 'NONE', *, *, #55, .F. ) ;
#263 = PERSON_AND_ORGANIZATION ( #346, #151 ) ;
#264 = CIRCLE ( 'NONE', #47, 2.750000000000000000 ) ;
#265 = ORIENTED_EDGE ( 'NONE', *, *, #292, .T. ) ;
#266 = CARTESIAN_POINT ( 'NONE',  ( 0.000000000000000000, 0.000000000000000000, 405.0000000000000000 ) ) ;
#267 = CARTESIAN_POINT ( 'NONE',  ( -2.750000000000000000, 0.000000000000000000, 0.000000000000000000 ) ) ;
#268 = DIRECTION ( 'NONE',  ( 0.000000000000000000, 0.000000000000000000, 1.000000000000000000 ) ) ;
#269 = CIRCLE ( 'NONE', #227, 5.000000000000000000 ) ;
#270 = CARTESIAN_POINT ( 'NONE',  ( 0.000000000000000000, 0.000000000000000000, 0.000000000000000000 ) ) ;
#271 = DIRECTION ( 'NONE',  ( -0.000000000000000000, -0.000000000000000000, -1.000000000000000000 ) ) ;
#272 = DIRECTION ( 'NONE',  ( -1.000000000000000000, 1.224646799147351482E-16, 0.000000000000000000 ) ) ;
#273 = ORIENTED_EDGE ( 'NONE', *, *, #26, .T. ) ;
#274 = DIRECTION ( 'NONE',  ( -1.000000000000000000, 0.000000000000000000, 0.000000000000000000 ) ) ;
#275 = CARTESIAN_POINT ( 'NONE',  ( 0.000000000000000000, 0.000000000000000000, 5.000000000000000000 ) ) ;
#276 = ORIENTED_EDGE ( 'NONE', *, *, #315, .T. ) ;
#277 = DIRECTION ( 'NONE',  ( 0.000000000000000000, 0.000000000000000000, 1.000000000000000000 ) ) ;
#278 = AXIS2_PLACEMENT_3D ( 'NONE', #126, #185, #206 ) ;
#279 = AXIS2_PLACEMENT_3D ( 'NONE', #294, #213, #274 ) ;
#280 = DIRECTION ( 'NONE',  ( 0.000000000000000000, 0.000000000000000000, -1.000000000000000000 ) ) ;
#281 = EDGE_CURVE ( 'NONE', #289, #101, #337, .T. ) ;
#282 = COORDINATED_UNIVERSAL_TIME_OFFSET ( 1, 0, .AHEAD. ) ;
#283 = VERTEX_POINT ( 'NONE', #184 ) ;
#284 = CARTESIAN_POINT ( 'NONE',  ( 5.000000000000000000, 6.123233995736766282E-16, 405.0000000000000000 ) ) ;
#285 = ORIENTED_EDGE ( 'NONE', *, *, #7, .T. ) ;
#286 = LOCAL_TIME ( 17, 4, 23.00000000000000000, #87 ) ;
#287 = AXIS2_PLACEMENT_3D ( 'NONE', #65, #120, #296 ) ;
#288 = DIRECTION ( 'NONE',  ( 0.000000000000000000, 0.000000000000000000, 1.000000000000000000 ) ) ;
#289 = VERTEX_POINT ( 'NONE', #93 ) ;
#290 = CC_DESIGN_PERSON_AND_ORGANIZATION_ASSIGNMENT ( #336, #77, ( #59 ) ) ;
#291 = VERTEX_POINT ( 'NONE', #240 ) ;
#292 = EDGE_CURVE ( 'NONE', #117, #33, #37, .T. ) ;
#293 = TOROIDAL_SURFACE ( 'NONE', #174, 5.500000000000000000, 0.5000000000000000000 ) ;
#294 = CARTESIAN_POINT ( 'NONE',  ( 0.000000000000000000, 0.000000000000000000, 405.0000000000000000 ) ) ;
#295 = DIRECTION ( 'NONE',  ( 0.000000000000000000, 0.000000000000000000, -1.000000000000000000 ) ) ;
#296 = DIRECTION ( 'NONE',  ( 1.000000000000000000, 0.000000000000000000, 0.000000000000000000 ) ) ;
#297 = ORIENTED_EDGE ( 'NONE', *, *, #224, .T. ) ;
#298 = CARTESIAN_POINT ( 'NONE',  ( 0.000000000000000000, 0.000000000000000000, 5.000000000000000000 ) ) ;
#299 = AXIS2_PLACEMENT_3D ( 'NONE', #143, #256, #56 ) ;
#300 = CARTESIAN_POINT ( 'NONE',  ( 0.000000000000000000, 0.000000000000000000, 405.0000000000000000 ) ) ;
#301 = PLANE ( 'NONE',  #133 ) ;
#302 = APPROVAL ( #371, 'NEURÈENÝ' ) ;
#303 = VERTEX_POINT ( 'NONE', #161 ) ;
#304 = DIRECTION ( 'NONE',  ( 1.000000000000000000, 0.000000000000000000, 0.000000000000000000 ) ) ;
#305 = EDGE_LOOP ( 'NONE', ( #110, #51 ) ) ;
#306 = PERSON_AND_ORGANIZATION_ROLE ( 'design_owner' ) ;
#307 = AXIS2_PLACEMENT_3D ( 'NONE', #153, #97, #207 ) ;
#308 =( GEOMETRIC_REPRESENTATION_CONTEXT ( 3 ) GLOBAL_UNCERTAINTY_ASSIGNED_CONTEXT ( ( #326 ) ) GLOBAL_UNIT_ASSIGNED_CONTEXT ( ( #171, #221, #81 ) ) REPRESENTATION_CONTEXT ( 'NONE', 'WORKASPACE' ) );
#309 = ORIENTED_EDGE ( 'NONE', *, *, #332, .T. ) ;
#310 = EDGE_LOOP ( 'NONE', ( #273, #243 ) ) ;
#311 = CALENDAR_DATE ( 2022, 8, 7 ) ;
#312 = CARTESIAN_POINT ( 'NONE',  ( 0.000000000000000000, 0.000000000000000000, 0.000000000000000000 ) ) ;
#313 = CLOSED_SHELL ( 'NONE', ( #121, #19, #247, #254, #193, #131, #67, #197, #369, #370, #251 ) ) ;
#314 = LOCAL_TIME ( 17, 4, 23.00000000000000000, #60 ) ;
#315 = EDGE_CURVE ( 'NONE', #114, #27, #220, .T. ) ;
#316 = EDGE_LOOP ( 'NONE', ( #309, #187 ) ) ;
#317 = DATE_AND_TIME ( #261, #314 ) ;
#318 = ORIENTED_EDGE ( 'NONE', *, *, #216, .T. ) ;
#319 = CIRCLE ( 'NONE', #42, 2.750000000000000000 ) ;
#320 = DIRECTION ( 'NONE',  ( -0.000000000000000000, -0.000000000000000000, -1.000000000000000000 ) ) ;
#321 = DIRECTION ( 'NONE',  ( 1.000000000000000000, 0.000000000000000000, 0.000000000000000000 ) ) ;
#322 = CYLINDRICAL_SURFACE ( 'NONE', #253, 8.000000000000000000 ) ;
#323 = DIRECTION ( 'NONE',  ( 0.000000000000000000, 0.000000000000000000, 1.000000000000000000 ) ) ;
#324 = ORIENTED_EDGE ( 'NONE', *, *, #359, .F. ) ;
#325 = DIRECTION ( 'NONE',  ( -0.000000000000000000, -0.000000000000000000, -1.000000000000000000 ) ) ;
#326 = UNCERTAINTY_MEASURE_WITH_UNIT (LENGTH_MEASURE( 1.000000000000000082E-05 ), #171, 'distance_accuracy_value', 'NONE');
#327 = EDGE_LOOP ( 'NONE', ( #12, #39, #333, #324 ) ) ;
#328 = CARTESIAN_POINT ( 'NONE',  ( 0.000000000000000000, 0.000000000000000000, 5.500000000000005329 ) ) ;
#329 = DIRECTION ( 'NONE',  ( -1.000000000000000000, 0.000000000000000000, 0.000000000000000000 ) ) ;
#330 = EDGE_LOOP ( 'NONE', ( #163, #352, #236, #342 ) ) ;
#331 = CARTESIAN_POINT ( 'NONE',  ( -5.000000000000000000, 0.000000000000000000, 405.0000000000000000 ) ) ;
#332 = EDGE_CURVE ( 'NONE', #246, #381, #141, .T. ) ;
#333 = ORIENTED_EDGE ( 'NONE', *, *, #38, .F. ) ;
#334 = DIRECTION ( 'NONE',  ( 1.000000000000000000, 0.000000000000000000, 0.000000000000000000 ) ) ;
#335 = CC_DESIGN_PERSON_AND_ORGANIZATION_ASSIGNMENT ( #41, #306, ( #209 ) ) ;
#336 = PERSON_AND_ORGANIZATION ( #346, #151 ) ;
#337 = CIRCLE ( 'NONE', #228, 5.000000000000000000 ) ;
#338 = DIRECTION ( 'NONE',  ( 0.000000000000000000, 0.000000000000000000, 1.000000000000000000 ) ) ;
#339 = CARTESIAN_POINT ( 'NONE',  ( 0.000000000000000000, 0.000000000000000000, 5.500000000000005329 ) ) ;
#340 = CC_DESIGN_DATE_AND_TIME_ASSIGNMENT ( #232, #22, ( #59 ) ) ;
#341 = DIRECTION ( 'NONE',  ( 1.000000000000000000, 0.000000000000000000, 0.000000000000000000 ) ) ;
#342 = ORIENTED_EDGE ( 'NONE', *, *, #281, .T. ) ;
#343 = AXIS2_PLACEMENT_3D ( 'NONE', #32, #222, #252 ) ;
#344 = LINE ( 'NONE', #284, #157 ) ;
#345 = APPROVAL_ROLE ( '' ) ;
#346 = PERSON ( 'NEURÈENÝ', 'NEURÈENÝ', 'NEURÈENÝ', ('NEURÈENÝ'), ('NEURÈENÝ'), ('NEURÈENÝ') ) ;
#347 = CARTESIAN_POINT ( 'NONE',  ( 8.000000000000000000, 9.797174393178825657E-16, 0.000000000000000000 ) ) ;
#348 = EDGE_CURVE ( 'NONE', #74, #283, #4, .T. ) ;
#349 = ORIENTED_EDGE ( 'NONE', *, *, #106, .T. ) ;
#350 = AXIS2_PLACEMENT_3D ( 'NONE', #260, #234, #321 ) ;
#351 = LOCAL_TIME ( 17, 4, 23.00000000000000000, #374 ) ;
#352 = ORIENTED_EDGE ( 'NONE', *, *, #332, .F. ) ;
#353 = DIRECTION ( 'NONE',  ( -1.000000000000000000, 0.000000000000000000, 0.000000000000000000 ) ) ;
#354 = DIRECTION ( 'NONE',  ( 0.000000000000000000, 0.000000000000000000, 1.000000000000000000 ) ) ;
#355 = AXIS2_PLACEMENT_3D ( 'NONE', #103, #155, #353 ) ;
#356 = CYLINDRICAL_SURFACE ( 'NONE', #279, 5.000000000000000000 ) ;
#357 = CARTESIAN_POINT ( 'NONE',  ( -2.750000000000000000, 0.000000000000000000, 405.0000000000000000 ) ) ;
#358 = ORIENTED_EDGE ( 'NONE', *, *, #138, .F. ) ;
#359 = EDGE_CURVE ( 'NONE', #101, #283, #95, .T. ) ;
#360 = DIRECTION ( 'NONE',  ( -1.000000000000000000, 0.000000000000000000, 0.000000000000000000 ) ) ;
#361 = DIRECTION ( 'NONE',  ( 0.000000000000000000, 0.000000000000000000, -1.000000000000000000 ) ) ;
#362 = EDGE_LOOP ( 'NONE', ( #377, #358, #160, #195 ) ) ;
#363 = CARTESIAN_POINT ( 'NONE',  ( 2.750000000000000000, 3.367778697655221012E-16, 405.0000000000000000 ) ) ;
#364 = ORIENTED_EDGE ( 'NONE', *, *, #138, .T. ) ;
#365 = CALENDAR_DATE ( 2022, 8, 7 ) ;
#366 = DIRECTION ( 'NONE',  ( 0.000000000000000000, 0.000000000000000000, 1.000000000000000000 ) ) ;
#367 = AXIS2_PLACEMENT_3D ( 'NONE', #312, #23, #147 ) ;
#368 = CC_DESIGN_SECURITY_CLASSIFICATION ( #43, ( #89 ) ) ;
#369 = ADVANCED_FACE ( 'NONE', ( #5, #242 ), #140, .T. ) ;
#370 = ADVANCED_FACE ( 'NONE', ( #137 ), #223, .F. ) ;
#371 = APPROVAL_STATUS ( 'not_yet_approved' ) ;
#372 = DIRECTION ( 'NONE',  ( 1.000000000000000000, 0.000000000000000000, 0.000000000000000000 ) ) ;
#373 = EDGE_CURVE ( 'NONE', #204, #303, #80, .T. ) ;
#374 = COORDINATED_UNIVERSAL_TIME_OFFSET ( 1, 0, .AHEAD. ) ;
#375 = ORIENTED_EDGE ( 'NONE', *, *, #373, .T. ) ;
#376 = COORDINATED_UNIVERSAL_TIME_OFFSET ( 1, 0, .AHEAD. ) ;
#377 = ORIENTED_EDGE ( 'NONE', *, *, #84, .F. ) ;
#378 = AXIS2_PLACEMENT_3D ( 'NONE', #339, #338, #341 ) ;
#379 = CALENDAR_DATE ( 2022, 8, 7 ) ;
#380 = CC_DESIGN_PERSON_AND_ORGANIZATION_ASSIGNMENT ( #90, #149, ( #43 ) ) ;
#381 = VERTEX_POINT ( 'NONE', #105 ) ;
ENDSEC;
END-ISO-10303-21;
