ISO-10303-21;
HEADER;
FILE_DESCRIPTION (( 'STEP AP203' ),
    '1' );
FILE_NAME ('6dd6.STEP',
    '2022-07-08T14:54:37',
    ( '' ),
    ( '' ),
    'SwSTEP 2.0',
    'SolidWorks 2019',
    '' );
FILE_SCHEMA (( 'CONFIG_CONTROL_DESIGN' ));
ENDSEC;

DATA;
#1 = LINE ( 'NONE', #59, #290 ) ;
#2 = DIRECTION ( 'NONE',  ( 1.000000000000000000, 0.000000000000000000, 0.000000000000000000 ) ) ;
#3 = AXIS2_PLACEMENT_3D ( 'NONE', #241, #96, #244 ) ;
#4 = DIRECTION ( 'NONE',  ( -0.000000000000000000, -0.000000000000000000, -1.000000000000000000 ) ) ;
#5 = CC_DESIGN_APPROVAL ( #71, ( #111 ) ) ;
#6 = DIRECTION ( 'NONE',  ( 1.000000000000000000, 0.000000000000000000, -0.000000000000000000 ) ) ;
#7 = CIRCLE ( 'NONE', #3, 0.5000000000000004441 ) ;
#8 = ORIENTED_EDGE ( 'NONE', *, *, #229, .T. ) ;
#9 = CYLINDRICAL_SURFACE ( 'NONE', #220, 3.000000000000000444 ) ;
#10 = VERTEX_POINT ( 'NONE', #371 ) ;
#11 = AXIS2_PLACEMENT_3D ( 'NONE', #355, #147, #118 ) ;
#12 = DIRECTION ( 'NONE',  ( 1.000000000000000000, 0.000000000000000000, 0.000000000000000000 ) ) ;
#13 = ORIENTED_EDGE ( 'NONE', *, *, #255, .T. ) ;
#14 = EDGE_CURVE ( 'NONE', #10, #127, #361, .T. ) ;
#15 = PLANE ( 'NONE',  #195 ) ;
#16 = AXIS2_PLACEMENT_3D ( 'NONE', #116, #323, #300 ) ;
#17 = CALENDAR_DATE ( 2022, 8, 7 ) ;
#18 = DIRECTION ( 'NONE',  ( 0.000000000000000000, 0.000000000000000000, 1.000000000000000000 ) ) ;
#19 = CALENDAR_DATE ( 2022, 8, 7 ) ;
#20 = APPROVAL ( #225, 'NEURÈENÝ' ) ;
#21 = DATE_AND_TIME ( #101, #170 ) ;
#22 = DIRECTION ( 'NONE',  ( 1.000000000000000000, 0.000000000000000000, 0.000000000000000000 ) ) ;
#23 = DATE_TIME_ROLE ( 'classification_date' ) ;
#24 = PRODUCT ( '6dd6', '6dd6', '', ( #171 ) ) ;
#25 = DIRECTION ( 'NONE',  ( 0.000000000000000000, 0.000000000000000000, 1.000000000000000000 ) ) ;
#26 = CC_DESIGN_PERSON_AND_ORGANIZATION_ASSIGNMENT ( #175, #311, ( #299 ) ) ;
#27 = DIRECTION ( 'NONE',  ( 1.000000000000000000, 0.000000000000000000, 0.000000000000000000 ) ) ;
#28 = CC_DESIGN_SECURITY_CLASSIFICATION ( #326, ( #299 ) ) ;
#29 = CYLINDRICAL_SURFACE ( 'NONE', #303, 10.00000000000000000 ) ;
#30 = CARTESIAN_POINT ( 'NONE',  ( 0.000000000000000000, 0.000000000000000000, 167.0000000000000000 ) ) ;
#31 = CIRCLE ( 'NONE', #307, 3.000000000000000444 ) ;
#32 = DIRECTION ( 'NONE',  ( -0.000000000000000000, -0.000000000000000000, -1.000000000000000000 ) ) ;
#33 = FACE_OUTER_BOUND ( 'NONE', #70, .T. ) ;
#34 = ORIENTED_EDGE ( 'NONE', *, *, #281, .F. ) ;
#35 = EDGE_CURVE ( 'NONE', #162, #339, #52, .T. ) ;
#36 = DIRECTION ( 'NONE',  ( 1.000000000000000000, 0.000000000000000000, 0.000000000000000000 ) ) ;
#37 = ORIENTED_EDGE ( 'NONE', *, *, #348, .T. ) ;
#38 = DIRECTION ( 'NONE',  ( 1.000000000000000000, 0.000000000000000000, 0.000000000000000000 ) ) ;
#39 = CARTESIAN_POINT ( 'NONE',  ( 6.000000000000000888, 7.347880794884120722E-16, 167.0000000000000000 ) ) ;
#40 = VERTEX_POINT ( 'NONE', #316 ) ;
#41 = EDGE_CURVE ( 'NONE', #43, #283, #152, .T. ) ;
#42 = CIRCLE ( 'NONE', #65, 6.000000000000000888 ) ;
#43 = VERTEX_POINT ( 'NONE', #193 ) ;
#44 = APPROVAL ( #109, 'NEURÈENÝ' ) ;
#45 = LINE ( 'NONE', #188, #374 ) ;
#46 = APPROVAL_DATE_TIME ( #258, #71 ) ;
#47 = ORIENTED_EDGE ( 'NONE', *, *, #348, .F. ) ;
#48 = VECTOR ( 'NONE', #54, 1000.000000000000000 ) ;
#49 = COORDINATED_UNIVERSAL_TIME_OFFSET ( 1, 0, .AHEAD. ) ;
#50 = SECURITY_CLASSIFICATION_LEVEL ( 'unclassified' ) ;
#51 = DIRECTION ( 'NONE',  ( -0.000000000000000000, -0.000000000000000000, -1.000000000000000000 ) ) ;
#52 = CIRCLE ( 'NONE', #173, 10.00000000000000000 ) ;
#53 = LOCAL_TIME ( 16, 54, 37.00000000000000000, #49 ) ;
#54 = DIRECTION ( 'NONE',  ( -0.000000000000000000, -0.000000000000000000, -1.000000000000000000 ) ) ;
#55 = FACE_OUTER_BOUND ( 'NONE', #254, .T. ) ;
#56 = CC_DESIGN_PERSON_AND_ORGANIZATION_ASSIGNMENT ( #142, #139, ( #299 ) ) ;
#57 = DIRECTION ( 'NONE',  ( -0.000000000000000000, -0.000000000000000000, -1.000000000000000000 ) ) ;
#58 = AXIS2_PLACEMENT_3D ( 'NONE', #304, #249, #12 ) ;
#59 = CARTESIAN_POINT ( 'NONE',  ( 6.000000000000000888, 7.347880794884120722E-16, 167.0000000000000000 ) ) ;
#60 = CYLINDRICAL_SURFACE ( 'NONE', #349, 10.00000000000000000 ) ;
#61 = ORIENTED_EDGE ( 'NONE', *, *, #99, .T. ) ;
#62 = ADVANCED_FACE ( 'NONE', ( #106 ), #276, .F. ) ;
#63 = DIRECTION ( 'NONE',  ( 1.000000000000000000, 0.000000000000000000, 0.000000000000000000 ) ) ;
#64 = VERTEX_POINT ( 'NONE', #202 ) ;
#65 = AXIS2_PLACEMENT_3D ( 'NONE', #88, #208, #268 ) ;
#66 = APPROVAL_PERSON_ORGANIZATION ( #191, #20, #314 ) ;
#67 = CARTESIAN_POINT ( 'NONE',  ( -10.00000000000000000, 0.000000000000000000, 7.000000000000000000 ) ) ;
#68 = EDGE_LOOP ( 'NONE', ( #13, #8 ) ) ;
#69 = DIRECTION ( 'NONE',  ( 0.000000000000000000, 0.000000000000000000, 1.000000000000000000 ) ) ;
#70 = EDGE_LOOP ( 'NONE', ( #37, #245 ) ) ;
#71 = APPROVAL ( #262, 'NEURÈENÝ' ) ;
#72 = ORIENTED_EDGE ( 'NONE', *, *, #99, .F. ) ;
#73 = AXIS2_PLACEMENT_3D ( 'NONE', #259, #51, #176 ) ;
#74 = DIRECTION ( 'NONE',  ( 1.000000000000000000, 0.000000000000000000, 0.000000000000000000 ) ) ;
#75 = DATE_TIME_ROLE ( 'creation_date' ) ;
#76 = EDGE_LOOP ( 'NONE', ( #252, #219, #310, #122 ) ) ;
#77 = EDGE_CURVE ( 'NONE', #248, #257, #31, .T. ) ;
#78 = PERSON_AND_ORGANIZATION_ROLE ( 'design_owner' ) ;
#79 = PERSON_AND_ORGANIZATION ( #332, #266 ) ;
#80 = ORIENTED_EDGE ( 'NONE', *, *, #144, .F. ) ;
#81 = DIRECTION ( 'NONE',  ( 1.000000000000000000, 0.000000000000000000, 0.000000000000000000 ) ) ;
#82 = DIRECTION ( 'NONE',  ( 1.000000000000000000, 0.000000000000000000, 0.000000000000000000 ) ) ;
#83 = DATE_AND_TIME ( #375, #182 ) ;
#84 = ORIENTED_EDGE ( 'NONE', *, *, #288, .T. ) ;
#85 = CARTESIAN_POINT ( 'NONE',  ( 0.000000000000000000, 0.000000000000000000, 167.0000000000000000 ) ) ;
#86 = DIRECTION ( 'NONE',  ( 0.000000000000000000, 0.000000000000000000, -1.000000000000000000 ) ) ;
#87 = DIRECTION ( 'NONE',  ( -1.000000000000000000, 0.000000000000000000, 0.000000000000000000 ) ) ;
#88 = CARTESIAN_POINT ( 'NONE',  ( 0.000000000000000000, 0.000000000000000000, 7.500000000000007105 ) ) ;
#89 = ADVANCED_FACE ( 'NONE', ( #113, #319 ), #172, .T. ) ;
#90 = EDGE_LOOP ( 'NONE', ( #381, #367, #84, #221 ) ) ;
#91 = DIRECTION ( 'NONE',  ( -0.000000000000000000, -0.000000000000000000, -1.000000000000000000 ) ) ;
#92 = CARTESIAN_POINT ( 'NONE',  ( 0.000000000000000000, 0.000000000000000000, 0.000000000000000000 ) ) ;
#93 = ORIENTED_EDGE ( 'NONE', *, *, #181, .F. ) ;
#94 = CIRCLE ( 'NONE', #236, 6.000000000000000888 ) ;
#95 = DIRECTION ( 'NONE',  ( 1.000000000000000000, 0.000000000000000000, 0.000000000000000000 ) ) ;
#96 = DIRECTION ( 'NONE',  ( 0.000000000000000000, -1.000000000000000000, 0.000000000000000000 ) ) ;
#97 = VERTEX_POINT ( 'NONE', #343 ) ;
#98 = DIRECTION ( 'NONE',  ( -0.000000000000000000, -0.000000000000000000, -1.000000000000000000 ) ) ;
#99 = EDGE_CURVE ( 'NONE', #257, #248, #108, .T. ) ;
#100 = CARTESIAN_POINT ( 'NONE',  ( -6.000000000000000888, 0.000000000000000000, 167.0000000000000000 ) ) ;
#101 = CALENDAR_DATE ( 2022, 8, 7 ) ;
#102 = CARTESIAN_POINT ( 'NONE',  ( 0.000000000000000000, 0.000000000000000000, 167.0000000000000000 ) ) ;
#103 = CC_DESIGN_APPROVAL ( #20, ( #299 ) ) ;
#104 = LOCAL_TIME ( 16, 54, 37.00000000000000000, #165 ) ;
#105 = PERSON_AND_ORGANIZATION ( #332, #266 ) ;
#106 = FACE_OUTER_BOUND ( 'NONE', #76, .T. ) ;
#107 = APPLICATION_CONTEXT ( 'configuration controlled 3d designs of mechanical parts and assemblies' ) ;
#108 = CIRCLE ( 'NONE', #318, 3.000000000000000444 ) ;
#109 = APPROVAL_STATUS ( 'not_yet_approved' ) ;
#110 = DIRECTION ( 'NONE',  ( 0.000000000000000000, 0.000000000000000000, 1.000000000000000000 ) ) ;
#111 = PRODUCT_DEFINITION ( 'NEZNÁMÝ', '', #299, #135 ) ;
#112 = COORDINATED_UNIVERSAL_TIME_OFFSET ( 1, 0, .AHEAD. ) ;
#113 = FACE_BOUND ( 'NONE', #239, .T. ) ;
#114 = DIRECTION ( 'NONE',  ( -0.000000000000000000, -0.000000000000000000, -1.000000000000000000 ) ) ;
#115 = APPLICATION_CONTEXT ( 'configuration controlled 3d designs of mechanical parts and assemblies' ) ;
#116 = CARTESIAN_POINT ( 'NONE',  ( -6.500000000000000888, 7.960204194457796463E-16, 7.500000000000007105 ) ) ;
#117 = MANIFOLD_SOLID_BREP ( 'Odebrat vysunutím3', #178 ) ;
#118 = DIRECTION ( 'NONE',  ( 1.000000000000000000, 0.000000000000000000, 0.000000000000000000 ) ) ;
#119 = EDGE_CURVE ( 'NONE', #257, #283, #356, .T. ) ;
#120 = FACE_BOUND ( 'NONE', #68, .T. ) ;
#121 = AXIS2_PLACEMENT_3D ( 'NONE', #366, #164, #38 ) ;
#122 = ORIENTED_EDGE ( 'NONE', *, *, #315, .F. ) ;
#123 = CC_DESIGN_PERSON_AND_ORGANIZATION_ASSIGNMENT ( #134, #168, ( #326 ) ) ;
#124 =( NAMED_UNIT ( * ) SI_UNIT ( $, .STERADIAN. ) SOLID_ANGLE_UNIT ( ) );
#125 = AXIS2_PLACEMENT_3D ( 'NONE', #187, #126, #74 ) ;
#126 = DIRECTION ( 'NONE',  ( -0.000000000000000000, -0.000000000000000000, -1.000000000000000000 ) ) ;
#127 = VERTEX_POINT ( 'NONE', #206 ) ;
#128 = EDGE_CURVE ( 'NONE', #339, #10, #204, .T. ) ;
#129 = CARTESIAN_POINT ( 'NONE',  ( 3.000000000000000444, 3.673940397442059868E-16, 167.0000000000000000 ) ) ;
#130 = ORIENTED_EDGE ( 'NONE', *, *, #77, .T. ) ;
#131 = ADVANCED_FACE ( 'NONE', ( #295 ), #194, .F. ) ;
#132 = DIRECTION ( 'NONE',  ( 0.000000000000000000, 0.000000000000000000, -1.000000000000000000 ) ) ;
#133 = EDGE_LOOP ( 'NONE', ( #61, #141, #273, #230 ) ) ;
#134 = PERSON_AND_ORGANIZATION ( #332, #266 ) ;
#135 = DESIGN_CONTEXT ( 'detailed design', #107, 'design' ) ;
#136 = DATE_AND_TIME ( #370, #53 ) ;
#137 = DIRECTION ( 'NONE',  ( 0.000000000000000000, 0.000000000000000000, 1.000000000000000000 ) ) ;
#138 = EDGE_CURVE ( 'NONE', #215, #97, #231, .T. ) ;
#139 = PERSON_AND_ORGANIZATION_ROLE ( 'design_supplier' ) ;
#140 = DIRECTION ( 'NONE',  ( 1.000000000000000000, 0.000000000000000000, -0.000000000000000000 ) ) ;
#141 = ORIENTED_EDGE ( 'NONE', *, *, #163, .T. ) ;
#142 = PERSON_AND_ORGANIZATION ( #332, #266 ) ;
#143 = EDGE_CURVE ( 'NONE', #64, #215, #42, .T. ) ;
#144 = EDGE_CURVE ( 'NONE', #162, #127, #177, .T. ) ;
#145 = LINE ( 'NONE', #380, #240 ) ;
#146 = CIRCLE ( 'NONE', #160, 6.500000000000000888 ) ;
#147 = DIRECTION ( 'NONE',  ( 0.000000000000000000, 0.000000000000000000, 1.000000000000000000 ) ) ;
#148 = FACE_OUTER_BOUND ( 'NONE', #263, .T. ) ;
#149 = CC_DESIGN_APPROVAL ( #44, ( #326 ) ) ;
#150 = PLANE ( 'NONE',  #265 ) ;
#151 = PRODUCT_RELATED_PRODUCT_CATEGORY ( 'detail', '', ( #24 ) ) ;
#152 = CIRCLE ( 'NONE', #73, 3.000000000000000444 ) ;
#153 = DIRECTION ( 'NONE',  ( -0.000000000000000000, -0.000000000000000000, -1.000000000000000000 ) ) ;
#154 =( GEOMETRIC_REPRESENTATION_CONTEXT ( 3 ) GLOBAL_UNCERTAINTY_ASSIGNED_CONTEXT ( ( #286 ) ) GLOBAL_UNIT_ASSIGNED_CONTEXT ( ( #186, #238, #124 ) ) REPRESENTATION_CONTEXT ( 'NONE', 'WORKASPACE' ) );
#155 = CARTESIAN_POINT ( 'NONE',  ( 0.000000000000000000, 0.000000000000000000, 167.0000000000000000 ) ) ;
#156 = CYLINDRICAL_SURFACE ( 'NONE', #227, 3.000000000000000444 ) ;
#157 = ADVANCED_FACE ( 'NONE', ( #264 ), #29, .T. ) ;
#158 = ORIENTED_EDGE ( 'NONE', *, *, #119, .T. ) ;
#159 = DIRECTION ( 'NONE',  ( 1.000000000000000000, 0.000000000000000000, 0.000000000000000000 ) ) ;
#160 = AXIS2_PLACEMENT_3D ( 'NONE', #270, #272, #2 ) ;
#161 = CIRCLE ( 'NONE', #233, 10.00000000000000000 ) ;
#162 = VERTEX_POINT ( 'NONE', #353 ) ;
#163 = EDGE_CURVE ( 'NONE', #248, #43, #145, .T. ) ;
#164 = DIRECTION ( 'NONE',  ( 0.000000000000000000, 0.000000000000000000, 1.000000000000000000 ) ) ;
#165 = COORDINATED_UNIVERSAL_TIME_OFFSET ( 1, 0, .AHEAD. ) ;
#166 = AXIS2_PLACEMENT_3D ( 'NONE', #85, #4, #352 ) ;
#167 = ORIENTED_EDGE ( 'NONE', *, *, #77, .F. ) ;
#168 = PERSON_AND_ORGANIZATION_ROLE ( 'classification_officer' ) ;
#169 = CARTESIAN_POINT ( 'NONE',  ( 0.000000000000000000, 0.000000000000000000, 167.0000000000000000 ) ) ;
#170 = LOCAL_TIME ( 16, 54, 37.00000000000000000, #112 ) ;
#171 = MECHANICAL_CONTEXT ( 'NONE', #115, 'mechanical' ) ;
#172 = PLANE ( 'NONE',  #329 ) ;
#173 = AXIS2_PLACEMENT_3D ( 'NONE', #287, #18, #82 ) ;
#174 = LOCAL_TIME ( 16, 54, 37.00000000000000000, #347 ) ;
#175 = PERSON_AND_ORGANIZATION ( #332, #266 ) ;
#176 = DIRECTION ( 'NONE',  ( 1.000000000000000000, 0.000000000000000000, 0.000000000000000000 ) ) ;
#177 = LINE ( 'NONE', #325, #48 ) ;
#178 = CLOSED_SHELL ( 'NONE', ( #360, #62, #200, #209, #157, #243, #357, #216, #89, #131, #377 ) ) ;
#179 = DIRECTION ( 'NONE',  ( -1.000000000000000000, 0.000000000000000000, 0.000000000000000000 ) ) ;
#180 = CARTESIAN_POINT ( 'NONE',  ( 0.000000000000000000, 0.000000000000000000, 7.000000000000000000 ) ) ;
#181 = EDGE_CURVE ( 'NONE', #365, #64, #1, .T. ) ;
#182 = LOCAL_TIME ( 16, 54, 37.00000000000000000, #284 ) ;
#183 = ORIENTED_EDGE ( 'NONE', *, *, #246, .T. ) ;
#184 = AXIS2_PLACEMENT_3D ( 'NONE', #379, #292, #289 ) ;
#185 = FACE_OUTER_BOUND ( 'NONE', #212, .T. ) ;
#186 =( LENGTH_UNIT ( ) NAMED_UNIT ( * ) SI_UNIT ( .MILLI., .METRE. ) );
#187 = CARTESIAN_POINT ( 'NONE',  ( 0.000000000000000000, 0.000000000000000000, 7.000000000000000000 ) ) ;
#188 = CARTESIAN_POINT ( 'NONE',  ( -6.000000000000000888, 0.000000000000000000, 167.0000000000000000 ) ) ;
#189 = ORIENTED_EDGE ( 'NONE', *, *, #281, .T. ) ;
#190 = APPROVAL_PERSON_ORGANIZATION ( #105, #44, #192 ) ;
#191 = PERSON_AND_ORGANIZATION ( #332, #266 ) ;
#192 = APPROVAL_ROLE ( '' ) ;
#193 = CARTESIAN_POINT ( 'NONE',  ( 3.000000000000000444, 3.673940397442059868E-16, 0.000000000000000000 ) ) ;
#194 = TOROIDAL_SURFACE ( 'NONE', #11, 6.500000000000000888, 0.5000000000000000000 ) ;
#195 = AXIS2_PLACEMENT_3D ( 'NONE', #92, #305, #363 ) ;
#196 = PERSON_AND_ORGANIZATION_ROLE ( 'creator' ) ;
#197 = AXIS2_PLACEMENT_3D ( 'NONE', #218, #309, #63 ) ;
#198 = ORIENTED_EDGE ( 'NONE', *, *, #14, .F. ) ;
#199 = APPROVAL_DATE_TIME ( #83, #20 ) ;
#200 = ADVANCED_FACE ( 'NONE', ( #148 ), #232, .T. ) ;
#201 = EDGE_LOOP ( 'NONE', ( #183, #341 ) ) ;
#202 = CARTESIAN_POINT ( 'NONE',  ( 6.000000000000000888, 7.347880794884120722E-16, 7.500000000000007105 ) ) ;
#203 = CARTESIAN_POINT ( 'NONE',  ( -3.000000000000000444, 0.000000000000000000, 167.0000000000000000 ) ) ;
#204 = LINE ( 'NONE', #235, #251 ) ;
#205 = AXIS2_PLACEMENT_3D ( 'NONE', #346, #137, #27 ) ;
#206 = CARTESIAN_POINT ( 'NONE',  ( 10.00000000000000000, 1.224646799147353256E-15, 0.000000000000000000 ) ) ;
#207 = ORIENTED_EDGE ( 'NONE', *, *, #128, .T. ) ;
#208 = DIRECTION ( 'NONE',  ( 0.000000000000000000, 0.000000000000000000, 1.000000000000000000 ) ) ;
#209 = ADVANCED_FACE ( 'NONE', ( #234 ), #60, .T. ) ;
#210 = DIRECTION ( 'NONE',  ( 0.000000000000000000, 0.000000000000000000, 1.000000000000000000 ) ) ;
#211 = CARTESIAN_POINT ( 'NONE',  ( 0.000000000000000000, 0.000000000000000000, 0.000000000000000000 ) ) ;
#212 = EDGE_LOOP ( 'NONE', ( #280, #130, #158, #189 ) ) ;
#213 = CIRCLE ( 'NONE', #197, 6.000000000000000888 ) ;
#214 = DIRECTION ( 'NONE',  ( -1.000000000000000000, 0.000000000000000000, 0.000000000000000000 ) ) ;
#215 = VERTEX_POINT ( 'NONE', #320 ) ;
#216 = ADVANCED_FACE ( 'NONE', ( #55 ), #321, .T. ) ;
#217 = ORIENTED_EDGE ( 'NONE', *, *, #41, .F. ) ;
#218 = CARTESIAN_POINT ( 'NONE',  ( 0.000000000000000000, 0.000000000000000000, 7.500000000000007105 ) ) ;
#219 = ORIENTED_EDGE ( 'NONE', *, *, #138, .T. ) ;
#220 = AXIS2_PLACEMENT_3D ( 'NONE', #155, #132, #214 ) ;
#221 = ORIENTED_EDGE ( 'NONE', *, *, #128, .F. ) ;
#222 = APPROVAL_DATE_TIME ( #21, #44 ) ;
#223 = EDGE_LOOP ( 'NONE', ( #80, #47, #207, #324 ) ) ;
#224 = CC_DESIGN_PERSON_AND_ORGANIZATION_ASSIGNMENT ( #79, #78, ( #24 ) ) ;
#225 = APPROVAL_STATUS ( 'not_yet_approved' ) ;
#226 = CIRCLE ( 'NONE', #322, 3.000000000000000444 ) ;
#227 = AXIS2_PLACEMENT_3D ( 'NONE', #368, #328, #274 ) ;
#228 = EDGE_LOOP ( 'NONE', ( #34, #217 ) ) ;
#229 = EDGE_CURVE ( 'NONE', #97, #40, #146, .T. ) ;
#230 = ORIENTED_EDGE ( 'NONE', *, *, #119, .F. ) ;
#231 = CIRCLE ( 'NONE', #16, 0.5000000000000004441 ) ;
#232 = CYLINDRICAL_SURFACE ( 'NONE', #166, 6.000000000000000888 ) ;
#233 = AXIS2_PLACEMENT_3D ( 'NONE', #247, #330, #159 ) ;
#234 = FACE_OUTER_BOUND ( 'NONE', #90, .T. ) ;
#235 = CARTESIAN_POINT ( 'NONE',  ( -10.00000000000000000, 0.000000000000000000, 7.000000000000000000 ) ) ;
#236 = AXIS2_PLACEMENT_3D ( 'NONE', #277, #69, #95 ) ;
#237 = DIRECTION ( 'NONE',  ( 0.000000000000000000, 0.000000000000000000, 1.000000000000000000 ) ) ;
#238 =( NAMED_UNIT ( * ) PLANE_ANGLE_UNIT ( ) SI_UNIT ( $, .RADIAN. ) );
#239 = EDGE_LOOP ( 'NONE', ( #72, #167 ) ) ;
#240 = VECTOR ( 'NONE', #86, 1000.000000000000000 ) ;
#241 = CARTESIAN_POINT ( 'NONE',  ( 6.500000000000000888, 0.000000000000000000, 7.500000000000007105 ) ) ;
#242 = ORIENTED_EDGE ( 'NONE', *, *, #288, .F. ) ;
#243 = ADVANCED_FACE ( 'NONE', ( #120, #33 ), #150, .T. ) ;
#244 = DIRECTION ( 'NONE',  ( 0.000000000000000000, 0.000000000000000000, -1.000000000000000000 ) ) ;
#245 = ORIENTED_EDGE ( 'NONE', *, *, #35, .T. ) ;
#246 = EDGE_CURVE ( 'NONE', #373, #365, #376, .T. ) ;
#247 = CARTESIAN_POINT ( 'NONE',  ( 0.000000000000000000, 0.000000000000000000, 0.000000000000000000 ) ) ;
#248 = VERTEX_POINT ( 'NONE', #129 ) ;
#249 = DIRECTION ( 'NONE',  ( 0.000000000000000000, 0.000000000000000000, 1.000000000000000000 ) ) ;
#250 = PRODUCT_DEFINITION_SHAPE ( 'NONE', 'NONE',  #111 ) ;
#251 = VECTOR ( 'NONE', #91, 1000.000000000000000 ) ;
#252 = ORIENTED_EDGE ( 'NONE', *, *, #302, .F. ) ;
#253 = DATE_AND_TIME ( #17, #104 ) ;
#254 = EDGE_LOOP ( 'NONE', ( #93, #285, #336, #359 ) ) ;
#255 = EDGE_CURVE ( 'NONE', #40, #97, #296, .T. ) ;
#256 = PERSON_AND_ORGANIZATION ( #332, #266 ) ;
#257 = VERTEX_POINT ( 'NONE', #358 ) ;
#258 = DATE_AND_TIME ( #19, #174 ) ;
#259 = CARTESIAN_POINT ( 'NONE',  ( 0.000000000000000000, 0.000000000000000000, 0.000000000000000000 ) ) ;
#260 = VECTOR ( 'NONE', #301, 1000.000000000000000 ) ;
#261 = CARTESIAN_POINT ( 'NONE',  ( 0.000000000000000000, 0.000000000000000000, 167.0000000000000000 ) ) ;
#262 = APPROVAL_STATUS ( 'not_yet_approved' ) ;
#263 = EDGE_LOOP ( 'NONE', ( #312, #369, #354, #335 ) ) ;
#264 = FACE_OUTER_BOUND ( 'NONE', #223, .T. ) ;
#265 = AXIS2_PLACEMENT_3D ( 'NONE', #271, #237, #6 ) ;
#266 = ORGANIZATION ( 'NEURÈENÝ', 'NEURÈENÝ', '' ) ;
#267 = ADVANCED_BREP_SHAPE_REPRESENTATION ( '6dd6', ( #117, #338 ), #154 ) ;
#268 = DIRECTION ( 'NONE',  ( 1.000000000000000000, 0.000000000000000000, 0.000000000000000000 ) ) ;
#269 = CC_DESIGN_PERSON_AND_ORGANIZATION_ASSIGNMENT ( #344, #196, ( #111 ) ) ;
#270 = CARTESIAN_POINT ( 'NONE',  ( 0.000000000000000000, 0.000000000000000000, 7.000000000000000000 ) ) ;
#271 = CARTESIAN_POINT ( 'NONE',  ( 0.000000000000000000, 0.000000000000000000, 7.000000000000000000 ) ) ;
#272 = DIRECTION ( 'NONE',  ( -0.000000000000000000, -0.000000000000000000, -1.000000000000000000 ) ) ;
#273 = ORIENTED_EDGE ( 'NONE', *, *, #41, .T. ) ;
#274 = DIRECTION ( 'NONE',  ( -1.000000000000000000, 0.000000000000000000, 0.000000000000000000 ) ) ;
#275 = EDGE_LOOP ( 'NONE', ( #278, #331, #298, #308 ) ) ;
#276 = TOROIDAL_SURFACE ( 'NONE', #184, 6.500000000000000888, 0.5000000000000000000 ) ;
#277 = CARTESIAN_POINT ( 'NONE',  ( 0.000000000000000000, 0.000000000000000000, 167.0000000000000000 ) ) ;
#278 = ORIENTED_EDGE ( 'NONE', *, *, #138, .F. ) ;
#279 = EDGE_CURVE ( 'NONE', #373, #215, #45, .T. ) ;
#280 = ORIENTED_EDGE ( 'NONE', *, *, #163, .F. ) ;
#281 = EDGE_CURVE ( 'NONE', #283, #43, #226, .T. ) ;
#282 = FACE_BOUND ( 'NONE', #228, .T. ) ;
#283 = VERTEX_POINT ( 'NONE', #337 ) ;
#284 = COORDINATED_UNIVERSAL_TIME_OFFSET ( 1, 0, .AHEAD. ) ;
#285 = ORIENTED_EDGE ( 'NONE', *, *, #246, .F. ) ;
#286 = UNCERTAINTY_MEASURE_WITH_UNIT (LENGTH_MEASURE( 1.000000000000000082E-05 ), #186, 'distance_accuracy_value', 'NONE');
#287 = CARTESIAN_POINT ( 'NONE',  ( 0.000000000000000000, 0.000000000000000000, 7.000000000000000000 ) ) ;
#288 = EDGE_CURVE ( 'NONE', #127, #10, #161, .T. ) ;
#289 = DIRECTION ( 'NONE',  ( 1.000000000000000000, 0.000000000000000000, 0.000000000000000000 ) ) ;
#290 = VECTOR ( 'NONE', #114, 1000.000000000000000 ) ;
#291 = APPROVAL_PERSON_ORGANIZATION ( #256, #71, #378 ) ;
#292 = DIRECTION ( 'NONE',  ( 0.000000000000000000, 0.000000000000000000, 1.000000000000000000 ) ) ;
#293 = DIRECTION ( 'NONE',  ( 1.000000000000000000, 0.000000000000000000, 0.000000000000000000 ) ) ;
#294 = CC_DESIGN_DATE_AND_TIME_ASSIGNMENT ( #253, #23, ( #326 ) ) ;
#295 = FACE_OUTER_BOUND ( 'NONE', #275, .T. ) ;
#296 = CIRCLE ( 'NONE', #125, 6.500000000000000888 ) ;
#297 = CARTESIAN_POINT ( 'NONE',  ( 0.000000000000000000, 0.000000000000000000, 7.000000000000000000 ) ) ;
#298 = ORIENTED_EDGE ( 'NONE', *, *, #315, .T. ) ;
#299 = PRODUCT_DEFINITION_FORMATION_WITH_SPECIFIED_SOURCE ( 'LIBOVOLNÝ', '', #24, .NOT_KNOWN. ) ;
#300 = DIRECTION ( 'NONE',  ( -1.000000000000000000, 1.224646799147351482E-16, 0.000000000000000000 ) ) ;
#301 = DIRECTION ( 'NONE',  ( 0.000000000000000000, 0.000000000000000000, -1.000000000000000000 ) ) ;
#302 = EDGE_CURVE ( 'NONE', #215, #64, #213, .T. ) ;
#303 = AXIS2_PLACEMENT_3D ( 'NONE', #297, #32, #87 ) ;
#304 = CARTESIAN_POINT ( 'NONE',  ( 0.000000000000000000, 0.000000000000000000, 167.0000000000000000 ) ) ;
#305 = DIRECTION ( 'NONE',  ( 0.000000000000000000, 0.000000000000000000, 1.000000000000000000 ) ) ;
#306 = FACE_OUTER_BOUND ( 'NONE', #133, .T. ) ;
#307 = AXIS2_PLACEMENT_3D ( 'NONE', #169, #110, #22 ) ;
#308 = ORIENTED_EDGE ( 'NONE', *, *, #229, .F. ) ;
#309 = DIRECTION ( 'NONE',  ( 0.000000000000000000, 0.000000000000000000, 1.000000000000000000 ) ) ;
#310 = ORIENTED_EDGE ( 'NONE', *, *, #255, .F. ) ;
#311 = PERSON_AND_ORGANIZATION_ROLE ( 'creator' ) ;
#312 = ORIENTED_EDGE ( 'NONE', *, *, #333, .F. ) ;
#313 = AXIS2_PLACEMENT_3D ( 'NONE', #30, #57, #179 ) ;
#314 = APPROVAL_ROLE ( '' ) ;
#315 = EDGE_CURVE ( 'NONE', #64, #40, #7, .T. ) ;
#316 = CARTESIAN_POINT ( 'NONE',  ( 6.500000000000000888, 0.000000000000000000, 7.000000000000002665 ) ) ;
#317 = CARTESIAN_POINT ( 'NONE',  ( 0.000000000000000000, 0.000000000000000000, 0.000000000000000000 ) ) ;
#318 = AXIS2_PLACEMENT_3D ( 'NONE', #261, #210, #293 ) ;
#319 = FACE_OUTER_BOUND ( 'NONE', #201, .T. ) ;
#320 = CARTESIAN_POINT ( 'NONE',  ( -6.000000000000000888, 0.000000000000000000, 7.500000000000007105 ) ) ;
#321 = CYLINDRICAL_SURFACE ( 'NONE', #313, 6.000000000000000888 ) ;
#322 = AXIS2_PLACEMENT_3D ( 'NONE', #211, #364, #36 ) ;
#323 = DIRECTION ( 'NONE',  ( 1.224646799147353207E-16, 1.000000000000000000, -0.000000000000000000 ) ) ;
#324 = ORIENTED_EDGE ( 'NONE', *, *, #14, .T. ) ;
#325 = CARTESIAN_POINT ( 'NONE',  ( 10.00000000000000000, 1.224646799147353256E-15, 7.000000000000000000 ) ) ;
#326 = SECURITY_CLASSIFICATION ( '', '', #50 ) ;
#327 = EDGE_LOOP ( 'NONE', ( #198, #242 ) ) ;
#328 = DIRECTION ( 'NONE',  ( 0.000000000000000000, 0.000000000000000000, -1.000000000000000000 ) ) ;
#329 = AXIS2_PLACEMENT_3D ( 'NONE', #102, #25, #140 ) ;
#330 = DIRECTION ( 'NONE',  ( 0.000000000000000000, 0.000000000000000000, 1.000000000000000000 ) ) ;
#331 = ORIENTED_EDGE ( 'NONE', *, *, #143, .F. ) ;
#332 = PERSON ( 'NEURÈENÝ', 'NEURÈENÝ', 'NEURÈENÝ', ('NEURÈENÝ'), ('NEURÈENÝ'), ('NEURÈENÝ') ) ;
#333 = EDGE_CURVE ( 'NONE', #365, #373, #94, .T. ) ;
#334 = FACE_OUTER_BOUND ( 'NONE', #327, .T. ) ;
#335 = ORIENTED_EDGE ( 'NONE', *, *, #279, .F. ) ;
#336 = ORIENTED_EDGE ( 'NONE', *, *, #279, .T. ) ;
#337 = CARTESIAN_POINT ( 'NONE',  ( -3.000000000000000444, 0.000000000000000000, 0.000000000000000000 ) ) ;
#338 = AXIS2_PLACEMENT_3D ( 'NONE', #317, #345, #81 ) ;
#339 = VERTEX_POINT ( 'NONE', #67 ) ;
#340 = APPLICATION_PROTOCOL_DEFINITION ( 'international standard', 'config_control_design', 1994, #107 ) ;
#341 = ORIENTED_EDGE ( 'NONE', *, *, #333, .T. ) ;
#342 = APPLICATION_PROTOCOL_DEFINITION ( 'international standard', 'config_control_design', 1994, #115 ) ;
#343 = CARTESIAN_POINT ( 'NONE',  ( -6.500000000000000888, 7.960204194457796463E-16, 7.000000000000002665 ) ) ;
#344 = PERSON_AND_ORGANIZATION ( #332, #266 ) ;
#345 = DIRECTION ( 'NONE',  ( 0.000000000000000000, 0.000000000000000000, 1.000000000000000000 ) ) ;
#346 = CARTESIAN_POINT ( 'NONE',  ( 0.000000000000000000, 0.000000000000000000, 0.000000000000000000 ) ) ;
#347 = COORDINATED_UNIVERSAL_TIME_OFFSET ( 1, 0, .AHEAD. ) ;
#348 = EDGE_CURVE ( 'NONE', #339, #162, #362, .T. ) ;
#349 = AXIS2_PLACEMENT_3D ( 'NONE', #180, #153, #351 ) ;
#350 = CC_DESIGN_DATE_AND_TIME_ASSIGNMENT ( #136, #75, ( #111 ) ) ;
#351 = DIRECTION ( 'NONE',  ( -1.000000000000000000, 0.000000000000000000, 0.000000000000000000 ) ) ;
#352 = DIRECTION ( 'NONE',  ( -1.000000000000000000, 0.000000000000000000, 0.000000000000000000 ) ) ;
#353 = CARTESIAN_POINT ( 'NONE',  ( 10.00000000000000000, 1.224646799147353256E-15, 7.000000000000000000 ) ) ;
#354 = ORIENTED_EDGE ( 'NONE', *, *, #143, .T. ) ;
#355 = CARTESIAN_POINT ( 'NONE',  ( 0.000000000000000000, 0.000000000000000000, 7.500000000000007105 ) ) ;
#356 = LINE ( 'NONE', #203, #260 ) ;
#357 = ADVANCED_FACE ( 'NONE', ( #282, #334 ), #15, .F. ) ;
#358 = CARTESIAN_POINT ( 'NONE',  ( -3.000000000000000444, 0.000000000000000000, 167.0000000000000000 ) ) ;
#359 = ORIENTED_EDGE ( 'NONE', *, *, #302, .T. ) ;
#360 = ADVANCED_FACE ( 'NONE', ( #306 ), #9, .F. ) ;
#361 = CIRCLE ( 'NONE', #205, 10.00000000000000000 ) ;
#362 = CIRCLE ( 'NONE', #121, 10.00000000000000000 ) ;
#363 = DIRECTION ( 'NONE',  ( 1.000000000000000000, 0.000000000000000000, -0.000000000000000000 ) ) ;
#364 = DIRECTION ( 'NONE',  ( -0.000000000000000000, -0.000000000000000000, -1.000000000000000000 ) ) ;
#365 = VERTEX_POINT ( 'NONE', #39 ) ;
#366 = CARTESIAN_POINT ( 'NONE',  ( 0.000000000000000000, 0.000000000000000000, 7.000000000000000000 ) ) ;
#367 = ORIENTED_EDGE ( 'NONE', *, *, #144, .T. ) ;
#368 = CARTESIAN_POINT ( 'NONE',  ( 0.000000000000000000, 0.000000000000000000, 167.0000000000000000 ) ) ;
#369 = ORIENTED_EDGE ( 'NONE', *, *, #181, .T. ) ;
#370 = CALENDAR_DATE ( 2022, 8, 7 ) ;
#371 = CARTESIAN_POINT ( 'NONE',  ( -10.00000000000000000, 0.000000000000000000, 0.000000000000000000 ) ) ;
#372 = SHAPE_DEFINITION_REPRESENTATION ( #250, #267 ) ;
#373 = VERTEX_POINT ( 'NONE', #100 ) ;
#374 = VECTOR ( 'NONE', #98, 1000.000000000000000 ) ;
#375 = CALENDAR_DATE ( 2022, 8, 7 ) ;
#376 = CIRCLE ( 'NONE', #58, 6.000000000000000888 ) ;
#377 = ADVANCED_FACE ( 'NONE', ( #185 ), #156, .F. ) ;
#378 = APPROVAL_ROLE ( '' ) ;
#379 = CARTESIAN_POINT ( 'NONE',  ( 0.000000000000000000, 0.000000000000000000, 7.500000000000007105 ) ) ;
#380 = CARTESIAN_POINT ( 'NONE',  ( 3.000000000000000444, 3.673940397442059868E-16, 167.0000000000000000 ) ) ;
#381 = ORIENTED_EDGE ( 'NONE', *, *, #35, .F. ) ;
ENDSEC;
END-ISO-10303-21;
