ISO-10303-21;
HEADER;
FILE_DESCRIPTION (( 'STEP AP203' ),
    '1' );
FILE_NAME ('c43f.STEP',
    '2022-07-08T14:23:27',
    ( '' ),
    ( '' ),
    'SwSTEP 2.0',
    'SolidWorks 2019',
    '' );
FILE_SCHEMA (( 'CONFIG_CONTROL_DESIGN' ));
ENDSEC;

DATA;
#1 = ORIENTED_EDGE ( 'NONE', *, *, #37, .F. ) ;
#2 = DIRECTION ( 'NONE',  ( 1.000000000000000000, 0.000000000000000000, 0.000000000000000000 ) ) ;
#3 = ORIENTED_EDGE ( 'NONE', *, *, #8, .F. ) ;
#4 = CIRCLE ( 'NONE', #134, 7.700000000000001066 ) ;
#5 = LOCAL_TIME ( 16, 23, 27.00000000000000000, #110 ) ;
#6 = CARTESIAN_POINT ( 'NONE',  ( -5.000000000000000000, 0.000000000000000000, 232.0000000000000000 ) ) ;
#7 = DIRECTION ( 'NONE',  ( -1.000000000000000000, 0.000000000000000000, 0.000000000000000000 ) ) ;
#8 = EDGE_CURVE ( 'NONE', #208, #91, #155, .T. ) ;
#9 = AXIS2_PLACEMENT_3D ( 'NONE', #10, #129, #101 ) ;
#10 = CARTESIAN_POINT ( 'NONE',  ( 0.000000000000000000, 0.000000000000000000, 7.700000000000012612 ) ) ;
#11 = APPROVAL_DATE_TIME ( #163, #356 ) ;
#12 = DIRECTION ( 'NONE',  ( 1.000000000000000000, 0.000000000000000000, 0.000000000000000000 ) ) ;
#13 = CC_DESIGN_PERSON_AND_ORGANIZATION_ASSIGNMENT ( #165, #367, ( #173 ) ) ;
#14 = DIRECTION ( 'NONE',  ( -0.000000000000000000, -0.000000000000000000, -1.000000000000000000 ) ) ;
#15 = APPROVAL_STATUS ( 'not_yet_approved' ) ;
#16 = AXIS2_PLACEMENT_3D ( 'NONE', #330, #18, #332 ) ;
#17 = ORGANIZATION ( 'NEURÈENÝ', 'NEURÈENÝ', '' ) ;
#18 = DIRECTION ( 'NONE',  ( 0.000000000000000000, 0.000000000000000000, 1.000000000000000000 ) ) ;
#19 = APPLICATION_PROTOCOL_DEFINITION ( 'international standard', 'config_control_design', 1994, #137 ) ;
#20 = DIRECTION ( 'NONE',  ( 0.000000000000000000, 0.000000000000000000, 1.000000000000000000 ) ) ;
#21 = VERTEX_POINT ( 'NONE', #151 ) ;
#22 = FACE_OUTER_BOUND ( 'NONE', #224, .T. ) ;
#23 = ADVANCED_FACE ( 'NONE', ( #153 ), #182, .T. ) ;
#24 = EDGE_LOOP ( 'NONE', ( #196, #312, #345, #347 ) ) ;
#25 = TOROIDAL_SURFACE ( 'NONE', #72, 7.700000000000001066, 0.6999999999999999556 ) ;
#26 = ORIENTED_EDGE ( 'NONE', *, *, #203, .F. ) ;
#27 = CC_DESIGN_DATE_AND_TIME_ASSIGNMENT ( #331, #251, ( #218 ) ) ;
#28 = VERTEX_POINT ( 'NONE', #98 ) ;
#29 = ORIENTED_EDGE ( 'NONE', *, *, #42, .F. ) ;
#30 = EDGE_LOOP ( 'NONE', ( #318, #380, #286, #288 ) ) ;
#31 = APPLICATION_CONTEXT ( 'configuration controlled 3d designs of mechanical parts and assemblies' ) ;
#32 = CARTESIAN_POINT ( 'NONE',  ( 0.000000000000000000, 0.000000000000000000, 232.0000000000000000 ) ) ;
#33 = CARTESIAN_POINT ( 'NONE',  ( 0.000000000000000000, 0.000000000000000000, 7.000000000000000000 ) ) ;
#34 = ORIENTED_EDGE ( 'NONE', *, *, #63, .T. ) ;
#35 = AXIS2_PLACEMENT_3D ( 'NONE', #207, #267, #92 ) ;
#36 = PLANE ( 'NONE',  #300 ) ;
#37 = EDGE_CURVE ( 'NONE', #145, #64, #215, .T. ) ;
#38 = CYLINDRICAL_SURFACE ( 'NONE', #47, 5.000000000000000000 ) ;
#39 = DIRECTION ( 'NONE',  ( 1.000000000000000000, 0.000000000000000000, 0.000000000000000000 ) ) ;
#40 = PERSON_AND_ORGANIZATION_ROLE ( 'creator' ) ;
#41 = DIRECTION ( 'NONE',  ( 0.000000000000000000, 0.000000000000000000, -1.000000000000000000 ) ) ;
#42 = EDGE_CURVE ( 'NONE', #58, #208, #289, .T. ) ;
#43 = APPROVAL_DATE_TIME ( #192, #364 ) ;
#44 = DIRECTION ( 'NONE',  ( 0.000000000000000000, 0.000000000000000000, 1.000000000000000000 ) ) ;
#45 = APPROVAL_ROLE ( '' ) ;
#46 = CARTESIAN_POINT ( 'NONE',  ( 11.00000000000000000, 1.347111479062088405E-15, 0.000000000000000000 ) ) ;
#47 = AXIS2_PLACEMENT_3D ( 'NONE', #214, #298, #335 ) ;
#48 = AXIS2_PLACEMENT_3D ( 'NONE', #221, #198, #113 ) ;
#49 = DIRECTION ( 'NONE',  ( -0.000000000000000000, -0.000000000000000000, -1.000000000000000000 ) ) ;
#50 = APPLICATION_PROTOCOL_DEFINITION ( 'international standard', 'config_control_design', 1994, #31 ) ;
#51 = EDGE_CURVE ( 'NONE', #148, #228, #294, .T. ) ;
#52 = DIRECTION ( 'NONE',  ( -0.000000000000000000, -0.000000000000000000, -1.000000000000000000 ) ) ;
#53 = ORIENTED_EDGE ( 'NONE', *, *, #51, .F. ) ;
#54 = EDGE_LOOP ( 'NONE', ( #296, #56, #350, #26 ) ) ;
#55 = LOCAL_TIME ( 16, 23, 27.00000000000000000, #112 ) ;
#56 = ORIENTED_EDGE ( 'NONE', *, *, #8, .T. ) ;
#57 = EDGE_CURVE ( 'NONE', #28, #21, #106, .T. ) ;
#58 = VERTEX_POINT ( 'NONE', #6 ) ;
#59 = DIRECTION ( 'NONE',  ( 1.000000000000000000, 0.000000000000000000, 0.000000000000000000 ) ) ;
#60 = VECTOR ( 'NONE', #109, 1000.000000000000000 ) ;
#61 = EDGE_LOOP ( 'NONE', ( #287, #172, #199, #174 ) ) ;
#62 = VECTOR ( 'NONE', #49, 1000.000000000000000 ) ;
#63 = EDGE_CURVE ( 'NONE', #64, #145, #4, .T. ) ;
#64 = VERTEX_POINT ( 'NONE', #211 ) ;
#65 = CARTESIAN_POINT ( 'NONE',  ( 0.000000000000000000, 0.000000000000000000, 7.000000000000000000 ) ) ;
#66 = CYLINDRICAL_SURFACE ( 'NONE', #149, 11.00000000000000000 ) ;
#67 = AXIS2_PLACEMENT_3D ( 'NONE', #209, #152, #263 ) ;
#68 = EDGE_CURVE ( 'NONE', #21, #28, #164, .T. ) ;
#69 = CARTESIAN_POINT ( 'NONE',  ( 7.700000000000001066, 0.000000000000000000, 7.700000000000012612 ) ) ;
#70 = DIRECTION ( 'NONE',  ( 1.224646799147353207E-16, 1.000000000000000000, -0.000000000000000000 ) ) ;
#71 = DIRECTION ( 'NONE',  ( -1.000000000000000000, 1.224646799147351975E-16, 0.000000000000000000 ) ) ;
#72 = AXIS2_PLACEMENT_3D ( 'NONE', #220, #337, #77 ) ;
#73 = COORDINATED_UNIVERSAL_TIME_OFFSET ( 1, 0, .AHEAD. ) ;
#74 = ADVANCED_FACE ( 'NONE', ( #357 ), #66, .T. ) ;
#75 = FACE_OUTER_BOUND ( 'NONE', #358, .T. ) ;
#76 = PERSON_AND_ORGANIZATION ( #138, #17 ) ;
#77 = DIRECTION ( 'NONE',  ( 1.000000000000000000, 0.000000000000000000, 0.000000000000000000 ) ) ;
#78 = CALENDAR_DATE ( 2022, 8, 7 ) ;
#79 = CARTESIAN_POINT ( 'NONE',  ( -5.000000000000000000, 0.000000000000000000, 0.000000000000000000 ) ) ;
#80 = APPROVAL_ROLE ( '' ) ;
#81 = ADVANCED_FACE ( 'NONE', ( #183, #232 ), #36, .T. ) ;
#82 = CIRCLE ( 'NONE', #210, 11.00000000000000000 ) ;
#83 = CC_DESIGN_APPROVAL ( #356, ( #104 ) ) ;
#84 = LINE ( 'NONE', #223, #135 ) ;
#85 = ORIENTED_EDGE ( 'NONE', *, *, #203, .T. ) ;
#86 = DIRECTION ( 'NONE',  ( -1.000000000000000000, 0.000000000000000000, 0.000000000000000000 ) ) ;
#87 = ORIENTED_EDGE ( 'NONE', *, *, #179, .F. ) ;
#88 = APPROVAL ( #375, 'NEURÈENÝ' ) ;
#89 = ORIENTED_EDGE ( 'NONE', *, *, #338, .F. ) ;
#90 = EDGE_LOOP ( 'NONE', ( #34, #169 ) ) ;
#91 = VERTEX_POINT ( 'NONE', #156 ) ;
#92 = DIRECTION ( 'NONE',  ( -1.000000000000000000, 0.000000000000000000, 0.000000000000000000 ) ) ;
#93 = ADVANCED_FACE ( 'NONE', ( #128, #231 ), #293, .T. ) ;
#94 = AXIS2_PLACEMENT_3D ( 'NONE', #235, #238, #59 ) ;
#95 = EDGE_LOOP ( 'NONE', ( #283, #258 ) ) ;
#96 = CC_DESIGN_SECURITY_CLASSIFICATION ( #218, ( #173 ) ) ;
#97 = ORIENTED_EDGE ( 'NONE', *, *, #225, .T. ) ;
#98 = CARTESIAN_POINT ( 'NONE',  ( 11.00000000000000000, 1.347111479062088405E-15, 7.000000000000000000 ) ) ;
#99 = CARTESIAN_POINT ( 'NONE',  ( 0.000000000000000000, 0.000000000000000000, 7.000000000000000000 ) ) ;
#100 = CIRCLE ( 'NONE', #276, 7.000000000000000888 ) ;
#101 = DIRECTION ( 'NONE',  ( 1.000000000000000000, 0.000000000000000000, 0.000000000000000000 ) ) ;
#102 = LINE ( 'NONE', #241, #130 ) ;
#103 = PERSON_AND_ORGANIZATION_ROLE ( 'classification_officer' ) ;
#104 = PRODUCT_DEFINITION ( 'NEZNÁMÝ', '', #173, #181 ) ;
#105 = DIRECTION ( 'NONE',  ( 0.000000000000000000, 0.000000000000000000, -1.000000000000000000 ) ) ;
#106 = CIRCLE ( 'NONE', #67, 11.00000000000000000 ) ;
#107 = CC_DESIGN_APPROVAL ( #364, ( #218 ) ) ;
#108 = CARTESIAN_POINT ( 'NONE',  ( 0.000000000000000000, 0.000000000000000000, 0.000000000000000000 ) ) ;
#109 = DIRECTION ( 'NONE',  ( -0.000000000000000000, -0.000000000000000000, -1.000000000000000000 ) ) ;
#110 = COORDINATED_UNIVERSAL_TIME_OFFSET ( 1, 0, .AHEAD. ) ;
#111 = FACE_OUTER_BOUND ( 'NONE', #117, .T. ) ;
#112 = COORDINATED_UNIVERSAL_TIME_OFFSET ( 1, 0, .AHEAD. ) ;
#113 = DIRECTION ( 'NONE',  ( 1.000000000000000000, 0.000000000000000000, 0.000000000000000000 ) ) ;
#114 = ORIENTED_EDGE ( 'NONE', *, *, #237, .T. ) ;
#115 = AXIS2_PLACEMENT_3D ( 'NONE', #131, #242, #216 ) ;
#116 = DIRECTION ( 'NONE',  ( 0.000000000000000000, 0.000000000000000000, -1.000000000000000000 ) ) ;
#117 = EDGE_LOOP ( 'NONE', ( #120, #359, #379, #259 ) ) ;
#118 = ORIENTED_EDGE ( 'NONE', *, *, #63, .F. ) ;
#119 = VERTEX_POINT ( 'NONE', #46 ) ;
#120 = ORIENTED_EDGE ( 'NONE', *, *, #362, .F. ) ;
#121 = EDGE_CURVE ( 'NONE', #200, #119, #82, .T. ) ;
#122 = DIRECTION ( 'NONE',  ( -0.000000000000000000, -0.000000000000000000, -1.000000000000000000 ) ) ;
#123 = AXIS2_PLACEMENT_3D ( 'NONE', #193, #44, #305 ) ;
#124 = ORIENTED_EDGE ( 'NONE', *, *, #290, .F. ) ;
#125 = LOCAL_TIME ( 16, 23, 27.00000000000000000, #255 ) ;
#126 = CC_DESIGN_DATE_AND_TIME_ASSIGNMENT ( #213, #333, ( #104 ) ) ;
#127 = DIRECTION ( 'NONE',  ( 1.000000000000000000, 0.000000000000000000, 0.000000000000000000 ) ) ;
#128 = FACE_BOUND ( 'NONE', #147, .T. ) ;
#129 = DIRECTION ( 'NONE',  ( 0.000000000000000000, 0.000000000000000000, 1.000000000000000000 ) ) ;
#130 = VECTOR ( 'NONE', #41, 1000.000000000000000 ) ;
#131 = CARTESIAN_POINT ( 'NONE',  ( 0.000000000000000000, 0.000000000000000000, 232.0000000000000000 ) ) ;
#132 = DATE_AND_TIME ( #303, #125 ) ;
#133 = CARTESIAN_POINT ( 'NONE',  ( 7.000000000000000888, 8.572527594031474176E-16, 7.700000000000012612 ) ) ;
#134 = AXIS2_PLACEMENT_3D ( 'NONE', #99, #323, #2 ) ;
#135 = VECTOR ( 'NONE', #52, 1000.000000000000000 ) ;
#136 = DIRECTION ( 'NONE',  ( 1.000000000000000000, 0.000000000000000000, 0.000000000000000000 ) ) ;
#137 = APPLICATION_CONTEXT ( 'configuration controlled 3d designs of mechanical parts and assemblies' ) ;
#138 = PERSON ( 'NEURÈENÝ', 'NEURÈENÝ', 'NEURÈENÝ', ('NEURÈENÝ'), ('NEURÈENÝ'), ('NEURÈENÝ') ) ;
#139 = CARTESIAN_POINT ( 'NONE',  ( -7.000000000000000888, 0.000000000000000000, 232.0000000000000000 ) ) ;
#140 = ORIENTED_EDGE ( 'NONE', *, *, #171, .F. ) ;
#141 = APPROVAL_DATE_TIME ( #132, #88 ) ;
#142 = CARTESIAN_POINT ( 'NONE',  ( 0.000000000000000000, 0.000000000000000000, 232.0000000000000000 ) ) ;
#143 = ORIENTED_EDGE ( 'NONE', *, *, #290, .T. ) ;
#144 = CIRCLE ( 'NONE', #334, 5.000000000000000000 ) ;
#145 = VERTEX_POINT ( 'NONE', #274 ) ;
#146 = EDGE_CURVE ( 'NONE', #21, #200, #244, .T. ) ;
#147 = EDGE_LOOP ( 'NONE', ( #29, #124 ) ) ;
#148 = VERTEX_POINT ( 'NONE', #162 ) ;
#149 = AXIS2_PLACEMENT_3D ( 'NONE', #33, #122, #7 ) ;
#150 = APPROVAL_PERSON_ORGANIZATION ( #76, #364, #278 ) ;
#151 = CARTESIAN_POINT ( 'NONE',  ( -11.00000000000000000, 0.000000000000000000, 7.000000000000000000 ) ) ;
#152 = DIRECTION ( 'NONE',  ( 0.000000000000000000, 0.000000000000000000, 1.000000000000000000 ) ) ;
#153 = FACE_OUTER_BOUND ( 'NONE', #24, .T. ) ;
#154 = CIRCLE ( 'NONE', #48, 7.000000000000000888 ) ;
#155 = LINE ( 'NONE', #178, #159 ) ;
#156 = CARTESIAN_POINT ( 'NONE',  ( 5.000000000000000000, 6.123233995736765296E-16, 0.000000000000000000 ) ) ;
#157 = CARTESIAN_POINT ( 'NONE',  ( 5.000000000000000000, 6.123233995736765296E-16, 232.0000000000000000 ) ) ;
#158 = CARTESIAN_POINT ( 'NONE',  ( 0.000000000000000000, 0.000000000000000000, 232.0000000000000000 ) ) ;
#159 = VECTOR ( 'NONE', #291, 1000.000000000000000 ) ;
#160 = APPROVAL_PERSON_ORGANIZATION ( #188, #356, #45 ) ;
#161 = DIRECTION ( 'NONE',  ( 0.000000000000000000, 0.000000000000000000, 1.000000000000000000 ) ) ;
#162 = CARTESIAN_POINT ( 'NONE',  ( -7.000000000000000888, 0.000000000000000000, 7.700000000000012612 ) ) ;
#163 = DATE_AND_TIME ( #222, #327 ) ;
#164 = CIRCLE ( 'NONE', #351, 11.00000000000000000 ) ;
#165 = PERSON_AND_ORGANIZATION ( #138, #17 ) ;
#166 = CC_DESIGN_PERSON_AND_ORGANIZATION_ASSIGNMENT ( #219, #336, ( #173 ) ) ;
#167 =( LENGTH_UNIT ( ) NAMED_UNIT ( * ) SI_UNIT ( .MILLI., .METRE. ) );
#168 = CARTESIAN_POINT ( 'NONE',  ( 0.000000000000000000, 0.000000000000000000, 7.000000000000000000 ) ) ;
#169 = ORIENTED_EDGE ( 'NONE', *, *, #37, .T. ) ;
#170 = CYLINDRICAL_SURFACE ( 'NONE', #206, 11.00000000000000000 ) ;
#171 = EDGE_CURVE ( 'NONE', #91, #319, #271, .T. ) ;
#172 = ORIENTED_EDGE ( 'NONE', *, *, #68, .F. ) ;
#173 = PRODUCT_DEFINITION_FORMATION_WITH_SPECIFIED_SOURCE ( 'LIBOVOLNÝ', '', #329, .NOT_KNOWN. ) ;
#174 = ORIENTED_EDGE ( 'NONE', *, *, #121, .T. ) ;
#175 = EDGE_LOOP ( 'NONE', ( #97, #202 ) ) ;
#176 = EDGE_CURVE ( 'NONE', #228, #148, #234, .T. ) ;
#177 = CARTESIAN_POINT ( 'NONE',  ( 0.000000000000000000, 0.000000000000000000, 232.0000000000000000 ) ) ;
#178 = CARTESIAN_POINT ( 'NONE',  ( 5.000000000000000000, 6.123233995736765296E-16, 232.0000000000000000 ) ) ;
#179 = EDGE_CURVE ( 'NONE', #228, #64, #261, .T. ) ;
#180 = DIRECTION ( 'NONE',  ( 0.000000000000000000, 0.000000000000000000, 1.000000000000000000 ) ) ;
#181 = DESIGN_CONTEXT ( 'detailed design', #137, 'design' ) ;
#182 = CYLINDRICAL_SURFACE ( 'NONE', #35, 7.000000000000000888 ) ;
#183 = FACE_BOUND ( 'NONE', #90, .T. ) ;
#184 = CARTESIAN_POINT ( 'NONE',  ( -11.00000000000000000, 0.000000000000000000, 0.000000000000000000 ) ) ;
#185 = FACE_OUTER_BOUND ( 'NONE', #314, .T. ) ;
#186 = CARTESIAN_POINT ( 'NONE',  ( 7.000000000000000888, 8.572527594031474176E-16, 232.0000000000000000 ) ) ;
#187 = AXIS2_PLACEMENT_3D ( 'NONE', #363, #70, #71 ) ;
#188 = PERSON_AND_ORGANIZATION ( #138, #17 ) ;
#189 = PRODUCT_DEFINITION_SHAPE ( 'NONE', 'NONE',  #104 ) ;
#190 = CARTESIAN_POINT ( 'NONE',  ( 7.000000000000000888, 8.572527594031474176E-16, 232.0000000000000000 ) ) ;
#191 = CC_DESIGN_PERSON_AND_ORGANIZATION_ASSIGNMENT ( #372, #40, ( #104 ) ) ;
#192 = DATE_AND_TIME ( #306, #55 ) ;
#193 = CARTESIAN_POINT ( 'NONE',  ( 0.000000000000000000, 0.000000000000000000, 232.0000000000000000 ) ) ;
#194 = APPROVAL_STATUS ( 'not_yet_approved' ) ;
#195 = PLANE ( 'NONE',  #201 ) ;
#196 = ORIENTED_EDGE ( 'NONE', *, *, #264, .F. ) ;
#197 = ADVANCED_FACE ( 'NONE', ( #75 ), #38, .F. ) ;
#198 = DIRECTION ( 'NONE',  ( 0.000000000000000000, 0.000000000000000000, 1.000000000000000000 ) ) ;
#199 = ORIENTED_EDGE ( 'NONE', *, *, #146, .T. ) ;
#200 = VERTEX_POINT ( 'NONE', #184 ) ;
#201 = AXIS2_PLACEMENT_3D ( 'NONE', #256, #20, #376 ) ;
#202 = ORIENTED_EDGE ( 'NONE', *, *, #362, .T. ) ;
#203 = EDGE_CURVE ( 'NONE', #58, #319, #102, .T. ) ;
#204 = ORIENTED_EDGE ( 'NONE', *, *, #121, .F. ) ;
#205 = ORIENTED_EDGE ( 'NONE', *, *, #179, .T. ) ;
#206 = AXIS2_PLACEMENT_3D ( 'NONE', #168, #280, #346 ) ;
#207 = CARTESIAN_POINT ( 'NONE',  ( 0.000000000000000000, 0.000000000000000000, 232.0000000000000000 ) ) ;
#208 = VERTEX_POINT ( 'NONE', #157 ) ;
#209 = CARTESIAN_POINT ( 'NONE',  ( 0.000000000000000000, 0.000000000000000000, 7.000000000000000000 ) ) ;
#210 = AXIS2_PLACEMENT_3D ( 'NONE', #297, #369, #39 ) ;
#211 = CARTESIAN_POINT ( 'NONE',  ( 7.700000000000001066, 0.000000000000000000, 7.000000000000006217 ) ) ;
#212 = CYLINDRICAL_SURFACE ( 'NONE', #115, 7.000000000000000888 ) ;
#213 = DATE_AND_TIME ( #281, #5 ) ;
#214 = CARTESIAN_POINT ( 'NONE',  ( 0.000000000000000000, 0.000000000000000000, 232.0000000000000000 ) ) ;
#215 = CIRCLE ( 'NONE', #94, 7.700000000000001066 ) ;
#216 = DIRECTION ( 'NONE',  ( -1.000000000000000000, 0.000000000000000000, 0.000000000000000000 ) ) ;
#217 = VECTOR ( 'NONE', #14, 1000.000000000000000 ) ;
#218 = SECURITY_CLASSIFICATION ( '', '', #365 ) ;
#219 = PERSON_AND_ORGANIZATION ( #138, #17 ) ;
#220 = CARTESIAN_POINT ( 'NONE',  ( 0.000000000000000000, 0.000000000000000000, 7.700000000000012612 ) ) ;
#221 = CARTESIAN_POINT ( 'NONE',  ( 0.000000000000000000, 0.000000000000000000, 232.0000000000000000 ) ) ;
#222 = CALENDAR_DATE ( 2022, 8, 7 ) ;
#223 = CARTESIAN_POINT ( 'NONE',  ( 11.00000000000000000, 1.347111479062088405E-15, 7.000000000000000000 ) ) ;
#224 = EDGE_LOOP ( 'NONE', ( #204, #89 ) ) ;
#225 = EDGE_CURVE ( 'NONE', #227, #229, #100, .T. ) ;
#226 = FACE_OUTER_BOUND ( 'NONE', #54, .T. ) ;
#227 = VERTEX_POINT ( 'NONE', #270 ) ;
#228 = VERTEX_POINT ( 'NONE', #133 ) ;
#229 = VERTEX_POINT ( 'NONE', #186 ) ;
#230 = AXIS2_PLACEMENT_3D ( 'NONE', #69, #250, #105 ) ;
#231 = FACE_OUTER_BOUND ( 'NONE', #175, .T. ) ;
#232 = FACE_OUTER_BOUND ( 'NONE', #95, .T. ) ;
#233 = ADVANCED_FACE ( 'NONE', ( #273 ), #342, .F. ) ;
#234 = CIRCLE ( 'NONE', #16, 7.000000000000000888 ) ;
#235 = CARTESIAN_POINT ( 'NONE',  ( 0.000000000000000000, 0.000000000000000000, 7.000000000000000000 ) ) ;
#236 = DIRECTION ( 'NONE',  ( 0.000000000000000000, 0.000000000000000000, 1.000000000000000000 ) ) ;
#237 = EDGE_CURVE ( 'NONE', #319, #91, #144, .T. ) ;
#238 = DIRECTION ( 'NONE',  ( -0.000000000000000000, -0.000000000000000000, -1.000000000000000000 ) ) ;
#239 = CLOSED_SHELL ( 'NONE', ( #320, #233, #253, #301, #74, #81, #307, #23, #93, #279, #197 ) ) ;
#240 = AXIS2_PLACEMENT_3D ( 'NONE', #311, #373, #309 ) ;
#241 = CARTESIAN_POINT ( 'NONE',  ( -5.000000000000000000, 0.000000000000000000, 232.0000000000000000 ) ) ;
#242 = DIRECTION ( 'NONE',  ( -0.000000000000000000, -0.000000000000000000, -1.000000000000000000 ) ) ;
#243 = PERSON_AND_ORGANIZATION ( #138, #17 ) ;
#244 = LINE ( 'NONE', #371, #217 ) ;
#245 =( NAMED_UNIT ( * ) SI_UNIT ( $, .STERADIAN. ) SOLID_ANGLE_UNIT ( ) );
#246 = AXIS2_PLACEMENT_3D ( 'NONE', #32, #236, #321 ) ;
#247 = CARTESIAN_POINT ( 'NONE',  ( 0.000000000000000000, 0.000000000000000000, 0.000000000000000000 ) ) ;
#248 = CIRCLE ( 'NONE', #240, 11.00000000000000000 ) ;
#249 = PERSON_AND_ORGANIZATION_ROLE ( 'design_owner' ) ;
#250 = DIRECTION ( 'NONE',  ( 0.000000000000000000, -1.000000000000000000, 0.000000000000000000 ) ) ;
#251 = DATE_TIME_ROLE ( 'classification_date' ) ;
#252 = CYLINDRICAL_SURFACE ( 'NONE', #295, 5.000000000000000000 ) ;
#253 = ADVANCED_FACE ( 'NONE', ( #111 ), #212, .T. ) ;
#254 = ORIENTED_EDGE ( 'NONE', *, *, #268, .T. ) ;
#255 = COORDINATED_UNIVERSAL_TIME_OFFSET ( 1, 0, .AHEAD. ) ;
#256 = CARTESIAN_POINT ( 'NONE',  ( 0.000000000000000000, 0.000000000000000000, 0.000000000000000000 ) ) ;
#257 = ORIENTED_EDGE ( 'NONE', *, *, #237, .F. ) ;
#258 = ORIENTED_EDGE ( 'NONE', *, *, #57, .T. ) ;
#259 = ORIENTED_EDGE ( 'NONE', *, *, #348, .F. ) ;
#260 = CC_DESIGN_PERSON_AND_ORGANIZATION_ASSIGNMENT ( #339, #103, ( #218 ) ) ;
#261 = CIRCLE ( 'NONE', #230, 0.7000000000000000666 ) ;
#262 = CARTESIAN_POINT ( 'NONE',  ( 0.000000000000000000, 0.000000000000000000, 7.700000000000012612 ) ) ;
#263 = DIRECTION ( 'NONE',  ( 1.000000000000000000, 0.000000000000000000, 0.000000000000000000 ) ) ;
#264 = EDGE_CURVE ( 'NONE', #229, #228, #366, .T. ) ;
#265 = DIRECTION ( 'NONE',  ( 1.000000000000000000, 0.000000000000000000, -0.000000000000000000 ) ) ;
#266 = LOCAL_TIME ( 16, 23, 27.00000000000000000, #73 ) ;
#267 = DIRECTION ( 'NONE',  ( -0.000000000000000000, -0.000000000000000000, -1.000000000000000000 ) ) ;
#268 = EDGE_CURVE ( 'NONE', #148, #145, #355, .T. ) ;
#269 = DIRECTION ( 'NONE',  ( 0.000000000000000000, 0.000000000000000000, 1.000000000000000000 ) ) ;
#270 = CARTESIAN_POINT ( 'NONE',  ( -7.000000000000000888, 0.000000000000000000, 232.0000000000000000 ) ) ;
#271 = CIRCLE ( 'NONE', #381, 5.000000000000000000 ) ;
#272 = DIRECTION ( 'NONE',  ( 1.000000000000000000, 0.000000000000000000, 0.000000000000000000 ) ) ;
#273 = FACE_OUTER_BOUND ( 'NONE', #374, .T. ) ;
#274 = CARTESIAN_POINT ( 'NONE',  ( -7.700000000000001066, 9.429780353434621002E-16, 7.000000000000006217 ) ) ;
#275 = DIRECTION ( 'NONE',  ( 1.000000000000000000, 0.000000000000000000, 0.000000000000000000 ) ) ;
#276 = AXIS2_PLACEMENT_3D ( 'NONE', #158, #161, #272 ) ;
#277 = DIRECTION ( 'NONE',  ( -0.000000000000000000, -0.000000000000000000, -1.000000000000000000 ) ) ;
#278 = APPROVAL_ROLE ( '' ) ;
#279 = ADVANCED_FACE ( 'NONE', ( #185 ), #25, .F. ) ;
#280 = DIRECTION ( 'NONE',  ( -0.000000000000000000, -0.000000000000000000, -1.000000000000000000 ) ) ;
#281 = CALENDAR_DATE ( 2022, 8, 7 ) ;
#282 = FACE_BOUND ( 'NONE', #352, .T. ) ;
#283 = ORIENTED_EDGE ( 'NONE', *, *, #68, .T. ) ;
#284 = ORIENTED_EDGE ( 'NONE', *, *, #176, .F. ) ;
#285 = CIRCLE ( 'NONE', #123, 5.000000000000000000 ) ;
#286 = ORIENTED_EDGE ( 'NONE', *, *, #338, .T. ) ;
#287 = ORIENTED_EDGE ( 'NONE', *, *, #378, .F. ) ;
#288 = ORIENTED_EDGE ( 'NONE', *, *, #146, .F. ) ;
#289 = CIRCLE ( 'NONE', #246, 5.000000000000000000 ) ;
#290 = EDGE_CURVE ( 'NONE', #208, #58, #285, .T. ) ;
#291 = DIRECTION ( 'NONE',  ( 0.000000000000000000, 0.000000000000000000, -1.000000000000000000 ) ) ;
#292 = DIRECTION ( 'NONE',  ( 1.000000000000000000, 0.000000000000000000, -0.000000000000000000 ) ) ;
#293 = PLANE ( 'NONE',  #308 ) ;
#294 = CIRCLE ( 'NONE', #326, 7.000000000000000888 ) ;
#295 = AXIS2_PLACEMENT_3D ( 'NONE', #142, #116, #86 ) ;
#296 = ORIENTED_EDGE ( 'NONE', *, *, #42, .T. ) ;
#297 = CARTESIAN_POINT ( 'NONE',  ( 0.000000000000000000, 0.000000000000000000, 0.000000000000000000 ) ) ;
#298 = DIRECTION ( 'NONE',  ( 0.000000000000000000, 0.000000000000000000, -1.000000000000000000 ) ) ;
#299 = DIRECTION ( 'NONE',  ( 0.000000000000000000, 0.000000000000000000, 1.000000000000000000 ) ) ;
#300 = AXIS2_PLACEMENT_3D ( 'NONE', #353, #322, #265 ) ;
#301 = ADVANCED_FACE ( 'NONE', ( #328 ), #170, .T. ) ;
#302 = DIRECTION ( 'NONE',  ( -0.000000000000000000, -0.000000000000000000, -1.000000000000000000 ) ) ;
#303 = CALENDAR_DATE ( 2022, 8, 7 ) ;
#304 = PERSON_AND_ORGANIZATION ( #138, #17 ) ;
#305 = DIRECTION ( 'NONE',  ( 1.000000000000000000, 0.000000000000000000, 0.000000000000000000 ) ) ;
#306 = CALENDAR_DATE ( 2022, 8, 7 ) ;
#307 = ADVANCED_FACE ( 'NONE', ( #282, #22 ), #195, .F. ) ;
#308 = AXIS2_PLACEMENT_3D ( 'NONE', #177, #180, #292 ) ;
#309 = DIRECTION ( 'NONE',  ( 1.000000000000000000, 0.000000000000000000, 0.000000000000000000 ) ) ;
#310 = MECHANICAL_CONTEXT ( 'NONE', #31, 'mechanical' ) ;
#311 = CARTESIAN_POINT ( 'NONE',  ( 0.000000000000000000, 0.000000000000000000, 0.000000000000000000 ) ) ;
#312 = ORIENTED_EDGE ( 'NONE', *, *, #225, .F. ) ;
#313 = UNCERTAINTY_MEASURE_WITH_UNIT (LENGTH_MEASURE( 1.000000000000000082E-05 ), #167, 'distance_accuracy_value', 'NONE');
#314 = EDGE_LOOP ( 'NONE', ( #315, #284, #205, #1 ) ) ;
#315 = ORIENTED_EDGE ( 'NONE', *, *, #268, .F. ) ;
#316 = APPROVAL_PERSON_ORGANIZATION ( #243, #88, #80 ) ;
#317 = MANIFOLD_SOLID_BREP ( 'Odebrat vysunutím3', #239 ) ;
#318 = ORIENTED_EDGE ( 'NONE', *, *, #57, .F. ) ;
#319 = VERTEX_POINT ( 'NONE', #79 ) ;
#320 = ADVANCED_FACE ( 'NONE', ( #226 ), #252, .F. ) ;
#321 = DIRECTION ( 'NONE',  ( 1.000000000000000000, 0.000000000000000000, 0.000000000000000000 ) ) ;
#322 = DIRECTION ( 'NONE',  ( 0.000000000000000000, 0.000000000000000000, 1.000000000000000000 ) ) ;
#323 = DIRECTION ( 'NONE',  ( -0.000000000000000000, -0.000000000000000000, -1.000000000000000000 ) ) ;
#324 = DIRECTION ( 'NONE',  ( 0.000000000000000000, 0.000000000000000000, 1.000000000000000000 ) ) ;
#325 = PRODUCT_RELATED_PRODUCT_CATEGORY ( 'detail', '', ( #329 ) ) ;
#326 = AXIS2_PLACEMENT_3D ( 'NONE', #262, #269, #354 ) ;
#327 = LOCAL_TIME ( 16, 23, 27.00000000000000000, #370 ) ;
#328 = FACE_OUTER_BOUND ( 'NONE', #30, .T. ) ;
#329 = PRODUCT ( 'c43f', 'c43f', '', ( #310 ) ) ;
#330 = CARTESIAN_POINT ( 'NONE',  ( 0.000000000000000000, 0.000000000000000000, 7.700000000000012612 ) ) ;
#331 = DATE_AND_TIME ( #78, #266 ) ;
#332 = DIRECTION ( 'NONE',  ( 1.000000000000000000, 0.000000000000000000, 0.000000000000000000 ) ) ;
#333 = DATE_TIME_ROLE ( 'creation_date' ) ;
#334 = AXIS2_PLACEMENT_3D ( 'NONE', #247, #277, #12 ) ;
#335 = DIRECTION ( 'NONE',  ( -1.000000000000000000, 0.000000000000000000, 0.000000000000000000 ) ) ;
#336 = PERSON_AND_ORGANIZATION_ROLE ( 'design_supplier' ) ;
#337 = DIRECTION ( 'NONE',  ( 0.000000000000000000, 0.000000000000000000, 1.000000000000000000 ) ) ;
#338 = EDGE_CURVE ( 'NONE', #119, #200, #248, .T. ) ;
#339 = PERSON_AND_ORGANIZATION ( #138, #17 ) ;
#340 =( NAMED_UNIT ( * ) PLANE_ANGLE_UNIT ( ) SI_UNIT ( $, .RADIAN. ) );
#341 = SHAPE_DEFINITION_REPRESENTATION ( #189, #349 ) ;
#342 = TOROIDAL_SURFACE ( 'NONE', #9, 7.700000000000001066, 0.6999999999999999556 ) ;
#343 = LINE ( 'NONE', #139, #62 ) ;
#344 =( GEOMETRIC_REPRESENTATION_CONTEXT ( 3 ) GLOBAL_UNCERTAINTY_ASSIGNED_CONTEXT ( ( #313 ) ) GLOBAL_UNIT_ASSIGNED_CONTEXT ( ( #167, #340, #245 ) ) REPRESENTATION_CONTEXT ( 'NONE', 'WORKASPACE' ) );
#345 = ORIENTED_EDGE ( 'NONE', *, *, #348, .T. ) ;
#346 = DIRECTION ( 'NONE',  ( -1.000000000000000000, 0.000000000000000000, 0.000000000000000000 ) ) ;
#347 = ORIENTED_EDGE ( 'NONE', *, *, #51, .T. ) ;
#348 = EDGE_CURVE ( 'NONE', #227, #148, #343, .T. ) ;
#349 = ADVANCED_BREP_SHAPE_REPRESENTATION ( 'c43f', ( #317, #360 ), #344 ) ;
#350 = ORIENTED_EDGE ( 'NONE', *, *, #171, .T. ) ;
#351 = AXIS2_PLACEMENT_3D ( 'NONE', #65, #324, #127 ) ;
#352 = EDGE_LOOP ( 'NONE', ( #257, #140 ) ) ;
#353 = CARTESIAN_POINT ( 'NONE',  ( 0.000000000000000000, 0.000000000000000000, 7.000000000000000000 ) ) ;
#354 = DIRECTION ( 'NONE',  ( 1.000000000000000000, 0.000000000000000000, 0.000000000000000000 ) ) ;
#355 = CIRCLE ( 'NONE', #187, 0.7000000000000000666 ) ;
#356 = APPROVAL ( #15, 'NEURÈENÝ' ) ;
#357 = FACE_OUTER_BOUND ( 'NONE', #61, .T. ) ;
#358 = EDGE_LOOP ( 'NONE', ( #3, #143, #85, #114 ) ) ;
#359 = ORIENTED_EDGE ( 'NONE', *, *, #264, .T. ) ;
#360 = AXIS2_PLACEMENT_3D ( 'NONE', #108, #299, #275 ) ;
#361 = CARTESIAN_POINT ( 'NONE',  ( 0.000000000000000000, 0.000000000000000000, 0.000000000000000000 ) ) ;
#362 = EDGE_CURVE ( 'NONE', #229, #227, #154, .T. ) ;
#363 = CARTESIAN_POINT ( 'NONE',  ( -7.700000000000001066, 9.429780353434621002E-16, 7.700000000000012612 ) ) ;
#364 = APPROVAL ( #194, 'NEURÈENÝ' ) ;
#365 = SECURITY_CLASSIFICATION_LEVEL ( 'unclassified' ) ;
#366 = LINE ( 'NONE', #190, #60 ) ;
#367 = PERSON_AND_ORGANIZATION_ROLE ( 'creator' ) ;
#368 = CC_DESIGN_PERSON_AND_ORGANIZATION_ASSIGNMENT ( #304, #249, ( #329 ) ) ;
#369 = DIRECTION ( 'NONE',  ( 0.000000000000000000, 0.000000000000000000, 1.000000000000000000 ) ) ;
#370 = COORDINATED_UNIVERSAL_TIME_OFFSET ( 1, 0, .AHEAD. ) ;
#371 = CARTESIAN_POINT ( 'NONE',  ( -11.00000000000000000, 0.000000000000000000, 7.000000000000000000 ) ) ;
#372 = PERSON_AND_ORGANIZATION ( #138, #17 ) ;
#373 = DIRECTION ( 'NONE',  ( 0.000000000000000000, 0.000000000000000000, 1.000000000000000000 ) ) ;
#374 = EDGE_LOOP ( 'NONE', ( #53, #254, #118, #87 ) ) ;
#375 = APPROVAL_STATUS ( 'not_yet_approved' ) ;
#376 = DIRECTION ( 'NONE',  ( 1.000000000000000000, 0.000000000000000000, -0.000000000000000000 ) ) ;
#377 = CC_DESIGN_APPROVAL ( #88, ( #173 ) ) ;
#378 = EDGE_CURVE ( 'NONE', #28, #119, #84, .T. ) ;
#379 = ORIENTED_EDGE ( 'NONE', *, *, #176, .T. ) ;
#380 = ORIENTED_EDGE ( 'NONE', *, *, #378, .T. ) ;
#381 = AXIS2_PLACEMENT_3D ( 'NONE', #361, #302, #136 ) ;
ENDSEC;
END-ISO-10303-21;
