ISO-10303-21;
HEADER;
FILE_DESCRIPTION (( 'STEP AP203' ),
    '1' );
FILE_NAME ('6800.STEP',
    '2022-07-08T14:32:32',
    ( '' ),
    ( '' ),
    'SwSTEP 2.0',
    'SolidWorks 2019',
    '' );
FILE_SCHEMA (( 'CONFIG_CONTROL_DESIGN' ));
ENDSEC;

DATA;
#1 = EDGE_CURVE ( 'NONE', #79, #174, #149, .T. ) ;
#2 = ORIENTED_EDGE ( 'NONE', *, *, #235, .F. ) ;
#3 = DIRECTION ( 'NONE',  ( -0.000000000000000000, -0.000000000000000000, -1.000000000000000000 ) ) ;
#4 = FACE_OUTER_BOUND ( 'NONE', #316, .T. ) ;
#5 = VERTEX_POINT ( 'NONE', #294 ) ;
#6 = AXIS2_PLACEMENT_3D ( 'NONE', #290, #348, #293 ) ;
#7 = DIRECTION ( 'NONE',  ( -1.000000000000000000, 0.000000000000000000, 0.000000000000000000 ) ) ;
#8 = EDGE_CURVE ( 'NONE', #38, #53, #34, .T. ) ;
#9 = ORIENTED_EDGE ( 'NONE', *, *, #367, .F. ) ;
#10 = CARTESIAN_POINT ( 'NONE',  ( 0.000000000000000000, 0.000000000000000000, 807.0000000000000000 ) ) ;
#11 = DIRECTION ( 'NONE',  ( 0.000000000000000000, 0.000000000000000000, -1.000000000000000000 ) ) ;
#12 = APPROVAL_PERSON_ORGANIZATION ( #190, #299, #130 ) ;
#13 = EDGE_LOOP ( 'NONE', ( #257, #314, #365, #88 ) ) ;
#14 = APPROVAL ( #375, 'NEURÈENÝ' ) ;
#15 = CARTESIAN_POINT ( 'NONE',  ( 0.000000000000000000, 0.000000000000000000, 0.000000000000000000 ) ) ;
#16 = CARTESIAN_POINT ( 'NONE',  ( 10.00000000000000000, 1.224646799147353256E-15, 0.000000000000000000 ) ) ;
#17 = ORIENTED_EDGE ( 'NONE', *, *, #8, .F. ) ;
#18 = DIRECTION ( 'NONE',  ( -0.000000000000000000, -0.000000000000000000, -1.000000000000000000 ) ) ;
#19 = AXIS2_PLACEMENT_3D ( 'NONE', #51, #160, #307 ) ;
#20 = DIRECTION ( 'NONE',  ( -0.000000000000000000, -0.000000000000000000, -1.000000000000000000 ) ) ;
#21 = EDGE_LOOP ( 'NONE', ( #311, #192 ) ) ;
#22 = PRODUCT ( '6800', '6800', '', ( #159 ) ) ;
#23 = APPROVAL_ROLE ( '' ) ;
#24 = DIRECTION ( 'NONE',  ( 0.000000000000000000, -1.000000000000000000, 0.000000000000000000 ) ) ;
#25 = EDGE_LOOP ( 'NONE', ( #269, #9 ) ) ;
#26 = PERSON_AND_ORGANIZATION ( #128, #112 ) ;
#27 = ORIENTED_EDGE ( 'NONE', *, *, #193, .F. ) ;
#28 = AXIS2_PLACEMENT_3D ( 'NONE', #87, #320, #115 ) ;
#29 = CC_DESIGN_PERSON_AND_ORGANIZATION_ASSIGNMENT ( #59, #55, ( #296 ) ) ;
#30 = EDGE_LOOP ( 'NONE', ( #103, #70 ) ) ;
#31 = COORDINATED_UNIVERSAL_TIME_OFFSET ( 1, 0, .AHEAD. ) ;
#32 = VERTEX_POINT ( 'NONE', #352 ) ;
#33 = DIRECTION ( 'NONE',  ( -0.000000000000000000, -0.000000000000000000, -1.000000000000000000 ) ) ;
#34 = LINE ( 'NONE', #381, #134 ) ;
#35 = ADVANCED_FACE ( 'NONE', ( #152, #263 ), #143, .T. ) ;
#36 = AXIS2_PLACEMENT_3D ( 'NONE', #337, #76, #107 ) ;
#37 = APPROVAL_PERSON_ORGANIZATION ( #251, #161, #23 ) ;
#38 = VERTEX_POINT ( 'NONE', #46 ) ;
#39 = CARTESIAN_POINT ( 'NONE',  ( 0.000000000000000000, 0.000000000000000000, 807.0000000000000000 ) ) ;
#40 = CARTESIAN_POINT ( 'NONE',  ( 0.000000000000000000, 0.000000000000000000, 807.0000000000000000 ) ) ;
#41 = PRODUCT_DEFINITION_SHAPE ( 'NONE', 'NONE',  #296 ) ;
#42 = CIRCLE ( 'NONE', #166, 4.099999999999999645 ) ;
#43 = CARTESIAN_POINT ( 'NONE',  ( 0.000000000000000000, 0.000000000000000000, 7.700000000000040146 ) ) ;
#44 = CARTESIAN_POINT ( 'NONE',  ( 0.000000000000000000, 0.000000000000000000, 807.0000000000000000 ) ) ;
#45 = DIRECTION ( 'NONE',  ( -1.000000000000000000, 1.224646799147353454E-16, 0.000000000000000000 ) ) ;
#46 = CARTESIAN_POINT ( 'NONE',  ( -10.00000000000000000, 0.000000000000000000, 7.000000000000000000 ) ) ;
#47 = EDGE_CURVE ( 'NONE', #260, #79, #187, .T. ) ;
#48 = CARTESIAN_POINT ( 'NONE',  ( 0.000000000000000000, 0.000000000000000000, 0.000000000000000000 ) ) ;
#49 = CARTESIAN_POINT ( 'NONE',  ( -10.00000000000000000, 0.000000000000000000, 0.000000000000000000 ) ) ;
#50 = AXIS2_PLACEMENT_3D ( 'NONE', #186, #123, #45 ) ;
#51 = CARTESIAN_POINT ( 'NONE',  ( 0.000000000000000000, 0.000000000000000000, 7.000000000000000000 ) ) ;
#52 = EDGE_LOOP ( 'NONE', ( #345, #215, #136, #17 ) ) ;
#53 = VERTEX_POINT ( 'NONE', #49 ) ;
#54 = ORIENTED_EDGE ( 'NONE', *, *, #207, .F. ) ;
#55 = PERSON_AND_ORGANIZATION_ROLE ( 'creator' ) ;
#56 = CIRCLE ( 'NONE', #63, 4.099999999999999645 ) ;
#57 = LOCAL_TIME ( 16, 32, 32.00000000000000000, #31 ) ;
#58 = ORIENTED_EDGE ( 'NONE', *, *, #8, .T. ) ;
#59 = PERSON_AND_ORGANIZATION ( #128, #112 ) ;
#60 = ADVANCED_FACE ( 'NONE', ( #243, #278 ), #69, .F. ) ;
#61 = ADVANCED_FACE ( 'NONE', ( #4 ), #354, .T. ) ;
#62 = DATE_AND_TIME ( #173, #64 ) ;
#63 = AXIS2_PLACEMENT_3D ( 'NONE', #297, #3, #353 ) ;
#64 = LOCAL_TIME ( 16, 32, 32.00000000000000000, #85 ) ;
#65 = CARTESIAN_POINT ( 'NONE',  ( 0.000000000000000000, 0.000000000000000000, 7.700000000000040146 ) ) ;
#66 = VERTEX_POINT ( 'NONE', #333 ) ;
#67 = CARTESIAN_POINT ( 'NONE',  ( -6.000000000000000888, 0.000000000000000000, 807.0000000000000000 ) ) ;
#68 = DIRECTION ( 'NONE',  ( 0.000000000000000000, 0.000000000000000000, 1.000000000000000000 ) ) ;
#69 = PLANE ( 'NONE',  #289 ) ;
#70 = ORIENTED_EDGE ( 'NONE', *, *, #281, .T. ) ;
#71 = DIRECTION ( 'NONE',  ( 1.000000000000000000, 0.000000000000000000, 0.000000000000000000 ) ) ;
#72 = DIRECTION ( 'NONE',  ( 1.000000000000000000, 0.000000000000000000, 0.000000000000000000 ) ) ;
#73 = DIRECTION ( 'NONE',  ( 0.000000000000000000, 0.000000000000000000, 1.000000000000000000 ) ) ;
#74 = DIRECTION ( 'NONE',  ( 0.000000000000000000, 0.000000000000000000, 1.000000000000000000 ) ) ;
#75 = DIRECTION ( 'NONE',  ( 1.000000000000000000, 0.000000000000000000, 0.000000000000000000 ) ) ;
#76 = DIRECTION ( 'NONE',  ( 0.000000000000000000, 0.000000000000000000, -1.000000000000000000 ) ) ;
#77 = PRODUCT_DEFINITION_FORMATION_WITH_SPECIFIED_SOURCE ( 'LIBOVOLNÝ', '', #22, .NOT_KNOWN. ) ;
#78 = ORIENTED_EDGE ( 'NONE', *, *, #281, .F. ) ;
#79 = VERTEX_POINT ( 'NONE', #298 ) ;
#80 = DIRECTION ( 'NONE',  ( -1.000000000000000000, 0.000000000000000000, 0.000000000000000000 ) ) ;
#81 = CARTESIAN_POINT ( 'NONE',  ( 0.000000000000000000, 0.000000000000000000, 7.000000000000000000 ) ) ;
#82 = AXIS2_PLACEMENT_3D ( 'NONE', #154, #328, #210 ) ;
#83 = CARTESIAN_POINT ( 'NONE',  ( 10.00000000000000000, 1.224646799147353256E-15, 7.000000000000000000 ) ) ;
#84 =( GEOMETRIC_REPRESENTATION_CONTEXT ( 3 ) GLOBAL_UNCERTAINTY_ASSIGNED_CONTEXT ( ( #342 ) ) GLOBAL_UNIT_ASSIGNED_CONTEXT ( ( #194, #366, #168 ) ) REPRESENTATION_CONTEXT ( 'NONE', 'WORKASPACE' ) );
#85 = COORDINATED_UNIVERSAL_TIME_OFFSET ( 1, 0, .AHEAD. ) ;
#86 = DATE_TIME_ROLE ( 'classification_date' ) ;
#87 = CARTESIAN_POINT ( 'NONE',  ( 0.000000000000000000, 0.000000000000000000, 807.0000000000000000 ) ) ;
#88 = ORIENTED_EDGE ( 'NONE', *, *, #110, .T. ) ;
#89 = APPLICATION_CONTEXT ( 'configuration controlled 3d designs of mechanical parts and assemblies' ) ;
#90 = ORIENTED_EDGE ( 'NONE', *, *, #1, .F. ) ;
#91 = DIRECTION ( 'NONE',  ( 0.000000000000000000, 0.000000000000000000, -1.000000000000000000 ) ) ;
#92 = CARTESIAN_POINT ( 'NONE',  ( -4.099999999999999645, 0.000000000000000000, 0.000000000000000000 ) ) ;
#93 = EDGE_CURVE ( 'NONE', #361, #260, #121, .T. ) ;
#94 = AXIS2_PLACEMENT_3D ( 'NONE', #40, #68, #72 ) ;
#95 = DIRECTION ( 'NONE',  ( 0.000000000000000000, 0.000000000000000000, 1.000000000000000000 ) ) ;
#96 = EDGE_LOOP ( 'NONE', ( #2, #156, #203, #221 ) ) ;
#97 = CARTESIAN_POINT ( 'NONE',  ( 0.000000000000000000, 0.000000000000000000, 7.700000000000040146 ) ) ;
#98 = ORIENTED_EDGE ( 'NONE', *, *, #248, .F. ) ;
#99 = VECTOR ( 'NONE', #301, 1000.000000000000000 ) ;
#100 = DIRECTION ( 'NONE',  ( 0.000000000000000000, 0.000000000000000000, 1.000000000000000000 ) ) ;
#101 = APPLICATION_CONTEXT ( 'configuration controlled 3d designs of mechanical parts and assemblies' ) ;
#102 = DATE_AND_TIME ( #362, #200 ) ;
#103 = ORIENTED_EDGE ( 'NONE', *, *, #93, .T. ) ;
#104 = PERSON_AND_ORGANIZATION ( #128, #112 ) ;
#105 = ADVANCED_FACE ( 'NONE', ( #183 ), #185, .F. ) ;
#106 = AXIS2_PLACEMENT_3D ( 'NONE', #97, #204, #270 ) ;
#107 = DIRECTION ( 'NONE',  ( -1.000000000000000000, 0.000000000000000000, 0.000000000000000000 ) ) ;
#108 = ORIENTED_EDGE ( 'NONE', *, *, #1, .T. ) ;
#109 = ORIENTED_EDGE ( 'NONE', *, *, #318, .T. ) ;
#110 = EDGE_CURVE ( 'NONE', #174, #79, #199, .T. ) ;
#111 = AXIS2_PLACEMENT_3D ( 'NONE', #202, #33, #147 ) ;
#112 = ORGANIZATION ( 'NEURÈENÝ', 'NEURÈENÝ', '' ) ;
#113 = ORIENTED_EDGE ( 'NONE', *, *, #47, .T. ) ;
#114 = VERTEX_POINT ( 'NONE', #16 ) ;
#115 = DIRECTION ( 'NONE',  ( 1.000000000000000000, 0.000000000000000000, 0.000000000000000000 ) ) ;
#116 = CIRCLE ( 'NONE', #6, 10.00000000000000000 ) ;
#117 = DIRECTION ( 'NONE',  ( -0.000000000000000000, -0.000000000000000000, -1.000000000000000000 ) ) ;
#118 = DIRECTION ( 'NONE',  ( 1.000000000000000000, 0.000000000000000000, -0.000000000000000000 ) ) ;
#119 = ORIENTED_EDGE ( 'NONE', *, *, #228, .F. ) ;
#120 = PLANE ( 'NONE',  #346 ) ;
#121 = CIRCLE ( 'NONE', #158, 6.000000000000000888 ) ;
#122 = CARTESIAN_POINT ( 'NONE',  ( -6.000000000000000888, 0.000000000000000000, 807.0000000000000000 ) ) ;
#123 = DIRECTION ( 'NONE',  ( 1.224646799147353207E-16, 1.000000000000000000, -0.000000000000000000 ) ) ;
#124 = FACE_OUTER_BOUND ( 'NONE', #169, .T. ) ;
#125 = DIRECTION ( 'NONE',  ( -1.000000000000000000, 0.000000000000000000, 0.000000000000000000 ) ) ;
#126 = CIRCLE ( 'NONE', #28, 4.099999999999999645 ) ;
#127 = PERSON_AND_ORGANIZATION ( #128, #112 ) ;
#128 = PERSON ( 'NEURÈENÝ', 'NEURÈENÝ', 'NEURÈENÝ', ('NEURÈENÝ'), ('NEURÈENÝ'), ('NEURÈENÝ') ) ;
#129 = CARTESIAN_POINT ( 'NONE',  ( 0.000000000000000000, 0.000000000000000000, 0.000000000000000000 ) ) ;
#130 = APPROVAL_ROLE ( '' ) ;
#131 = CALENDAR_DATE ( 2022, 8, 7 ) ;
#132 = LINE ( 'NONE', #83, #372 ) ;
#133 = ORIENTED_EDGE ( 'NONE', *, *, #172, .F. ) ;
#134 = VECTOR ( 'NONE', #117, 1000.000000000000000 ) ;
#135 = CYLINDRICAL_SURFACE ( 'NONE', #178, 10.00000000000000000 ) ;
#136 = ORIENTED_EDGE ( 'NONE', *, *, #228, .T. ) ;
#137 = DIRECTION ( 'NONE',  ( 0.000000000000000000, 0.000000000000000000, 1.000000000000000000 ) ) ;
#138 = ORIENTED_EDGE ( 'NONE', *, *, #157, .T. ) ;
#139 = CARTESIAN_POINT ( 'NONE',  ( -6.000000000000000888, 0.000000000000000000, 7.700000000000040146 ) ) ;
#140 = EDGE_LOOP ( 'NONE', ( #323, #265 ) ) ;
#141 = AXIS2_PLACEMENT_3D ( 'NONE', #246, #100, #223 ) ;
#142 = DIRECTION ( 'NONE',  ( 0.000000000000000000, 0.000000000000000000, -1.000000000000000000 ) ) ;
#143 = PLANE ( 'NONE',  #295 ) ;
#144 = EDGE_CURVE ( 'NONE', #146, #114, #132, .T. ) ;
#145 = PERSON_AND_ORGANIZATION ( #128, #112 ) ;
#146 = VERTEX_POINT ( 'NONE', #196 ) ;
#147 = DIRECTION ( 'NONE',  ( -1.000000000000000000, 0.000000000000000000, 0.000000000000000000 ) ) ;
#148 = CC_DESIGN_PERSON_AND_ORGANIZATION_ASSIGNMENT ( #26, #292, ( #319 ) ) ;
#149 = CIRCLE ( 'NONE', #317, 6.000000000000000888 ) ;
#150 = EDGE_LOOP ( 'NONE', ( #339, #181, #54, #133 ) ) ;
#151 = AXIS2_PLACEMENT_3D ( 'NONE', #15, #137, #75 ) ;
#152 = FACE_BOUND ( 'NONE', #341, .T. ) ;
#153 = DIRECTION ( 'NONE',  ( 0.000000000000000000, 0.000000000000000000, 1.000000000000000000 ) ) ;
#154 = CARTESIAN_POINT ( 'NONE',  ( 0.000000000000000000, 0.000000000000000000, 7.000000000000000000 ) ) ;
#155 = DIRECTION ( 'NONE',  ( -0.000000000000000000, -0.000000000000000000, -1.000000000000000000 ) ) ;
#156 = ORIENTED_EDGE ( 'NONE', *, *, #367, .T. ) ;
#157 = EDGE_CURVE ( 'NONE', #66, #250, #283, .T. ) ;
#158 = AXIS2_PLACEMENT_3D ( 'NONE', #331, #73, #71 ) ;
#159 = MECHANICAL_CONTEXT ( 'NONE', #101, 'mechanical' ) ;
#160 = DIRECTION ( 'NONE',  ( 0.000000000000000000, 0.000000000000000000, 1.000000000000000000 ) ) ;
#161 = APPROVAL ( #359, 'NEURÈENÝ' ) ;
#162 = ORIENTED_EDGE ( 'NONE', *, *, #235, .T. ) ;
#163 = DIRECTION ( 'NONE',  ( 1.000000000000000000, 0.000000000000000000, 0.000000000000000000 ) ) ;
#164 = DIRECTION ( 'NONE',  ( 1.000000000000000000, 0.000000000000000000, 0.000000000000000000 ) ) ;
#165 = ORIENTED_EDGE ( 'NONE', *, *, #271, .F. ) ;
#166 = AXIS2_PLACEMENT_3D ( 'NONE', #176, #198, #234 ) ;
#167 = LOCAL_TIME ( 16, 32, 32.00000000000000000, #280 ) ;
#168 =( NAMED_UNIT ( * ) SI_UNIT ( $, .STERADIAN. ) SOLID_ANGLE_UNIT ( ) );
#169 = EDGE_LOOP ( 'NONE', ( #165, #90, #285, #334 ) ) ;
#170 = DATE_AND_TIME ( #349, #57 ) ;
#171 = AXIS2_PLACEMENT_3D ( 'NONE', #252, #191, #164 ) ;
#172 = EDGE_CURVE ( 'NONE', #79, #250, #332, .T. ) ;
#173 = CALENDAR_DATE ( 2022, 8, 7 ) ;
#174 = VERTEX_POINT ( 'NONE', #139 ) ;
#175 = DIRECTION ( 'NONE',  ( 1.000000000000000000, 0.000000000000000000, 0.000000000000000000 ) ) ;
#176 = CARTESIAN_POINT ( 'NONE',  ( 0.000000000000000000, 0.000000000000000000, 0.000000000000000000 ) ) ;
#177 = AXIS2_PLACEMENT_3D ( 'NONE', #364, #220, #376 ) ;
#178 = AXIS2_PLACEMENT_3D ( 'NONE', #81, #18, #80 ) ;
#179 = CARTESIAN_POINT ( 'NONE',  ( 0.000000000000000000, 0.000000000000000000, 807.0000000000000000 ) ) ;
#180 = DIRECTION ( 'NONE',  ( -0.000000000000000000, -0.000000000000000000, -1.000000000000000000 ) ) ;
#181 = ORIENTED_EDGE ( 'NONE', *, *, #271, .T. ) ;
#182 = ADVANCED_FACE ( 'NONE', ( #259 ), #189, .F. ) ;
#183 = FACE_OUTER_BOUND ( 'NONE', #225, .T. ) ;
#184 = CARTESIAN_POINT ( 'NONE',  ( 6.000000000000000888, 7.347880794884120722E-16, 807.0000000000000000 ) ) ;
#185 = CYLINDRICAL_SURFACE ( 'NONE', #195, 4.099999999999999645 ) ;
#186 = CARTESIAN_POINT ( 'NONE',  ( -6.700000000000001066, 8.205133554287267548E-16, 7.700000000000040146 ) ) ;
#187 = LINE ( 'NONE', #209, #363 ) ;
#188 = CARTESIAN_POINT ( 'NONE',  ( 4.099999999999999645, 5.021051876504147385E-16, 807.0000000000000000 ) ) ;
#189 = CYLINDRICAL_SURFACE ( 'NONE', #36, 4.099999999999999645 ) ;
#190 = PERSON_AND_ORGANIZATION ( #128, #112 ) ;
#191 = DIRECTION ( 'NONE',  ( -0.000000000000000000, -0.000000000000000000, -1.000000000000000000 ) ) ;
#192 = ORIENTED_EDGE ( 'NONE', *, *, #242, .F. ) ;
#193 = EDGE_CURVE ( 'NONE', #38, #146, #279, .T. ) ;
#194 =( LENGTH_UNIT ( ) NAMED_UNIT ( * ) SI_UNIT ( .MILLI., .METRE. ) );
#195 = AXIS2_PLACEMENT_3D ( 'NONE', #44, #11, #125 ) ;
#196 = CARTESIAN_POINT ( 'NONE',  ( 10.00000000000000000, 1.224646799147353256E-15, 7.000000000000000000 ) ) ;
#197 = ORIENTED_EDGE ( 'NONE', *, *, #266, .F. ) ;
#198 = DIRECTION ( 'NONE',  ( -0.000000000000000000, -0.000000000000000000, -1.000000000000000000 ) ) ;
#199 = CIRCLE ( 'NONE', #141, 6.000000000000000888 ) ;
#200 = LOCAL_TIME ( 16, 32, 32.00000000000000000, #282 ) ;
#201 = SHAPE_DEFINITION_REPRESENTATION ( #41, #284 ) ;
#202 = CARTESIAN_POINT ( 'NONE',  ( 0.000000000000000000, 0.000000000000000000, 7.000000000000000000 ) ) ;
#203 = ORIENTED_EDGE ( 'NONE', *, *, #248, .T. ) ;
#204 = DIRECTION ( 'NONE',  ( 0.000000000000000000, 0.000000000000000000, 1.000000000000000000 ) ) ;
#205 = CIRCLE ( 'NONE', #50, 0.7000000000000000666 ) ;
#206 = APPROVAL_PERSON_ORGANIZATION ( #145, #14, #231 ) ;
#207 = EDGE_CURVE ( 'NONE', #250, #66, #312, .T. ) ;
#208 = LINE ( 'NONE', #122, #99 ) ;
#209 = CARTESIAN_POINT ( 'NONE',  ( 6.000000000000000888, 7.347880794884120722E-16, 807.0000000000000000 ) ) ;
#210 = DIRECTION ( 'NONE',  ( 1.000000000000000000, 0.000000000000000000, 0.000000000000000000 ) ) ;
#211 = AXIS2_PLACEMENT_3D ( 'NONE', #48, #153, #237 ) ;
#212 = CC_DESIGN_PERSON_AND_ORGANIZATION_ASSIGNMENT ( #368, #347, ( #77 ) ) ;
#213 = DIRECTION ( 'NONE',  ( 1.000000000000000000, 0.000000000000000000, 0.000000000000000000 ) ) ;
#214 = CARTESIAN_POINT ( 'NONE',  ( 0.000000000000000000, 0.000000000000000000, 807.0000000000000000 ) ) ;
#215 = ORIENTED_EDGE ( 'NONE', *, *, #144, .T. ) ;
#216 = DATE_TIME_ROLE ( 'creation_date' ) ;
#217 = CC_DESIGN_PERSON_AND_ORGANIZATION_ASSIGNMENT ( #104, #309, ( #77 ) ) ;
#218 = CIRCLE ( 'NONE', #211, 10.00000000000000000 ) ;
#219 = FACE_OUTER_BOUND ( 'NONE', #52, .T. ) ;
#220 = DIRECTION ( 'NONE',  ( -0.000000000000000000, -0.000000000000000000, -1.000000000000000000 ) ) ;
#221 = ORIENTED_EDGE ( 'NONE', *, *, #322, .T. ) ;
#222 = COORDINATED_UNIVERSAL_TIME_OFFSET ( 1, 0, .AHEAD. ) ;
#223 = DIRECTION ( 'NONE',  ( 1.000000000000000000, 0.000000000000000000, 0.000000000000000000 ) ) ;
#224 = APPLICATION_PROTOCOL_DEFINITION ( 'international standard', 'config_control_design', 1994, #101 ) ;
#225 = EDGE_LOOP ( 'NONE', ( #355, #162, #229, #98 ) ) ;
#226 = CC_DESIGN_APPROVAL ( #14, ( #319 ) ) ;
#227 = SECURITY_CLASSIFICATION_LEVEL ( 'unclassified' ) ;
#228 = EDGE_CURVE ( 'NONE', #114, #53, #116, .T. ) ;
#229 = ORIENTED_EDGE ( 'NONE', *, *, #242, .T. ) ;
#230 = EDGE_CURVE ( 'NONE', #5, #370, #126, .T. ) ;
#231 = APPROVAL_ROLE ( '' ) ;
#232 = PRODUCT_RELATED_PRODUCT_CATEGORY ( 'detail', '', ( #22 ) ) ;
#233 = AXIS2_PLACEMENT_3D ( 'NONE', #310, #24, #369 ) ;
#234 = DIRECTION ( 'NONE',  ( 1.000000000000000000, 0.000000000000000000, 0.000000000000000000 ) ) ;
#235 = EDGE_CURVE ( 'NONE', #370, #32, #374, .T. ) ;
#236 = CARTESIAN_POINT ( 'NONE',  ( -4.099999999999999645, 0.000000000000000000, 807.0000000000000000 ) ) ;
#237 = DIRECTION ( 'NONE',  ( 1.000000000000000000, 0.000000000000000000, 0.000000000000000000 ) ) ;
#238 = DIRECTION ( 'NONE',  ( 0.000000000000000000, 0.000000000000000000, 1.000000000000000000 ) ) ;
#239 = VECTOR ( 'NONE', #142, 1000.000000000000000 ) ;
#240 = CC_DESIGN_SECURITY_CLASSIFICATION ( #319, ( #77 ) ) ;
#241 = EDGE_LOOP ( 'NONE', ( #291, #27, #58, #109 ) ) ;
#242 = EDGE_CURVE ( 'NONE', #32, #351, #42, .T. ) ;
#243 = FACE_BOUND ( 'NONE', #21, .T. ) ;
#244 = FACE_BOUND ( 'NONE', #25, .T. ) ;
#245 = ADVANCED_FACE ( 'NONE', ( #380 ), #350, .T. ) ;
#246 = CARTESIAN_POINT ( 'NONE',  ( 0.000000000000000000, 0.000000000000000000, 7.700000000000040146 ) ) ;
#247 = CLOSED_SHELL ( 'NONE', ( #105, #324, #61, #378, #245, #35, #60, #308, #264, #306, #182 ) ) ;
#248 = EDGE_CURVE ( 'NONE', #5, #351, #268, .T. ) ;
#249 = CALENDAR_DATE ( 2022, 8, 7 ) ;
#250 = VERTEX_POINT ( 'NONE', #286 ) ;
#251 = PERSON_AND_ORGANIZATION ( #128, #112 ) ;
#252 = CARTESIAN_POINT ( 'NONE',  ( 0.000000000000000000, 0.000000000000000000, 7.000000000000000000 ) ) ;
#253 = EDGE_CURVE ( 'NONE', #146, #38, #379, .T. ) ;
#254 = EDGE_LOOP ( 'NONE', ( #371, #119 ) ) ;
#255 = CIRCLE ( 'NONE', #300, 4.099999999999999645 ) ;
#256 = APPROVAL_STATUS ( 'not_yet_approved' ) ;
#257 = ORIENTED_EDGE ( 'NONE', *, *, #47, .F. ) ;
#258 = APPROVAL_DATE_TIME ( #343, #299 ) ;
#259 = FACE_OUTER_BOUND ( 'NONE', #96, .T. ) ;
#260 = VERTEX_POINT ( 'NONE', #184 ) ;
#261 = CIRCLE ( 'NONE', #94, 6.000000000000000888 ) ;
#262 = CARTESIAN_POINT ( 'NONE',  ( 0.000000000000000000, 0.000000000000000000, 7.000000000000000000 ) ) ;
#263 = FACE_OUTER_BOUND ( 'NONE', #140, .T. ) ;
#264 = ADVANCED_FACE ( 'NONE', ( #244, #277 ), #120, .T. ) ;
#265 = ORIENTED_EDGE ( 'NONE', *, *, #253, .T. ) ;
#266 = EDGE_CURVE ( 'NONE', #361, #174, #208, .T. ) ;
#267 = AXIS2_PLACEMENT_3D ( 'NONE', #43, #303, #213 ) ;
#268 = LINE ( 'NONE', #236, #325 ) ;
#269 = ORIENTED_EDGE ( 'NONE', *, *, #230, .F. ) ;
#270 = DIRECTION ( 'NONE',  ( 1.000000000000000000, 0.000000000000000000, 0.000000000000000000 ) ) ;
#271 = EDGE_CURVE ( 'NONE', #174, #66, #205, .T. ) ;
#272 = DIRECTION ( 'NONE',  ( 1.000000000000000000, 0.000000000000000000, -0.000000000000000000 ) ) ;
#273 = TOROIDAL_SURFACE ( 'NONE', #106, 6.700000000000001066, 0.6999999999999999556 ) ;
#274 = DIRECTION ( 'NONE',  ( -0.000000000000000000, -0.000000000000000000, -1.000000000000000000 ) ) ;
#275 = DIRECTION ( 'NONE',  ( 0.000000000000000000, 0.000000000000000000, 1.000000000000000000 ) ) ;
#276 = DESIGN_CONTEXT ( 'detailed design', #89, 'design' ) ;
#277 = FACE_OUTER_BOUND ( 'NONE', #30, .T. ) ;
#278 = FACE_OUTER_BOUND ( 'NONE', #254, .T. ) ;
#279 = CIRCLE ( 'NONE', #19, 10.00000000000000000 ) ;
#280 = COORDINATED_UNIVERSAL_TIME_OFFSET ( 1, 0, .AHEAD. ) ;
#281 = EDGE_CURVE ( 'NONE', #260, #361, #261, .T. ) ;
#282 = COORDINATED_UNIVERSAL_TIME_OFFSET ( 1, 0, .AHEAD. ) ;
#283 = CIRCLE ( 'NONE', #171, 6.700000000000001066 ) ;
#284 = ADVANCED_BREP_SHAPE_REPRESENTATION ( '6800', ( #327, #151 ), #84 ) ;
#285 = ORIENTED_EDGE ( 'NONE', *, *, #172, .T. ) ;
#286 = CARTESIAN_POINT ( 'NONE',  ( 6.700000000000001066, 0.000000000000000000, 7.000000000000020428 ) ) ;
#287 = CC_DESIGN_DATE_AND_TIME_ASSIGNMENT ( #102, #216, ( #296 ) ) ;
#288 = AXIS2_PLACEMENT_3D ( 'NONE', #214, #180, #357 ) ;
#289 = AXIS2_PLACEMENT_3D ( 'NONE', #129, #74, #360 ) ;
#290 = CARTESIAN_POINT ( 'NONE',  ( 0.000000000000000000, 0.000000000000000000, 0.000000000000000000 ) ) ;
#291 = ORIENTED_EDGE ( 'NONE', *, *, #144, .F. ) ;
#292 = PERSON_AND_ORGANIZATION_ROLE ( 'classification_officer' ) ;
#293 = DIRECTION ( 'NONE',  ( 1.000000000000000000, 0.000000000000000000, 0.000000000000000000 ) ) ;
#294 = CARTESIAN_POINT ( 'NONE',  ( -4.099999999999999645, 0.000000000000000000, 807.0000000000000000 ) ) ;
#295 = AXIS2_PLACEMENT_3D ( 'NONE', #262, #275, #272 ) ;
#296 = PRODUCT_DEFINITION ( 'NEZNÁMÝ', '', #77, #276 ) ;
#297 = CARTESIAN_POINT ( 'NONE',  ( 0.000000000000000000, 0.000000000000000000, 0.000000000000000000 ) ) ;
#298 = CARTESIAN_POINT ( 'NONE',  ( 6.000000000000000888, 7.347880794884120722E-16, 7.700000000000040146 ) ) ;
#299 = APPROVAL ( #256, 'NEURÈENÝ' ) ;
#300 = AXIS2_PLACEMENT_3D ( 'NONE', #10, #238, #163 ) ;
#301 = DIRECTION ( 'NONE',  ( -0.000000000000000000, -0.000000000000000000, -1.000000000000000000 ) ) ;
#302 = CC_DESIGN_PERSON_AND_ORGANIZATION_ASSIGNMENT ( #127, #305, ( #22 ) ) ;
#303 = DIRECTION ( 'NONE',  ( 0.000000000000000000, 0.000000000000000000, 1.000000000000000000 ) ) ;
#304 = TOROIDAL_SURFACE ( 'NONE', #267, 6.700000000000001066, 0.6999999999999999556 ) ;
#305 = PERSON_AND_ORGANIZATION_ROLE ( 'design_owner' ) ;
#306 = ADVANCED_FACE ( 'NONE', ( #124 ), #304, .F. ) ;
#307 = DIRECTION ( 'NONE',  ( 1.000000000000000000, 0.000000000000000000, 0.000000000000000000 ) ) ;
#308 = ADVANCED_FACE ( 'NONE', ( #330 ), #335, .T. ) ;
#309 = PERSON_AND_ORGANIZATION_ROLE ( 'creator' ) ;
#310 = CARTESIAN_POINT ( 'NONE',  ( 6.700000000000001066, 0.000000000000000000, 7.700000000000040146 ) ) ;
#311 = ORIENTED_EDGE ( 'NONE', *, *, #322, .F. ) ;
#312 = CIRCLE ( 'NONE', #177, 6.700000000000001066 ) ;
#313 = CC_DESIGN_APPROVAL ( #299, ( #77 ) ) ;
#314 = ORIENTED_EDGE ( 'NONE', *, *, #93, .F. ) ;
#315 = CARTESIAN_POINT ( 'NONE',  ( 4.099999999999999645, 5.021051876504147385E-16, 807.0000000000000000 ) ) ;
#316 = EDGE_LOOP ( 'NONE', ( #78, #113, #108, #197 ) ) ;
#317 = AXIS2_PLACEMENT_3D ( 'NONE', #65, #321, #175 ) ;
#318 = EDGE_CURVE ( 'NONE', #53, #114, #218, .T. ) ;
#319 = SECURITY_CLASSIFICATION ( '', '', #227 ) ;
#320 = DIRECTION ( 'NONE',  ( 0.000000000000000000, 0.000000000000000000, 1.000000000000000000 ) ) ;
#321 = DIRECTION ( 'NONE',  ( 0.000000000000000000, 0.000000000000000000, 1.000000000000000000 ) ) ;
#322 = EDGE_CURVE ( 'NONE', #351, #32, #56, .T. ) ;
#323 = ORIENTED_EDGE ( 'NONE', *, *, #193, .T. ) ;
#324 = ADVANCED_FACE ( 'NONE', ( #356 ), #273, .F. ) ;
#325 = VECTOR ( 'NONE', #91, 1000.000000000000000 ) ;
#326 = CC_DESIGN_APPROVAL ( #161, ( #296 ) ) ;
#327 = MANIFOLD_SOLID_BREP ( 'Odebrat vysunutím3', #247 ) ;
#328 = DIRECTION ( 'NONE',  ( 0.000000000000000000, 0.000000000000000000, 1.000000000000000000 ) ) ;
#329 = ORIENTED_EDGE ( 'NONE', *, *, #207, .T. ) ;
#330 = FACE_OUTER_BOUND ( 'NONE', #13, .T. ) ;
#331 = CARTESIAN_POINT ( 'NONE',  ( 0.000000000000000000, 0.000000000000000000, 807.0000000000000000 ) ) ;
#332 = CIRCLE ( 'NONE', #233, 0.7000000000000000666 ) ;
#333 = CARTESIAN_POINT ( 'NONE',  ( -6.700000000000001066, 8.205133554287267548E-16, 7.000000000000020428 ) ) ;
#334 = ORIENTED_EDGE ( 'NONE', *, *, #157, .F. ) ;
#335 = CYLINDRICAL_SURFACE ( 'NONE', #338, 6.000000000000000888 ) ;
#336 = APPLICATION_PROTOCOL_DEFINITION ( 'international standard', 'config_control_design', 1994, #89 ) ;
#337 = CARTESIAN_POINT ( 'NONE',  ( 0.000000000000000000, 0.000000000000000000, 807.0000000000000000 ) ) ;
#338 = AXIS2_PLACEMENT_3D ( 'NONE', #179, #274, #7 ) ;
#339 = ORIENTED_EDGE ( 'NONE', *, *, #110, .F. ) ;
#340 = APPROVAL_DATE_TIME ( #344, #161 ) ;
#341 = EDGE_LOOP ( 'NONE', ( #329, #138 ) ) ;
#342 = UNCERTAINTY_MEASURE_WITH_UNIT (LENGTH_MEASURE( 1.000000000000000082E-05 ), #194, 'distance_accuracy_value', 'NONE');
#343 = DATE_AND_TIME ( #249, #358 ) ;
#344 = DATE_AND_TIME ( #131, #167 ) ;
#345 = ORIENTED_EDGE ( 'NONE', *, *, #253, .F. ) ;
#346 = AXIS2_PLACEMENT_3D ( 'NONE', #39, #95, #118 ) ;
#347 = PERSON_AND_ORGANIZATION_ROLE ( 'design_supplier' ) ;
#348 = DIRECTION ( 'NONE',  ( 0.000000000000000000, 0.000000000000000000, 1.000000000000000000 ) ) ;
#349 = CALENDAR_DATE ( 2022, 8, 7 ) ;
#350 = CYLINDRICAL_SURFACE ( 'NONE', #111, 10.00000000000000000 ) ;
#351 = VERTEX_POINT ( 'NONE', #92 ) ;
#352 = CARTESIAN_POINT ( 'NONE',  ( 4.099999999999999645, 5.021051876504147385E-16, 0.000000000000000000 ) ) ;
#353 = DIRECTION ( 'NONE',  ( 1.000000000000000000, 0.000000000000000000, 0.000000000000000000 ) ) ;
#354 = CYLINDRICAL_SURFACE ( 'NONE', #288, 6.000000000000000888 ) ;
#355 = ORIENTED_EDGE ( 'NONE', *, *, #230, .T. ) ;
#356 = FACE_OUTER_BOUND ( 'NONE', #150, .T. ) ;
#357 = DIRECTION ( 'NONE',  ( -1.000000000000000000, 0.000000000000000000, 0.000000000000000000 ) ) ;
#358 = LOCAL_TIME ( 16, 32, 32.00000000000000000, #222 ) ;
#359 = APPROVAL_STATUS ( 'not_yet_approved' ) ;
#360 = DIRECTION ( 'NONE',  ( 1.000000000000000000, 0.000000000000000000, -0.000000000000000000 ) ) ;
#361 = VERTEX_POINT ( 'NONE', #67 ) ;
#362 = CALENDAR_DATE ( 2022, 8, 7 ) ;
#363 = VECTOR ( 'NONE', #155, 1000.000000000000000 ) ;
#364 = CARTESIAN_POINT ( 'NONE',  ( 0.000000000000000000, 0.000000000000000000, 7.000000000000000000 ) ) ;
#365 = ORIENTED_EDGE ( 'NONE', *, *, #266, .T. ) ;
#366 =( NAMED_UNIT ( * ) PLANE_ANGLE_UNIT ( ) SI_UNIT ( $, .RADIAN. ) );
#367 = EDGE_CURVE ( 'NONE', #370, #5, #255, .T. ) ;
#368 = PERSON_AND_ORGANIZATION ( #128, #112 ) ;
#369 = DIRECTION ( 'NONE',  ( 0.000000000000000000, 0.000000000000000000, -1.000000000000000000 ) ) ;
#370 = VERTEX_POINT ( 'NONE', #188 ) ;
#371 = ORIENTED_EDGE ( 'NONE', *, *, #318, .F. ) ;
#372 = VECTOR ( 'NONE', #20, 1000.000000000000000 ) ;
#373 = APPROVAL_DATE_TIME ( #62, #14 ) ;
#374 = LINE ( 'NONE', #315, #239 ) ;
#375 = APPROVAL_STATUS ( 'not_yet_approved' ) ;
#376 = DIRECTION ( 'NONE',  ( 1.000000000000000000, 0.000000000000000000, 0.000000000000000000 ) ) ;
#377 = CC_DESIGN_DATE_AND_TIME_ASSIGNMENT ( #170, #86, ( #319 ) ) ;
#378 = ADVANCED_FACE ( 'NONE', ( #219 ), #135, .T. ) ;
#379 = CIRCLE ( 'NONE', #82, 10.00000000000000000 ) ;
#380 = FACE_OUTER_BOUND ( 'NONE', #241, .T. ) ;
#381 = CARTESIAN_POINT ( 'NONE',  ( -10.00000000000000000, 0.000000000000000000, 7.000000000000000000 ) ) ;
ENDSEC;
END-ISO-10303-21;
