ISO-10303-21;
HEADER;
FILE_DESCRIPTION (( 'STEP AP203' ),
    '1' );
FILE_NAME ('e2af.STEP',
    '2022-07-08T15:32:01',
    ( '' ),
    ( '' ),
    'SwSTEP 2.0',
    'SolidWorks 2019',
    '' );
FILE_SCHEMA (( 'CONFIG_CONTROL_DESIGN' ));
ENDSEC;

DATA;
#1 = PERSON_AND_ORGANIZATION ( #101, #123 ) ;
#2 = CARTESIAN_POINT ( 'NONE',  ( 0.000000000000000000, 0.000000000000000000, 5.000000000000000000 ) ) ;
#3 = CALENDAR_DATE ( 2022, 8, 7 ) ;
#4 = ORIENTED_EDGE ( 'NONE', *, *, #65, .F. ) ;
#5 =( GEOMETRIC_REPRESENTATION_CONTEXT ( 3 ) GLOBAL_UNCERTAINTY_ASSIGNED_CONTEXT ( ( #192 ) ) GLOBAL_UNIT_ASSIGNED_CONTEXT ( ( #302, #7, #64 ) ) REPRESENTATION_CONTEXT ( 'NONE', 'WORKASPACE' ) );
#6 = ORIENTED_EDGE ( 'NONE', *, *, #85, .F. ) ;
#7 =( NAMED_UNIT ( * ) PLANE_ANGLE_UNIT ( ) SI_UNIT ( $, .RADIAN. ) );
#8 = ORIENTED_EDGE ( 'NONE', *, *, #359, .T. ) ;
#9 = APPLICATION_PROTOCOL_DEFINITION ( 'international standard', 'config_control_design', 1994, #165 ) ;
#10 = CIRCLE ( 'NONE', #264, 7.000000000000000000 ) ;
#11 = ORIENTED_EDGE ( 'NONE', *, *, #359, .F. ) ;
#12 = CIRCLE ( 'NONE', #310, 0.5000000000000004441 ) ;
#13 = PRODUCT ( 'e2af', 'e2af', '', ( #39 ) ) ;
#14 = VERTEX_POINT ( 'NONE', #160 ) ;
#15 = DIRECTION ( 'NONE',  ( 0.000000000000000000, 0.000000000000000000, 1.000000000000000000 ) ) ;
#16 = DIRECTION ( 'NONE',  ( 1.000000000000000000, 0.000000000000000000, 0.000000000000000000 ) ) ;
#17 = PERSON_AND_ORGANIZATION_ROLE ( 'creator' ) ;
#18 = EDGE_CURVE ( 'NONE', #132, #61, #300, .T. ) ;
#19 = AXIS2_PLACEMENT_3D ( 'NONE', #140, #88, #320 ) ;
#20 = CARTESIAN_POINT ( 'NONE',  ( 0.000000000000000000, 0.000000000000000000, 165.0000000000000000 ) ) ;
#21 = AXIS2_PLACEMENT_3D ( 'NONE', #248, #188, #371 ) ;
#22 = FACE_OUTER_BOUND ( 'NONE', #146, .T. ) ;
#23 = VECTOR ( 'NONE', #337, 1000.000000000000000 ) ;
#24 = ORIENTED_EDGE ( 'NONE', *, *, #97, .F. ) ;
#25 = DATE_TIME_ROLE ( 'creation_date' ) ;
#26 = DIRECTION ( 'NONE',  ( 0.000000000000000000, 0.000000000000000000, 1.000000000000000000 ) ) ;
#27 = CARTESIAN_POINT ( 'NONE',  ( 0.000000000000000000, 0.000000000000000000, 165.0000000000000000 ) ) ;
#28 = APPROVAL_DATE_TIME ( #143, #282 ) ;
#29 = PRODUCT_RELATED_PRODUCT_CATEGORY ( 'detail', '', ( #13 ) ) ;
#30 = DIRECTION ( 'NONE',  ( 1.000000000000000000, 0.000000000000000000, 0.000000000000000000 ) ) ;
#31 = VERTEX_POINT ( 'NONE', #283 ) ;
#32 = CARTESIAN_POINT ( 'NONE',  ( 0.000000000000000000, 0.000000000000000000, 5.500000000000005329 ) ) ;
#33 = APPROVAL_ROLE ( '' ) ;
#34 = VERTEX_POINT ( 'NONE', #130 ) ;
#35 = DIRECTION ( 'NONE',  ( -0.000000000000000000, -0.000000000000000000, -1.000000000000000000 ) ) ;
#36 = ORIENTED_EDGE ( 'NONE', *, *, #65, .T. ) ;
#37 = EDGE_CURVE ( 'NONE', #14, #331, #343, .T. ) ;
#38 = ORIENTED_EDGE ( 'NONE', *, *, #136, .T. ) ;
#39 = MECHANICAL_CONTEXT ( 'NONE', #165, 'mechanical' ) ;
#40 = ORIENTED_EDGE ( 'NONE', *, *, #379, .F. ) ;
#41 = PLANE ( 'NONE',  #351 ) ;
#42 = DIRECTION ( 'NONE',  ( -0.000000000000000000, -0.000000000000000000, -1.000000000000000000 ) ) ;
#43 = CYLINDRICAL_SURFACE ( 'NONE', #303, 7.000000000000000000 ) ;
#44 = APPLICATION_PROTOCOL_DEFINITION ( 'international standard', 'config_control_design', 1994, #271 ) ;
#45 = ORIENTED_EDGE ( 'NONE', *, *, #250, .T. ) ;
#46 = ORIENTED_EDGE ( 'NONE', *, *, #277, .F. ) ;
#47 = DIRECTION ( 'NONE',  ( -0.000000000000000000, -0.000000000000000000, -1.000000000000000000 ) ) ;
#48 = AXIS2_PLACEMENT_3D ( 'NONE', #20, #333, #372 ) ;
#49 = EDGE_CURVE ( 'NONE', #31, #240, #375, .T. ) ;
#50 = CARTESIAN_POINT ( 'NONE',  ( -4.000000000000000000, 0.000000000000000000, 165.0000000000000000 ) ) ;
#51 = CARTESIAN_POINT ( 'NONE',  ( 0.000000000000000000, 0.000000000000000000, 5.000000000000000000 ) ) ;
#52 = PERSON_AND_ORGANIZATION ( #101, #123 ) ;
#53 = EDGE_CURVE ( 'NONE', #122, #362, #10, .T. ) ;
#54 = TOROIDAL_SURFACE ( 'NONE', #336, 4.500000000000000888, 0.5000000000000000000 ) ;
#55 = CYLINDRICAL_SURFACE ( 'NONE', #109, 7.000000000000000000 ) ;
#56 = ORIENTED_EDGE ( 'NONE', *, *, #78, .F. ) ;
#57 = FACE_BOUND ( 'NONE', #148, .T. ) ;
#58 = PERSON_AND_ORGANIZATION_ROLE ( 'creator' ) ;
#59 = AXIS2_PLACEMENT_3D ( 'NONE', #104, #42, #244 ) ;
#60 = DIRECTION ( 'NONE',  ( 0.000000000000000000, 0.000000000000000000, 1.000000000000000000 ) ) ;
#61 = VERTEX_POINT ( 'NONE', #308 ) ;
#62 = CIRCLE ( 'NONE', #377, 4.000000000000000000 ) ;
#63 = AXIS2_PLACEMENT_3D ( 'NONE', #51, #292, #184 ) ;
#64 =( NAMED_UNIT ( * ) SI_UNIT ( $, .STERADIAN. ) SOLID_ANGLE_UNIT ( ) );
#65 = EDGE_CURVE ( 'NONE', #331, #219, #129, .T. ) ;
#66 = ORIENTED_EDGE ( 'NONE', *, *, #49, .F. ) ;
#67 = ADVANCED_FACE ( 'NONE', ( #311 ), #221, .T. ) ;
#68 = CYLINDRICAL_SURFACE ( 'NONE', #159, 2.000000000000000000 ) ;
#69 = LINE ( 'NONE', #185, #23 ) ;
#70 = DIRECTION ( 'NONE',  ( -0.000000000000000000, -0.000000000000000000, -1.000000000000000000 ) ) ;
#71 = ORIENTED_EDGE ( 'NONE', *, *, #78, .T. ) ;
#72 = ADVANCED_FACE ( 'NONE', ( #246, #340 ), #74, .T. ) ;
#73 = CC_DESIGN_PERSON_AND_ORGANIZATION_ASSIGNMENT ( #370, #17, ( #105 ) ) ;
#74 = PLANE ( 'NONE',  #280 ) ;
#75 = LOCAL_TIME ( 17, 32, 1.000000000000000000, #201 ) ;
#76 = CARTESIAN_POINT ( 'NONE',  ( 4.000000000000000000, 4.898587196589412829E-16, 165.0000000000000000 ) ) ;
#77 = VECTOR ( 'NONE', #35, 1000.000000000000000 ) ;
#78 = EDGE_CURVE ( 'NONE', #219, #190, #366, .T. ) ;
#79 = DIRECTION ( 'NONE',  ( -0.000000000000000000, -0.000000000000000000, -1.000000000000000000 ) ) ;
#80 = CARTESIAN_POINT ( 'NONE',  ( 4.000000000000000000, 4.898587196589412829E-16, 165.0000000000000000 ) ) ;
#81 = CALENDAR_DATE ( 2022, 8, 7 ) ;
#82 = CARTESIAN_POINT ( 'NONE',  ( 7.000000000000000000, 8.572527594031473190E-16, 5.000000000000000000 ) ) ;
#83 = AXIS2_PLACEMENT_3D ( 'NONE', #286, #380, #30 ) ;
#84 = CIRCLE ( 'NONE', #100, 0.5000000000000004441 ) ;
#85 = EDGE_CURVE ( 'NONE', #240, #158, #304, .T. ) ;
#86 = DIRECTION ( 'NONE',  ( -0.000000000000000000, -0.000000000000000000, -1.000000000000000000 ) ) ;
#87 = ORIENTED_EDGE ( 'NONE', *, *, #107, .F. ) ;
#88 = DIRECTION ( 'NONE',  ( 0.000000000000000000, 0.000000000000000000, -1.000000000000000000 ) ) ;
#89 = MANIFOLD_SOLID_BREP ( 'Odebrat vysunutím3', #214 ) ;
#90 = EDGE_LOOP ( 'NONE', ( #149, #242 ) ) ;
#91 = CARTESIAN_POINT ( 'NONE',  ( 0.000000000000000000, 0.000000000000000000, 165.0000000000000000 ) ) ;
#92 = EDGE_LOOP ( 'NONE', ( #115, #11, #45, #243 ) ) ;
#93 = EDGE_CURVE ( 'NONE', #34, #211, #205, .T. ) ;
#94 = DIRECTION ( 'NONE',  ( 1.000000000000000000, 0.000000000000000000, 0.000000000000000000 ) ) ;
#95 = DIRECTION ( 'NONE',  ( 1.000000000000000000, 0.000000000000000000, 0.000000000000000000 ) ) ;
#96 = CARTESIAN_POINT ( 'NONE',  ( -4.000000000000000000, 0.000000000000000000, 5.500000000000005329 ) ) ;
#97 = EDGE_CURVE ( 'NONE', #122, #132, #69, .T. ) ;
#98 = DIRECTION ( 'NONE',  ( 0.000000000000000000, 0.000000000000000000, 1.000000000000000000 ) ) ;
#99 = CARTESIAN_POINT ( 'NONE',  ( -7.000000000000000000, 0.000000000000000000, 5.000000000000000000 ) ) ;
#100 = AXIS2_PLACEMENT_3D ( 'NONE', #335, #127, #218 ) ;
#101 = PERSON ( 'NEURÈENÝ', 'NEURÈENÝ', 'NEURÈENÝ', ('NEURÈENÝ'), ('NEURÈENÝ'), ('NEURÈENÝ') ) ;
#102 = APPROVAL_DATE_TIME ( #281, #360 ) ;
#103 = CARTESIAN_POINT ( 'NONE',  ( 2.000000000000000000, 2.449293598294706414E-16, 165.0000000000000000 ) ) ;
#104 = CARTESIAN_POINT ( 'NONE',  ( 0.000000000000000000, 0.000000000000000000, 165.0000000000000000 ) ) ;
#105 = PRODUCT_DEFINITION ( 'NEZNÁMÝ', '', #314, #347 ) ;
#106 = CIRCLE ( 'NONE', #378, 4.000000000000000000 ) ;
#107 = EDGE_CURVE ( 'NONE', #331, #14, #313, .T. ) ;
#108 = CYLINDRICAL_SURFACE ( 'NONE', #273, 4.000000000000000000 ) ;
#109 = AXIS2_PLACEMENT_3D ( 'NONE', #2, #137, #322 ) ;
#110 = APPROVAL_STATUS ( 'not_yet_approved' ) ;
#111 = CC_DESIGN_PERSON_AND_ORGANIZATION_ASSIGNMENT ( #125, #245, ( #13 ) ) ;
#112 = CARTESIAN_POINT ( 'NONE',  ( -4.500000000000000888, 5.510910596163088569E-16, 5.000000000000002665 ) ) ;
#113 = EDGE_CURVE ( 'NONE', #31, #294, #348, .T. ) ;
#114 = DIRECTION ( 'NONE',  ( 0.000000000000000000, 0.000000000000000000, 1.000000000000000000 ) ) ;
#115 = ORIENTED_EDGE ( 'NONE', *, *, #290, .F. ) ;
#116 = CALENDAR_DATE ( 2022, 8, 7 ) ;
#117 = ORIENTED_EDGE ( 'NONE', *, *, #37, .T. ) ;
#118 = CARTESIAN_POINT ( 'NONE',  ( 0.000000000000000000, 0.000000000000000000, 0.000000000000000000 ) ) ;
#119 = DATE_TIME_ROLE ( 'classification_date' ) ;
#120 = ORIENTED_EDGE ( 'NONE', *, *, #180, .T. ) ;
#121 = EDGE_CURVE ( 'NONE', #240, #31, #62, .T. ) ;
#122 = VERTEX_POINT ( 'NONE', #82 ) ;
#123 = ORGANIZATION ( 'NEURÈENÝ', 'NEURÈENÝ', '' ) ;
#124 = ORIENTED_EDGE ( 'NONE', *, *, #287, .T. ) ;
#125 = PERSON_AND_ORGANIZATION ( #101, #123 ) ;
#126 = CARTESIAN_POINT ( 'NONE',  ( 0.000000000000000000, 0.000000000000000000, 5.000000000000000000 ) ) ;
#127 = DIRECTION ( 'NONE',  ( 1.224646799147353207E-16, 1.000000000000000000, -0.000000000000000000 ) ) ;
#128 = PERSON_AND_ORGANIZATION ( #101, #123 ) ;
#129 = LINE ( 'NONE', #103, #312 ) ;
#130 = CARTESIAN_POINT ( 'NONE',  ( 4.500000000000000888, 0.000000000000000000, 5.000000000000002665 ) ) ;
#131 = AXIS2_PLACEMENT_3D ( 'NONE', #361, #357, #94 ) ;
#132 = VERTEX_POINT ( 'NONE', #289 ) ;
#133 = FACE_OUTER_BOUND ( 'NONE', #252, .T. ) ;
#134 = CARTESIAN_POINT ( 'NONE',  ( 0.000000000000000000, 0.000000000000000000, 165.0000000000000000 ) ) ;
#135 = CC_DESIGN_APPROVAL ( #230, ( #183 ) ) ;
#136 = EDGE_CURVE ( 'NONE', #190, #219, #255, .T. ) ;
#137 = DIRECTION ( 'NONE',  ( -0.000000000000000000, -0.000000000000000000, -1.000000000000000000 ) ) ;
#138 = PERSON_AND_ORGANIZATION ( #101, #123 ) ;
#139 = ADVANCED_FACE ( 'NONE', ( #22 ), #200, .F. ) ;
#140 = CARTESIAN_POINT ( 'NONE',  ( 0.000000000000000000, 0.000000000000000000, 165.0000000000000000 ) ) ;
#141 = ORIENTED_EDGE ( 'NONE', *, *, #107, .T. ) ;
#142 = CARTESIAN_POINT ( 'NONE',  ( 0.000000000000000000, 0.000000000000000000, 5.500000000000005329 ) ) ;
#143 = DATE_AND_TIME ( #81, #75 ) ;
#144 = APPROVAL_PERSON_ORGANIZATION ( #238, #282, #33 ) ;
#145 = CC_DESIGN_APPROVAL ( #360, ( #105 ) ) ;
#146 = EDGE_LOOP ( 'NONE', ( #4, #141, #299, #38 ) ) ;
#147 = ADVANCED_FACE ( 'NONE', ( #197 ), #162, .F. ) ;
#148 = EDGE_LOOP ( 'NONE', ( #274, #56 ) ) ;
#149 = ORIENTED_EDGE ( 'NONE', *, *, #253, .T. ) ;
#150 = CARTESIAN_POINT ( 'NONE',  ( 0.000000000000000000, 0.000000000000000000, 165.0000000000000000 ) ) ;
#151 = VECTOR ( 'NONE', #86, 1000.000000000000000 ) ;
#152 = LOCAL_TIME ( 17, 32, 1.000000000000000000, #220 ) ;
#153 = LINE ( 'NONE', #275, #77 ) ;
#154 = DIRECTION ( 'NONE',  ( 0.000000000000000000, 0.000000000000000000, 1.000000000000000000 ) ) ;
#155 = DIRECTION ( 'NONE',  ( -0.000000000000000000, -0.000000000000000000, -1.000000000000000000 ) ) ;
#156 = ORIENTED_EDGE ( 'NONE', *, *, #49, .T. ) ;
#157 = CALENDAR_DATE ( 2022, 8, 7 ) ;
#158 = VERTEX_POINT ( 'NONE', #227 ) ;
#159 = AXIS2_PLACEMENT_3D ( 'NONE', #150, #305, #212 ) ;
#160 = CARTESIAN_POINT ( 'NONE',  ( -2.000000000000000000, 0.000000000000000000, 165.0000000000000000 ) ) ;
#161 = DIRECTION ( 'NONE',  ( -0.000000000000000000, -0.000000000000000000, -1.000000000000000000 ) ) ;
#162 = TOROIDAL_SURFACE ( 'NONE', #288, 4.500000000000000888, 0.5000000000000000000 ) ;
#163 = APPROVAL_ROLE ( '' ) ;
#164 = SHAPE_DEFINITION_REPRESENTATION ( #334, #291 ) ;
#165 = APPLICATION_CONTEXT ( 'configuration controlled 3d designs of mechanical parts and assemblies' ) ;
#166 = CARTESIAN_POINT ( 'NONE',  ( 0.000000000000000000, 0.000000000000000000, 0.000000000000000000 ) ) ;
#167 = ORIENTED_EDGE ( 'NONE', *, *, #236, .F. ) ;
#168 = PLANE ( 'NONE',  #173 ) ;
#169 = APPROVAL_DATE_TIME ( #356, #230 ) ;
#170 = ORIENTED_EDGE ( 'NONE', *, *, #93, .F. ) ;
#171 = LINE ( 'NONE', #247, #368 ) ;
#172 = ADVANCED_FACE ( 'NONE', ( #57, #325 ), #168, .F. ) ;
#173 = AXIS2_PLACEMENT_3D ( 'NONE', #166, #237, #263 ) ;
#174 = EDGE_LOOP ( 'NONE', ( #339, #270 ) ) ;
#175 = ORIENTED_EDGE ( 'NONE', *, *, #37, .F. ) ;
#176 = DIRECTION ( 'NONE',  ( 1.000000000000000000, 0.000000000000000000, 0.000000000000000000 ) ) ;
#177 = ADVANCED_FACE ( 'NONE', ( #133 ), #55, .T. ) ;
#178 = EDGE_LOOP ( 'NONE', ( #156, #321 ) ) ;
#179 = AXIS2_PLACEMENT_3D ( 'NONE', #182, #98, #285 ) ;
#180 = EDGE_CURVE ( 'NONE', #61, #132, #374, .T. ) ;
#181 = DIRECTION ( 'NONE',  ( -1.000000000000000000, 0.000000000000000000, 0.000000000000000000 ) ) ;
#182 = CARTESIAN_POINT ( 'NONE',  ( 0.000000000000000000, 0.000000000000000000, 0.000000000000000000 ) ) ;
#183 = SECURITY_CLASSIFICATION ( '', '', #262 ) ;
#184 = DIRECTION ( 'NONE',  ( 1.000000000000000000, 0.000000000000000000, 0.000000000000000000 ) ) ;
#185 = CARTESIAN_POINT ( 'NONE',  ( 7.000000000000000000, 8.572527594031473190E-16, 5.000000000000000000 ) ) ;
#186 = APPROVAL_ROLE ( '' ) ;
#187 = DIRECTION ( 'NONE',  ( 0.000000000000000000, 0.000000000000000000, 1.000000000000000000 ) ) ;
#188 = DIRECTION ( 'NONE',  ( 0.000000000000000000, 0.000000000000000000, 1.000000000000000000 ) ) ;
#189 = APPROVAL_PERSON_ORGANIZATION ( #52, #230, #163 ) ;
#190 = VERTEX_POINT ( 'NONE', #295 ) ;
#191 = AXIS2_PLACEMENT_3D ( 'NONE', #367, #70, #341 ) ;
#192 = UNCERTAINTY_MEASURE_WITH_UNIT (LENGTH_MEASURE( 1.000000000000000082E-05 ), #302, 'distance_accuracy_value', 'NONE');
#193 = ADVANCED_FACE ( 'NONE', ( #381 ), #54, .F. ) ;
#194 = DIRECTION ( 'NONE',  ( 1.000000000000000000, 0.000000000000000000, 0.000000000000000000 ) ) ;
#195 = APPROVAL_STATUS ( 'not_yet_approved' ) ;
#196 = DIRECTION ( 'NONE',  ( 0.000000000000000000, -1.000000000000000000, 0.000000000000000000 ) ) ;
#197 = FACE_OUTER_BOUND ( 'NONE', #92, .T. ) ;
#198 = CC_DESIGN_SECURITY_CLASSIFICATION ( #183, ( #314 ) ) ;
#199 = EDGE_LOOP ( 'NONE', ( #267, #124 ) ) ;
#200 = CYLINDRICAL_SURFACE ( 'NONE', #19, 2.000000000000000000 ) ;
#201 = COORDINATED_UNIVERSAL_TIME_OFFSET ( 1, 0, .AHEAD. ) ;
#202 = ORIENTED_EDGE ( 'NONE', *, *, #253, .F. ) ;
#203 = CARTESIAN_POINT ( 'NONE',  ( 0.000000000000000000, 0.000000000000000000, 5.500000000000005329 ) ) ;
#204 = DATE_AND_TIME ( #116, #234 ) ;
#205 = CIRCLE ( 'NONE', #256, 4.500000000000000888 ) ;
#206 = CC_DESIGN_PERSON_AND_ORGANIZATION_ASSIGNMENT ( #1, #323, ( #183 ) ) ;
#207 = FACE_OUTER_BOUND ( 'NONE', #329, .T. ) ;
#208 = AXIS2_PLACEMENT_3D ( 'NONE', #210, #363, #176 ) ;
#209 = EDGE_LOOP ( 'NONE', ( #167, #269, #170, #301 ) ) ;
#210 = CARTESIAN_POINT ( 'NONE',  ( 0.000000000000000000, 0.000000000000000000, 0.000000000000000000 ) ) ;
#211 = VERTEX_POINT ( 'NONE', #112 ) ;
#212 = DIRECTION ( 'NONE',  ( -1.000000000000000000, 0.000000000000000000, 0.000000000000000000 ) ) ;
#213 = EDGE_LOOP ( 'NONE', ( #298, #265, #8, #235 ) ) ;
#214 = CLOSED_SHELL ( 'NONE', ( #316, #193, #224, #177, #328, #72, #172, #67, #342, #147, #139 ) ) ;
#215 = DIRECTION ( 'NONE',  ( 0.000000000000000000, 0.000000000000000000, 1.000000000000000000 ) ) ;
#216 = DIRECTION ( 'NONE',  ( 1.000000000000000000, 0.000000000000000000, 0.000000000000000000 ) ) ;
#217 = CIRCLE ( 'NONE', #131, 4.500000000000000888 ) ;
#218 = DIRECTION ( 'NONE',  ( -1.000000000000000000, 1.224646799147351482E-16, 0.000000000000000000 ) ) ;
#219 = VERTEX_POINT ( 'NONE', #233 ) ;
#220 = COORDINATED_UNIVERSAL_TIME_OFFSET ( 1, 0, .AHEAD. ) ;
#221 = CYLINDRICAL_SURFACE ( 'NONE', #59, 4.000000000000000000 ) ;
#222 = CARTESIAN_POINT ( 'NONE',  ( 0.000000000000000000, 0.000000000000000000, 5.000000000000000000 ) ) ;
#223 = CIRCLE ( 'NONE', #63, 7.000000000000000000 ) ;
#224 = ADVANCED_FACE ( 'NONE', ( #376 ), #108, .T. ) ;
#225 = AXIS2_PLACEMENT_3D ( 'NONE', #306, #279, #16 ) ;
#226 = AXIS2_PLACEMENT_3D ( 'NONE', #32, #352, #229 ) ;
#227 = CARTESIAN_POINT ( 'NONE',  ( 4.000000000000000000, 4.898587196589412829E-16, 5.500000000000005329 ) ) ;
#228 = PERSON_AND_ORGANIZATION ( #101, #123 ) ;
#229 = DIRECTION ( 'NONE',  ( 1.000000000000000000, 0.000000000000000000, 0.000000000000000000 ) ) ;
#230 = APPROVAL ( #110, 'NEURÈENÝ' ) ;
#231 = CARTESIAN_POINT ( 'NONE',  ( 4.500000000000000888, 0.000000000000000000, 5.500000000000005329 ) ) ;
#232 = ORIENTED_EDGE ( 'NONE', *, *, #97, .T. ) ;
#233 = CARTESIAN_POINT ( 'NONE',  ( 2.000000000000000000, 2.449293598294706414E-16, 0.000000000000000000 ) ) ;
#234 = LOCAL_TIME ( 17, 32, 1.000000000000000000, #318 ) ;
#235 = ORIENTED_EDGE ( 'NONE', *, *, #113, .F. ) ;
#236 = EDGE_CURVE ( 'NONE', #294, #158, #249, .T. ) ;
#237 = DIRECTION ( 'NONE',  ( 0.000000000000000000, 0.000000000000000000, 1.000000000000000000 ) ) ;
#238 = PERSON_AND_ORGANIZATION ( #101, #123 ) ;
#239 = CC_DESIGN_DATE_AND_TIME_ASSIGNMENT ( #353, #25, ( #105 ) ) ;
#240 = VERTEX_POINT ( 'NONE', #80 ) ;
#241 = FACE_OUTER_BOUND ( 'NONE', #178, .T. ) ;
#242 = ORIENTED_EDGE ( 'NONE', *, *, #53, .T. ) ;
#243 = ORIENTED_EDGE ( 'NONE', *, *, #287, .F. ) ;
#244 = DIRECTION ( 'NONE',  ( -1.000000000000000000, 0.000000000000000000, 0.000000000000000000 ) ) ;
#245 = PERSON_AND_ORGANIZATION_ROLE ( 'design_owner' ) ;
#246 = FACE_BOUND ( 'NONE', #199, .T. ) ;
#247 = CARTESIAN_POINT ( 'NONE',  ( -2.000000000000000000, 0.000000000000000000, 165.0000000000000000 ) ) ;
#248 = CARTESIAN_POINT ( 'NONE',  ( 0.000000000000000000, 0.000000000000000000, 165.0000000000000000 ) ) ;
#249 = CIRCLE ( 'NONE', #226, 4.000000000000000000 ) ;
#250 = EDGE_CURVE ( 'NONE', #158, #34, #12, .T. ) ;
#251 = APPROVAL_STATUS ( 'not_yet_approved' ) ;
#252 = EDGE_LOOP ( 'NONE', ( #327, #232, #309, #40 ) ) ;
#253 = EDGE_CURVE ( 'NONE', #362, #122, #223, .T. ) ;
#254 = DIRECTION ( 'NONE',  ( 0.000000000000000000, 0.000000000000000000, -1.000000000000000000 ) ) ;
#255 = CIRCLE ( 'NONE', #83, 2.000000000000000000 ) ;
#256 = AXIS2_PLACEMENT_3D ( 'NONE', #276, #161, #95 ) ;
#257 = DIRECTION ( 'NONE',  ( 1.000000000000000000, 0.000000000000000000, 0.000000000000000000 ) ) ;
#258 = CALENDAR_DATE ( 2022, 8, 7 ) ;
#259 = AXIS2_PLACEMENT_3D ( 'NONE', #118, #26, #257 ) ;
#260 = DIRECTION ( 'NONE',  ( -1.000000000000000000, 0.000000000000000000, 0.000000000000000000 ) ) ;
#261 = CC_DESIGN_DATE_AND_TIME_ASSIGNMENT ( #204, #119, ( #183 ) ) ;
#262 = SECURITY_CLASSIFICATION_LEVEL ( 'unclassified' ) ;
#263 = DIRECTION ( 'NONE',  ( 1.000000000000000000, 0.000000000000000000, -0.000000000000000000 ) ) ;
#264 = AXIS2_PLACEMENT_3D ( 'NONE', #126, #187, #216 ) ;
#265 = ORIENTED_EDGE ( 'NONE', *, *, #85, .T. ) ;
#266 = PERSON_AND_ORGANIZATION_ROLE ( 'design_supplier' ) ;
#267 = ORIENTED_EDGE ( 'NONE', *, *, #93, .T. ) ;
#268 = DIRECTION ( 'NONE',  ( 1.000000000000000000, 0.000000000000000000, -0.000000000000000000 ) ) ;
#269 = ORIENTED_EDGE ( 'NONE', *, *, #290, .T. ) ;
#270 = ORIENTED_EDGE ( 'NONE', *, *, #18, .F. ) ;
#271 = APPLICATION_CONTEXT ( 'configuration controlled 3d designs of mechanical parts and assemblies' ) ;
#272 = CARTESIAN_POINT ( 'NONE',  ( 0.000000000000000000, 0.000000000000000000, 5.500000000000005329 ) ) ;
#273 = AXIS2_PLACEMENT_3D ( 'NONE', #134, #79, #260 ) ;
#274 = ORIENTED_EDGE ( 'NONE', *, *, #136, .F. ) ;
#275 = CARTESIAN_POINT ( 'NONE',  ( -7.000000000000000000, 0.000000000000000000, 5.000000000000000000 ) ) ;
#276 = CARTESIAN_POINT ( 'NONE',  ( 0.000000000000000000, 0.000000000000000000, 5.000000000000000000 ) ) ;
#277 = EDGE_CURVE ( 'NONE', #14, #190, #171, .T. ) ;
#278 = FACE_BOUND ( 'NONE', #324, .T. ) ;
#279 = DIRECTION ( 'NONE',  ( 0.000000000000000000, 0.000000000000000000, 1.000000000000000000 ) ) ;
#280 = AXIS2_PLACEMENT_3D ( 'NONE', #222, #154, #364 ) ;
#281 = DATE_AND_TIME ( #157, #315 ) ;
#282 = APPROVAL ( #195, 'NEURÈENÝ' ) ;
#283 = CARTESIAN_POINT ( 'NONE',  ( -4.000000000000000000, 0.000000000000000000, 165.0000000000000000 ) ) ;
#284 = LOCAL_TIME ( 17, 32, 1.000000000000000000, #293 ) ;
#285 = DIRECTION ( 'NONE',  ( 1.000000000000000000, 0.000000000000000000, 0.000000000000000000 ) ) ;
#286 = CARTESIAN_POINT ( 'NONE',  ( 0.000000000000000000, 0.000000000000000000, 0.000000000000000000 ) ) ;
#287 = EDGE_CURVE ( 'NONE', #211, #34, #217, .T. ) ;
#288 = AXIS2_PLACEMENT_3D ( 'NONE', #142, #60, #346 ) ;
#289 = CARTESIAN_POINT ( 'NONE',  ( 7.000000000000000000, 8.572527594031473190E-16, 0.000000000000000000 ) ) ;
#290 = EDGE_CURVE ( 'NONE', #294, #211, #84, .T. ) ;
#291 = ADVANCED_BREP_SHAPE_REPRESENTATION ( 'e2af', ( #89, #208 ), #5 ) ;
#292 = DIRECTION ( 'NONE',  ( 0.000000000000000000, 0.000000000000000000, 1.000000000000000000 ) ) ;
#293 = COORDINATED_UNIVERSAL_TIME_OFFSET ( 1, 0, .AHEAD. ) ;
#294 = VERTEX_POINT ( 'NONE', #96 ) ;
#295 = CARTESIAN_POINT ( 'NONE',  ( -2.000000000000000000, 0.000000000000000000, 0.000000000000000000 ) ) ;
#296 = ORIENTED_EDGE ( 'NONE', *, *, #113, .T. ) ;
#297 = CARTESIAN_POINT ( 'NONE',  ( 2.000000000000000000, 2.449293598294706414E-16, 165.0000000000000000 ) ) ;
#298 = ORIENTED_EDGE ( 'NONE', *, *, #121, .F. ) ;
#299 = ORIENTED_EDGE ( 'NONE', *, *, #277, .T. ) ;
#300 = CIRCLE ( 'NONE', #179, 7.000000000000000000 ) ;
#301 = ORIENTED_EDGE ( 'NONE', *, *, #250, .F. ) ;
#302 =( LENGTH_UNIT ( ) NAMED_UNIT ( * ) SI_UNIT ( .MILLI., .METRE. ) );
#303 = AXIS2_PLACEMENT_3D ( 'NONE', #338, #155, #181 ) ;
#304 = LINE ( 'NONE', #76, #326 ) ;
#305 = DIRECTION ( 'NONE',  ( 0.000000000000000000, 0.000000000000000000, -1.000000000000000000 ) ) ;
#306 = CARTESIAN_POINT ( 'NONE',  ( 0.000000000000000000, 0.000000000000000000, 165.0000000000000000 ) ) ;
#307 = COORDINATED_UNIVERSAL_TIME_OFFSET ( 1, 0, .AHEAD. ) ;
#308 = CARTESIAN_POINT ( 'NONE',  ( -7.000000000000000000, 0.000000000000000000, 0.000000000000000000 ) ) ;
#309 = ORIENTED_EDGE ( 'NONE', *, *, #18, .T. ) ;
#310 = AXIS2_PLACEMENT_3D ( 'NONE', #231, #196, #317 ) ;
#311 = FACE_OUTER_BOUND ( 'NONE', #350, .T. ) ;
#312 = VECTOR ( 'NONE', #254, 1000.000000000000000 ) ;
#313 = CIRCLE ( 'NONE', #225, 2.000000000000000000 ) ;
#314 = PRODUCT_DEFINITION_FORMATION_WITH_SPECIFIED_SOURCE ( 'LIBOVOLNÝ', '', #13, .NOT_KNOWN. ) ;
#315 = LOCAL_TIME ( 17, 32, 1.000000000000000000, #307 ) ;
#316 = ADVANCED_FACE ( 'NONE', ( #207 ), #68, .F. ) ;
#317 = DIRECTION ( 'NONE',  ( 0.000000000000000000, 0.000000000000000000, -1.000000000000000000 ) ) ;
#318 = COORDINATED_UNIVERSAL_TIME_OFFSET ( 1, 0, .AHEAD. ) ;
#319 = APPROVAL_PERSON_ORGANIZATION ( #128, #360, #186 ) ;
#320 = DIRECTION ( 'NONE',  ( -1.000000000000000000, 0.000000000000000000, 0.000000000000000000 ) ) ;
#321 = ORIENTED_EDGE ( 'NONE', *, *, #121, .T. ) ;
#322 = DIRECTION ( 'NONE',  ( -1.000000000000000000, 0.000000000000000000, 0.000000000000000000 ) ) ;
#323 = PERSON_AND_ORGANIZATION_ROLE ( 'classification_officer' ) ;
#324 = EDGE_LOOP ( 'NONE', ( #175, #87 ) ) ;
#325 = FACE_OUTER_BOUND ( 'NONE', #174, .T. ) ;
#326 = VECTOR ( 'NONE', #47, 1000.000000000000000 ) ;
#327 = ORIENTED_EDGE ( 'NONE', *, *, #53, .F. ) ;
#328 = ADVANCED_FACE ( 'NONE', ( #365 ), #43, .T. ) ;
#329 = EDGE_LOOP ( 'NONE', ( #117, #36, #71, #46 ) ) ;
#330 = DIRECTION ( 'NONE',  ( 0.000000000000000000, 0.000000000000000000, -1.000000000000000000 ) ) ;
#331 = VERTEX_POINT ( 'NONE', #297 ) ;
#332 = DIRECTION ( 'NONE',  ( 1.000000000000000000, 0.000000000000000000, 0.000000000000000000 ) ) ;
#333 = DIRECTION ( 'NONE',  ( 0.000000000000000000, 0.000000000000000000, 1.000000000000000000 ) ) ;
#334 = PRODUCT_DEFINITION_SHAPE ( 'NONE', 'NONE',  #105 ) ;
#335 = CARTESIAN_POINT ( 'NONE',  ( -4.500000000000000888, 5.510910596163089556E-16, 5.500000000000005329 ) ) ;
#336 = AXIS2_PLACEMENT_3D ( 'NONE', #203, #114, #355 ) ;
#337 = DIRECTION ( 'NONE',  ( -0.000000000000000000, -0.000000000000000000, -1.000000000000000000 ) ) ;
#338 = CARTESIAN_POINT ( 'NONE',  ( 0.000000000000000000, 0.000000000000000000, 5.000000000000000000 ) ) ;
#339 = ORIENTED_EDGE ( 'NONE', *, *, #180, .F. ) ;
#340 = FACE_OUTER_BOUND ( 'NONE', #90, .T. ) ;
#341 = DIRECTION ( 'NONE',  ( 1.000000000000000000, 0.000000000000000000, 0.000000000000000000 ) ) ;
#342 = ADVANCED_FACE ( 'NONE', ( #278, #241 ), #41, .T. ) ;
#343 = CIRCLE ( 'NONE', #21, 2.000000000000000000 ) ;
#344 = CC_DESIGN_APPROVAL ( #282, ( #314 ) ) ;
#345 = CC_DESIGN_PERSON_AND_ORGANIZATION_ASSIGNMENT ( #228, #58, ( #314 ) ) ;
#346 = DIRECTION ( 'NONE',  ( 1.000000000000000000, 0.000000000000000000, 0.000000000000000000 ) ) ;
#347 = DESIGN_CONTEXT ( 'detailed design', #271, 'design' ) ;
#348 = LINE ( 'NONE', #50, #151 ) ;
#349 = DIRECTION ( 'NONE',  ( 0.000000000000000000, 0.000000000000000000, 1.000000000000000000 ) ) ;
#350 = EDGE_LOOP ( 'NONE', ( #6, #66, #296, #354 ) ) ;
#351 = AXIS2_PLACEMENT_3D ( 'NONE', #91, #215, #268 ) ;
#352 = DIRECTION ( 'NONE',  ( 0.000000000000000000, 0.000000000000000000, 1.000000000000000000 ) ) ;
#353 = DATE_AND_TIME ( #258, #152 ) ;
#354 = ORIENTED_EDGE ( 'NONE', *, *, #236, .T. ) ;
#355 = DIRECTION ( 'NONE',  ( 1.000000000000000000, 0.000000000000000000, 0.000000000000000000 ) ) ;
#356 = DATE_AND_TIME ( #3, #284 ) ;
#357 = DIRECTION ( 'NONE',  ( -0.000000000000000000, -0.000000000000000000, -1.000000000000000000 ) ) ;
#358 = EDGE_LOOP ( 'NONE', ( #24, #202, #369, #120 ) ) ;
#359 = EDGE_CURVE ( 'NONE', #158, #294, #106, .T. ) ;
#360 = APPROVAL ( #251, 'NEURÈENÝ' ) ;
#361 = CARTESIAN_POINT ( 'NONE',  ( 0.000000000000000000, 0.000000000000000000, 5.000000000000000000 ) ) ;
#362 = VERTEX_POINT ( 'NONE', #99 ) ;
#363 = DIRECTION ( 'NONE',  ( 0.000000000000000000, 0.000000000000000000, 1.000000000000000000 ) ) ;
#364 = DIRECTION ( 'NONE',  ( 1.000000000000000000, 0.000000000000000000, -0.000000000000000000 ) ) ;
#365 = FACE_OUTER_BOUND ( 'NONE', #358, .T. ) ;
#366 = CIRCLE ( 'NONE', #191, 2.000000000000000000 ) ;
#367 = CARTESIAN_POINT ( 'NONE',  ( 0.000000000000000000, 0.000000000000000000, 0.000000000000000000 ) ) ;
#368 = VECTOR ( 'NONE', #330, 1000.000000000000000 ) ;
#369 = ORIENTED_EDGE ( 'NONE', *, *, #379, .T. ) ;
#370 = PERSON_AND_ORGANIZATION ( #101, #123 ) ;
#371 = DIRECTION ( 'NONE',  ( 1.000000000000000000, 0.000000000000000000, 0.000000000000000000 ) ) ;
#372 = DIRECTION ( 'NONE',  ( 1.000000000000000000, 0.000000000000000000, 0.000000000000000000 ) ) ;
#373 = CC_DESIGN_PERSON_AND_ORGANIZATION_ASSIGNMENT ( #138, #266, ( #314 ) ) ;
#374 = CIRCLE ( 'NONE', #259, 7.000000000000000000 ) ;
#375 = CIRCLE ( 'NONE', #48, 4.000000000000000000 ) ;
#376 = FACE_OUTER_BOUND ( 'NONE', #213, .T. ) ;
#377 = AXIS2_PLACEMENT_3D ( 'NONE', #27, #349, #194 ) ;
#378 = AXIS2_PLACEMENT_3D ( 'NONE', #272, #15, #332 ) ;
#379 = EDGE_CURVE ( 'NONE', #362, #61, #153, .T. ) ;
#380 = DIRECTION ( 'NONE',  ( -0.000000000000000000, -0.000000000000000000, -1.000000000000000000 ) ) ;
#381 = FACE_OUTER_BOUND ( 'NONE', #209, .T. ) ;
ENDSEC;
END-ISO-10303-21;
