ISO-10303-21;
HEADER;
FILE_DESCRIPTION (( 'STEP AP203' ),
    '1' );
FILE_NAME ('c5c5.STEP',
    '2022-07-08T15:39:41',
    ( '' ),
    ( '' ),
    'SwSTEP 2.0',
    'SolidWorks 2019',
    '' );
FILE_SCHEMA (( 'CONFIG_CONTROL_DESIGN' ));
ENDSEC;

DATA;
#1 = CARTESIAN_POINT ( 'NONE',  ( 0.000000000000000000, 0.000000000000000000, 5.000000000000000000 ) ) ;
#2 = VERTEX_POINT ( 'NONE', #153 ) ;
#3 = VERTEX_POINT ( 'NONE', #273 ) ;
#4 = ORIENTED_EDGE ( 'NONE', *, *, #164, .T. ) ;
#5 = VECTOR ( 'NONE', #290, 1000.000000000000000 ) ;
#6 = DIRECTION ( 'NONE',  ( 1.000000000000000000, 0.000000000000000000, 0.000000000000000000 ) ) ;
#7 = CARTESIAN_POINT ( 'NONE',  ( 0.000000000000000000, 0.000000000000000000, 5.000000000000000000 ) ) ;
#8 = ORIENTED_EDGE ( 'NONE', *, *, #309, .F. ) ;
#9 = ADVANCED_FACE ( 'NONE', ( #244 ), #297, .F. ) ;
#10 = DIRECTION ( 'NONE',  ( -0.000000000000000000, -0.000000000000000000, -1.000000000000000000 ) ) ;
#11 = CALENDAR_DATE ( 2022, 8, 7 ) ;
#12 = AXIS2_PLACEMENT_3D ( 'NONE', #141, #288, #339 ) ;
#13 = FACE_OUTER_BOUND ( 'NONE', #232, .T. ) ;
#14 = DIRECTION ( 'NONE',  ( 1.000000000000000000, 0.000000000000000000, -0.000000000000000000 ) ) ;
#15 = CALENDAR_DATE ( 2022, 8, 7 ) ;
#16 = DIRECTION ( 'NONE',  ( 0.000000000000000000, 0.000000000000000000, 1.000000000000000000 ) ) ;
#17 = CIRCLE ( 'NONE', #229, 1.750000000000000000 ) ;
#18 = APPLICATION_PROTOCOL_DEFINITION ( 'international standard', 'config_control_design', 1994, #291 ) ;
#19 = DIRECTION ( 'NONE',  ( 1.000000000000000000, 0.000000000000000000, 0.000000000000000000 ) ) ;
#20 = AXIS2_PLACEMENT_3D ( 'NONE', #215, #123, #145 ) ;
#21 = SHAPE_DEFINITION_REPRESENTATION ( #345, #137 ) ;
#22 = EDGE_CURVE ( 'NONE', #3, #318, #98, .T. ) ;
#23 = DIRECTION ( 'NONE',  ( 1.224646799147353207E-16, 1.000000000000000000, -0.000000000000000000 ) ) ;
#24 = DIRECTION ( 'NONE',  ( 1.000000000000000000, 0.000000000000000000, 0.000000000000000000 ) ) ;
#25 = AXIS2_PLACEMENT_3D ( 'NONE', #241, #331, #301 ) ;
#26 = CYLINDRICAL_SURFACE ( 'NONE', #12, 1.750000000000000000 ) ;
#27 = CC_DESIGN_DATE_AND_TIME_ASSIGNMENT ( #358, #335, ( #99 ) ) ;
#28 = CARTESIAN_POINT ( 'NONE',  ( -3.500000000000000444, 4.286263797015737088E-16, 5.000000000000002665 ) ) ;
#29 = FACE_OUTER_BOUND ( 'NONE', #346, .T. ) ;
#30 = VERTEX_POINT ( 'NONE', #325 ) ;
#31 = CYLINDRICAL_SURFACE ( 'NONE', #20, 6.000000000000000888 ) ;
#32 = ORIENTED_EDGE ( 'NONE', *, *, #340, .T. ) ;
#33 = AXIS2_PLACEMENT_3D ( 'NONE', #83, #138, #228 ) ;
#34 = ORIENTED_EDGE ( 'NONE', *, *, #374, .F. ) ;
#35 = ORIENTED_EDGE ( 'NONE', *, *, #149, .F. ) ;
#36 = ORIENTED_EDGE ( 'NONE', *, *, #373, .T. ) ;
#37 = ORIENTED_EDGE ( 'NONE', *, *, #326, .T. ) ;
#38 = ORIENTED_EDGE ( 'NONE', *, *, #52, .F. ) ;
#39 = CALENDAR_DATE ( 2022, 8, 7 ) ;
#40 = APPROVAL ( #245, 'NEURÈENÝ' ) ;
#41 = VECTOR ( 'NONE', #181, 1000.000000000000000 ) ;
#42 = EDGE_CURVE ( 'NONE', #262, #2, #322, .T. ) ;
#43 = FACE_BOUND ( 'NONE', #342, .T. ) ;
#44 = DATE_AND_TIME ( #15, #140 ) ;
#45 = DIRECTION ( 'NONE',  ( 0.000000000000000000, 0.000000000000000000, 1.000000000000000000 ) ) ;
#46 = DESIGN_CONTEXT ( 'detailed design', #291, 'design' ) ;
#47 = CARTESIAN_POINT ( 'NONE',  ( 3.000000000000000444, 3.673940397442060361E-16, 5.500000000000005329 ) ) ;
#48 = APPROVAL_DATE_TIME ( #285, #40 ) ;
#49 = DIRECTION ( 'NONE',  ( 1.000000000000000000, 0.000000000000000000, 0.000000000000000000 ) ) ;
#50 = ADVANCED_FACE ( 'NONE', ( #43, #13 ), #357, .F. ) ;
#51 = CARTESIAN_POINT ( 'NONE',  ( -3.000000000000000444, 0.000000000000000000, 155.0000000000000000 ) ) ;
#52 = EDGE_CURVE ( 'NONE', #30, #262, #90, .T. ) ;
#53 = LINE ( 'NONE', #311, #363 ) ;
#54 = ADVANCED_FACE ( 'NONE', ( #249 ), #361, .T. ) ;
#55 = DIRECTION ( 'NONE',  ( 1.000000000000000000, 0.000000000000000000, -0.000000000000000000 ) ) ;
#56 = CARTESIAN_POINT ( 'NONE',  ( 0.000000000000000000, 0.000000000000000000, 0.000000000000000000 ) ) ;
#57 = ORIENTED_EDGE ( 'NONE', *, *, #373, .F. ) ;
#58 = DIRECTION ( 'NONE',  ( -0.000000000000000000, -0.000000000000000000, -1.000000000000000000 ) ) ;
#59 = CC_DESIGN_PERSON_AND_ORGANIZATION_ASSIGNMENT ( #102, #106, ( #92 ) ) ;
#60 = APPROVAL ( #362, 'NEURÈENÝ' ) ;
#61 = ORIENTED_EDGE ( 'NONE', *, *, #248, .F. ) ;
#62 = AXIS2_PLACEMENT_3D ( 'NONE', #169, #199, #314 ) ;
#63 = CC_DESIGN_APPROVAL ( #94, ( #99 ) ) ;
#64 = ORIENTED_EDGE ( 'NONE', *, *, #374, .T. ) ;
#65 =( NAMED_UNIT ( * ) PLANE_ANGLE_UNIT ( ) SI_UNIT ( $, .RADIAN. ) );
#66 = ORIENTED_EDGE ( 'NONE', *, *, #71, .T. ) ;
#67 = EDGE_CURVE ( 'NONE', #209, #320, #191, .T. ) ;
#68 = DIRECTION ( 'NONE',  ( -0.000000000000000000, -0.000000000000000000, -1.000000000000000000 ) ) ;
#69 = PERSON_AND_ORGANIZATION ( #267, #107 ) ;
#70 = ORIENTED_EDGE ( 'NONE', *, *, #292, .T. ) ;
#71 = EDGE_CURVE ( 'NONE', #180, #2, #377, .T. ) ;
#72 = CC_DESIGN_PERSON_AND_ORGANIZATION_ASSIGNMENT ( #252, #160, ( #92 ) ) ;
#73 = ORIENTED_EDGE ( 'NONE', *, *, #115, .F. ) ;
#74 = AXIS2_PLACEMENT_3D ( 'NONE', #129, #105, #246 ) ;
#75 = PERSON_AND_ORGANIZATION_ROLE ( 'creator' ) ;
#76 = AXIS2_PLACEMENT_3D ( 'NONE', #165, #286, #112 ) ;
#77 = ORIENTED_EDGE ( 'NONE', *, *, #142, .T. ) ;
#78 = PERSON_AND_ORGANIZATION_ROLE ( 'classification_officer' ) ;
#79 = FACE_OUTER_BOUND ( 'NONE', #148, .T. ) ;
#80 = CARTESIAN_POINT ( 'NONE',  ( -6.000000000000000888, 0.000000000000000000, 5.000000000000000000 ) ) ;
#81 = CARTESIAN_POINT ( 'NONE',  ( 0.000000000000000000, 0.000000000000000000, 0.000000000000000000 ) ) ;
#82 = AXIS2_PLACEMENT_3D ( 'NONE', #341, #255, #336 ) ;
#83 = CARTESIAN_POINT ( 'NONE',  ( 0.000000000000000000, 0.000000000000000000, 0.000000000000000000 ) ) ;
#84 = CARTESIAN_POINT ( 'NONE',  ( 6.000000000000000888, 7.347880794884120722E-16, 0.000000000000000000 ) ) ;
#85 = AXIS2_PLACEMENT_3D ( 'NONE', #161, #281, #14 ) ;
#86 = APPROVAL_PERSON_ORGANIZATION ( #134, #40, #250 ) ;
#87 = ORIENTED_EDGE ( 'NONE', *, *, #142, .F. ) ;
#88 = ORIENTED_EDGE ( 'NONE', *, *, #221, .T. ) ;
#89 = ORIENTED_EDGE ( 'NONE', *, *, #248, .T. ) ;
#90 = CIRCLE ( 'NONE', #74, 3.000000000000000444 ) ;
#91 = VERTEX_POINT ( 'NONE', #353 ) ;
#92 = PRODUCT_DEFINITION_FORMATION_WITH_SPECIFIED_SOURCE ( 'LIBOVOLNÝ', '', #190, .NOT_KNOWN. ) ;
#93 = APPLICATION_CONTEXT ( 'configuration controlled 3d designs of mechanical parts and assemblies' ) ;
#94 = APPROVAL ( #306, 'NEURÈENÝ' ) ;
#95 = CARTESIAN_POINT ( 'NONE',  ( 1.750000000000000000, 2.143131898507868297E-16, 0.000000000000000000 ) ) ;
#96 = DIRECTION ( 'NONE',  ( 0.000000000000000000, 0.000000000000000000, 1.000000000000000000 ) ) ;
#97 = DIRECTION ( 'NONE',  ( 0.000000000000000000, 0.000000000000000000, -1.000000000000000000 ) ) ;
#98 = LINE ( 'NONE', #213, #263 ) ;
#99 = SECURITY_CLASSIFICATION ( '', '', #111 ) ;
#100 = DIRECTION ( 'NONE',  ( 1.000000000000000000, 0.000000000000000000, 0.000000000000000000 ) ) ;
#101 = EDGE_LOOP ( 'NONE', ( #89, #127, #206, #87 ) ) ;
#102 = PERSON_AND_ORGANIZATION ( #267, #107 ) ;
#103 = ORIENTED_EDGE ( 'NONE', *, *, #309, .T. ) ;
#104 = COORDINATED_UNIVERSAL_TIME_OFFSET ( 1, 0, .AHEAD. ) ;
#105 = DIRECTION ( 'NONE',  ( 0.000000000000000000, 0.000000000000000000, 1.000000000000000000 ) ) ;
#106 = PERSON_AND_ORGANIZATION_ROLE ( 'design_supplier' ) ;
#107 = ORGANIZATION ( 'NEURÈENÝ', 'NEURÈENÝ', '' ) ;
#108 = CARTESIAN_POINT ( 'NONE',  ( 0.000000000000000000, 0.000000000000000000, 155.0000000000000000 ) ) ;
#109 = COORDINATED_UNIVERSAL_TIME_OFFSET ( 1, 0, .AHEAD. ) ;
#110 = CARTESIAN_POINT ( 'NONE',  ( -1.750000000000000000, 0.000000000000000000, 0.000000000000000000 ) ) ;
#111 = SECURITY_CLASSIFICATION_LEVEL ( 'unclassified' ) ;
#112 = DIRECTION ( 'NONE',  ( -1.000000000000000000, 0.000000000000000000, 0.000000000000000000 ) ) ;
#113 = AXIS2_PLACEMENT_3D ( 'NONE', #219, #10, #182 ) ;
#114 = FACE_BOUND ( 'NONE', #216, .T. ) ;
#115 = EDGE_CURVE ( 'NONE', #318, #234, #17, .T. ) ;
#116 = DIRECTION ( 'NONE',  ( -0.000000000000000000, -0.000000000000000000, -1.000000000000000000 ) ) ;
#117 = MECHANICAL_CONTEXT ( 'NONE', #93, 'mechanical' ) ;
#118 = LOCAL_TIME ( 17, 39, 41.00000000000000000, #109 ) ;
#119 = ORIENTED_EDGE ( 'NONE', *, *, #22, .F. ) ;
#120 = EDGE_CURVE ( 'NONE', #2, #180, #243, .T. ) ;
#121 = CIRCLE ( 'NONE', #200, 0.4999999999999995559 ) ;
#122 = CARTESIAN_POINT ( 'NONE',  ( 0.000000000000000000, 0.000000000000000000, 0.000000000000000000 ) ) ;
#123 = DIRECTION ( 'NONE',  ( -0.000000000000000000, -0.000000000000000000, -1.000000000000000000 ) ) ;
#124 = ORIENTED_EDGE ( 'NONE', *, *, #326, .F. ) ;
#125 = CC_DESIGN_DATE_AND_TIME_ASSIGNMENT ( #44, #162, ( #375 ) ) ;
#126 =( NAMED_UNIT ( * ) SI_UNIT ( $, .STERADIAN. ) SOLID_ANGLE_UNIT ( ) );
#127 = ORIENTED_EDGE ( 'NONE', *, *, #22, .T. ) ;
#128 = LOCAL_TIME ( 17, 39, 41.00000000000000000, #366 ) ;
#129 = CARTESIAN_POINT ( 'NONE',  ( 0.000000000000000000, 0.000000000000000000, 155.0000000000000000 ) ) ;
#130 = CARTESIAN_POINT ( 'NONE',  ( 0.000000000000000000, 0.000000000000000000, 5.500000000000005329 ) ) ;
#131 = ADVANCED_FACE ( 'NONE', ( #114, #312 ), #203, .T. ) ;
#132 = APPROVAL_DATE_TIME ( #282, #94 ) ;
#133 = DIRECTION ( 'NONE',  ( 0.000000000000000000, 0.000000000000000000, 1.000000000000000000 ) ) ;
#134 = PERSON_AND_ORGANIZATION ( #267, #107 ) ;
#135 = AXIS2_PLACEMENT_3D ( 'NONE', #293, #97, #212 ) ;
#136 = DIRECTION ( 'NONE',  ( -1.000000000000000000, 1.224646799147354440E-16, 0.000000000000000000 ) ) ;
#137 = ADVANCED_BREP_SHAPE_REPRESENTATION ( 'c5c5', ( #260, #226 ), #236 ) ;
#138 = DIRECTION ( 'NONE',  ( 0.000000000000000000, 0.000000000000000000, 1.000000000000000000 ) ) ;
#139 = CIRCLE ( 'NONE', #62, 6.000000000000000888 ) ;
#140 = LOCAL_TIME ( 17, 39, 41.00000000000000000, #223 ) ;
#141 = CARTESIAN_POINT ( 'NONE',  ( 0.000000000000000000, 0.000000000000000000, 155.0000000000000000 ) ) ;
#142 = EDGE_CURVE ( 'NONE', #347, #234, #53, .T. ) ;
#143 = DIRECTION ( 'NONE',  ( 1.000000000000000000, 0.000000000000000000, 0.000000000000000000 ) ) ;
#144 = ORIENTED_EDGE ( 'NONE', *, *, #168, .F. ) ;
#145 = DIRECTION ( 'NONE',  ( -1.000000000000000000, 0.000000000000000000, 0.000000000000000000 ) ) ;
#146 = ORIENTED_EDGE ( 'NONE', *, *, #221, .F. ) ;
#147 = EDGE_CURVE ( 'NONE', #30, #180, #227, .T. ) ;
#148 = EDGE_LOOP ( 'NONE', ( #146, #304, #70, #8 ) ) ;
#149 = EDGE_CURVE ( 'NONE', #303, #348, #139, .T. ) ;
#150 = ORIENTED_EDGE ( 'NONE', *, *, #120, .F. ) ;
#151 = AXIS2_PLACEMENT_3D ( 'NONE', #251, #364, #289 ) ;
#152 = CARTESIAN_POINT ( 'NONE',  ( -1.750000000000000000, 0.000000000000000000, 155.0000000000000000 ) ) ;
#153 = CARTESIAN_POINT ( 'NONE',  ( -3.000000000000000444, 0.000000000000000000, 5.500000000000005329 ) ) ;
#154 = EDGE_CURVE ( 'NONE', #234, #318, #349, .T. ) ;
#155 = DIRECTION ( 'NONE',  ( 0.000000000000000000, 0.000000000000000000, 1.000000000000000000 ) ) ;
#156 = CC_DESIGN_PERSON_AND_ORGANIZATION_ASSIGNMENT ( #287, #78, ( #99 ) ) ;
#157 = CARTESIAN_POINT ( 'NONE',  ( 0.000000000000000000, 0.000000000000000000, 5.500000000000005329 ) ) ;
#158 = EDGE_LOOP ( 'NONE', ( #150, #88, #218, #178 ) ) ;
#159 = CIRCLE ( 'NONE', #356, 0.5000000000000004441 ) ;
#160 = PERSON_AND_ORGANIZATION_ROLE ( 'creator' ) ;
#161 = CARTESIAN_POINT ( 'NONE',  ( 0.000000000000000000, 0.000000000000000000, 0.000000000000000000 ) ) ;
#162 = DATE_TIME_ROLE ( 'creation_date' ) ;
#163 = ORIENTED_EDGE ( 'NONE', *, *, #247, .F. ) ;
#164 = EDGE_CURVE ( 'NONE', #348, #233, #224, .T. ) ;
#165 = CARTESIAN_POINT ( 'NONE',  ( 0.000000000000000000, 0.000000000000000000, 155.0000000000000000 ) ) ;
#166 = AXIS2_PLACEMENT_3D ( 'NONE', #130, #276, #188 ) ;
#167 = DIRECTION ( 'NONE',  ( -0.000000000000000000, -0.000000000000000000, -1.000000000000000000 ) ) ;
#168 = EDGE_CURVE ( 'NONE', #233, #91, #270, .T. ) ;
#169 = CARTESIAN_POINT ( 'NONE',  ( 0.000000000000000000, 0.000000000000000000, 5.000000000000000000 ) ) ;
#170 = CARTESIAN_POINT ( 'NONE',  ( 6.000000000000000888, 7.347880794884120722E-16, 5.000000000000000000 ) ) ;
#171 = AXIS2_PLACEMENT_3D ( 'NONE', #157, #96, #24 ) ;
#172 = AXIS2_PLACEMENT_3D ( 'NONE', #323, #265, #302 ) ;
#173 = ORIENTED_EDGE ( 'NONE', *, *, #164, .F. ) ;
#174 = CARTESIAN_POINT ( 'NONE',  ( 6.000000000000000888, 7.347880794884120722E-16, 5.000000000000000000 ) ) ;
#175 = ORIENTED_EDGE ( 'NONE', *, *, #147, .F. ) ;
#176 = CIRCLE ( 'NONE', #214, 6.000000000000000888 ) ;
#177 = EDGE_LOOP ( 'NONE', ( #175, #34, #186, #271 ) ) ;
#178 = ORIENTED_EDGE ( 'NONE', *, *, #292, .F. ) ;
#179 = CC_DESIGN_PERSON_AND_ORGANIZATION_ASSIGNMENT ( #205, #217, ( #190 ) ) ;
#180 = VERTEX_POINT ( 'NONE', #47 ) ;
#181 = DIRECTION ( 'NONE',  ( -0.000000000000000000, -0.000000000000000000, -1.000000000000000000 ) ) ;
#182 = DIRECTION ( 'NONE',  ( -1.000000000000000000, 0.000000000000000000, 0.000000000000000000 ) ) ;
#183 = AXIS2_PLACEMENT_3D ( 'NONE', #378, #155, #100 ) ;
#184 = PRODUCT_RELATED_PRODUCT_CATEGORY ( 'detail', '', ( #190 ) ) ;
#185 = ADVANCED_FACE ( 'NONE', ( #220 ), #26, .F. ) ;
#186 = ORIENTED_EDGE ( 'NONE', *, *, #42, .T. ) ;
#187 = APPROVAL_ROLE ( '' ) ;
#188 = DIRECTION ( 'NONE',  ( 1.000000000000000000, 0.000000000000000000, 0.000000000000000000 ) ) ;
#189 = PERSON_AND_ORGANIZATION ( #267, #107 ) ;
#190 = PRODUCT ( 'c5c5', 'c5c5', '', ( #117 ) ) ;
#191 = CIRCLE ( 'NONE', #25, 3.500000000000000444 ) ;
#192 = ORIENTED_EDGE ( 'NONE', *, *, #340, .F. ) ;
#193 = AXIS2_PLACEMENT_3D ( 'NONE', #81, #167, #19 ) ;
#194 = CC_DESIGN_SECURITY_CLASSIFICATION ( #99, ( #92 ) ) ;
#195 = APPROVAL_DATE_TIME ( #254, #60 ) ;
#196 = ORIENTED_EDGE ( 'NONE', *, *, #247, .T. ) ;
#197 = CALENDAR_DATE ( 2022, 8, 7 ) ;
#198 = FACE_OUTER_BOUND ( 'NONE', #211, .T. ) ;
#199 = DIRECTION ( 'NONE',  ( 0.000000000000000000, 0.000000000000000000, 1.000000000000000000 ) ) ;
#200 = AXIS2_PLACEMENT_3D ( 'NONE', #334, #23, #136 ) ;
#201 = CARTESIAN_POINT ( 'NONE',  ( 3.000000000000000444, 3.673940397442060361E-16, 155.0000000000000000 ) ) ;
#202 = DIRECTION ( 'NONE',  ( 0.000000000000000000, -1.000000000000000000, 0.000000000000000000 ) ) ;
#203 = PLANE ( 'NONE',  #330 ) ;
#204 = CARTESIAN_POINT ( 'NONE',  ( -6.000000000000000888, 0.000000000000000000, 5.000000000000000000 ) ) ;
#205 = PERSON_AND_ORGANIZATION ( #267, #107 ) ;
#206 = ORIENTED_EDGE ( 'NONE', *, *, #115, .T. ) ;
#207 = EDGE_LOOP ( 'NONE', ( #119, #36, #77, #298 ) ) ;
#208 = CC_DESIGN_APPROVAL ( #60, ( #92 ) ) ;
#209 = VERTEX_POINT ( 'NONE', #259 ) ;
#210 = FACE_OUTER_BOUND ( 'NONE', #101, .T. ) ;
#211 = EDGE_LOOP ( 'NONE', ( #38, #268, #66, #319 ) ) ;
#212 = DIRECTION ( 'NONE',  ( -1.000000000000000000, 0.000000000000000000, 0.000000000000000000 ) ) ;
#213 = CARTESIAN_POINT ( 'NONE',  ( 1.750000000000000000, 2.143131898507868297E-16, 155.0000000000000000 ) ) ;
#214 = AXIS2_PLACEMENT_3D ( 'NONE', #296, #351, #240 ) ;
#215 = CARTESIAN_POINT ( 'NONE',  ( 0.000000000000000000, 0.000000000000000000, 5.000000000000000000 ) ) ;
#216 = EDGE_LOOP ( 'NONE', ( #61, #57 ) ) ;
#217 = PERSON_AND_ORGANIZATION_ROLE ( 'design_owner' ) ;
#218 = ORIENTED_EDGE ( 'NONE', *, *, #67, .F. ) ;
#219 = CARTESIAN_POINT ( 'NONE',  ( 0.000000000000000000, 0.000000000000000000, 155.0000000000000000 ) ) ;
#220 = FACE_OUTER_BOUND ( 'NONE', #207, .T. ) ;
#221 = EDGE_CURVE ( 'NONE', #2, #320, #121, .T. ) ;
#222 = FACE_BOUND ( 'NONE', #329, .T. ) ;
#223 = COORDINATED_UNIVERSAL_TIME_OFFSET ( 1, 0, .AHEAD. ) ;
#224 = LINE ( 'NONE', #170, #5 ) ;
#225 = VECTOR ( 'NONE', #68, 1000.000000000000000 ) ;
#226 = AXIS2_PLACEMENT_3D ( 'NONE', #56, #294, #143 ) ;
#227 = LINE ( 'NONE', #201, #380 ) ;
#228 = DIRECTION ( 'NONE',  ( 1.000000000000000000, 0.000000000000000000, 0.000000000000000000 ) ) ;
#229 = AXIS2_PLACEMENT_3D ( 'NONE', #122, #239, #352 ) ;
#230 = AXIS2_PLACEMENT_3D ( 'NONE', #365, #133, #49 ) ;
#231 = CYLINDRICAL_SURFACE ( 'NONE', #277, 6.000000000000000888 ) ;
#232 = EDGE_LOOP ( 'NONE', ( #163, #144 ) ) ;
#233 = VERTEX_POINT ( 'NONE', #84 ) ;
#234 = VERTEX_POINT ( 'NONE', #110 ) ;
#235 = AXIS2_PLACEMENT_3D ( 'NONE', #310, #45, #6 ) ;
#236 =( GEOMETRIC_REPRESENTATION_CONTEXT ( 3 ) GLOBAL_UNCERTAINTY_ASSIGNED_CONTEXT ( ( #307 ) ) GLOBAL_UNIT_ASSIGNED_CONTEXT ( ( #274, #65, #126 ) ) REPRESENTATION_CONTEXT ( 'NONE', 'WORKASPACE' ) );
#237 = EDGE_LOOP ( 'NONE', ( #64, #266 ) ) ;
#238 = DIRECTION ( 'NONE',  ( 1.000000000000000000, 0.000000000000000000, 0.000000000000000000 ) ) ;
#239 = DIRECTION ( 'NONE',  ( -0.000000000000000000, -0.000000000000000000, -1.000000000000000000 ) ) ;
#240 = DIRECTION ( 'NONE',  ( 1.000000000000000000, 0.000000000000000000, 0.000000000000000000 ) ) ;
#241 = CARTESIAN_POINT ( 'NONE',  ( 0.000000000000000000, 0.000000000000000000, 5.000000000000000000 ) ) ;
#242 = DIRECTION ( 'NONE',  ( -0.000000000000000000, -0.000000000000000000, -1.000000000000000000 ) ) ;
#243 = CIRCLE ( 'NONE', #171, 3.000000000000000444 ) ;
#244 = FACE_OUTER_BOUND ( 'NONE', #158, .T. ) ;
#245 = APPROVAL_STATUS ( 'not_yet_approved' ) ;
#246 = DIRECTION ( 'NONE',  ( 1.000000000000000000, 0.000000000000000000, 0.000000000000000000 ) ) ;
#247 = EDGE_CURVE ( 'NONE', #91, #233, #264, .T. ) ;
#248 = EDGE_CURVE ( 'NONE', #347, #3, #381, .T. ) ;
#249 = FACE_OUTER_BOUND ( 'NONE', #177, .T. ) ;
#250 = APPROVAL_ROLE ( '' ) ;
#251 = CARTESIAN_POINT ( 'NONE',  ( 0.000000000000000000, 0.000000000000000000, 5.000000000000000000 ) ) ;
#252 = PERSON_AND_ORGANIZATION ( #267, #107 ) ;
#253 = CYLINDRICAL_SURFACE ( 'NONE', #76, 3.000000000000000444 ) ;
#254 = DATE_AND_TIME ( #197, #128 ) ;
#255 = DIRECTION ( 'NONE',  ( 0.000000000000000000, 0.000000000000000000, 1.000000000000000000 ) ) ;
#256 = DIRECTION ( 'NONE',  ( 0.000000000000000000, 0.000000000000000000, 1.000000000000000000 ) ) ;
#257 = CIRCLE ( 'NONE', #183, 1.750000000000000000 ) ;
#258 = LOCAL_TIME ( 17, 39, 41.00000000000000000, #360 ) ;
#259 = CARTESIAN_POINT ( 'NONE',  ( 3.500000000000000444, 0.000000000000000000, 5.000000000000002665 ) ) ;
#260 = MANIFOLD_SOLID_BREP ( 'Odebrat vysunutím3', #368 ) ;
#261 = ADVANCED_FACE ( 'NONE', ( #79 ), #343, .F. ) ;
#262 = VERTEX_POINT ( 'NONE', #51 ) ;
#263 = VECTOR ( 'NONE', #305, 1000.000000000000000 ) ;
#264 = CIRCLE ( 'NONE', #33, 6.000000000000000888 ) ;
#265 = DIRECTION ( 'NONE',  ( 0.000000000000000000, 0.000000000000000000, 1.000000000000000000 ) ) ;
#266 = ORIENTED_EDGE ( 'NONE', *, *, #52, .T. ) ;
#267 = PERSON ( 'NEURÈENÝ', 'NEURÈENÝ', 'NEURÈENÝ', ('NEURÈENÝ'), ('NEURÈENÝ'), ('NEURÈENÝ') ) ;
#268 = ORIENTED_EDGE ( 'NONE', *, *, #147, .T. ) ;
#269 = EDGE_LOOP ( 'NONE', ( #173, #35, #32, #196 ) ) ;
#270 = CIRCLE ( 'NONE', #230, 6.000000000000000888 ) ;
#271 = ORIENTED_EDGE ( 'NONE', *, *, #120, .T. ) ;
#272 = FACE_OUTER_BOUND ( 'NONE', #269, .T. ) ;
#273 = CARTESIAN_POINT ( 'NONE',  ( 1.750000000000000000, 2.143131898507868297E-16, 155.0000000000000000 ) ) ;
#274 =( LENGTH_UNIT ( ) NAMED_UNIT ( * ) SI_UNIT ( .MILLI., .METRE. ) );
#275 = ORIENTED_EDGE ( 'NONE', *, *, #154, .F. ) ;
#276 = DIRECTION ( 'NONE',  ( 0.000000000000000000, 0.000000000000000000, 1.000000000000000000 ) ) ;
#277 = AXIS2_PLACEMENT_3D ( 'NONE', #1, #58, #299 ) ;
#278 = CALENDAR_DATE ( 2022, 8, 7 ) ;
#279 = CC_DESIGN_PERSON_AND_ORGANIZATION_ASSIGNMENT ( #189, #75, ( #375 ) ) ;
#280 = ADVANCED_FACE ( 'NONE', ( #222, #284 ), #371, .T. ) ;
#281 = DIRECTION ( 'NONE',  ( 0.000000000000000000, 0.000000000000000000, 1.000000000000000000 ) ) ;
#282 = DATE_AND_TIME ( #278, #258 ) ;
#283 = ADVANCED_FACE ( 'NONE', ( #198 ), #253, .T. ) ;
#284 = FACE_OUTER_BOUND ( 'NONE', #379, .T. ) ;
#285 = DATE_AND_TIME ( #11, #118 ) ;
#286 = DIRECTION ( 'NONE',  ( -0.000000000000000000, -0.000000000000000000, -1.000000000000000000 ) ) ;
#287 = PERSON_AND_ORGANIZATION ( #267, #107 ) ;
#288 = DIRECTION ( 'NONE',  ( 0.000000000000000000, 0.000000000000000000, -1.000000000000000000 ) ) ;
#289 = DIRECTION ( 'NONE',  ( 1.000000000000000000, 0.000000000000000000, -0.000000000000000000 ) ) ;
#290 = DIRECTION ( 'NONE',  ( -0.000000000000000000, -0.000000000000000000, -1.000000000000000000 ) ) ;
#291 = APPLICATION_CONTEXT ( 'configuration controlled 3d designs of mechanical parts and assemblies' ) ;
#292 = EDGE_CURVE ( 'NONE', #180, #209, #159, .T. ) ;
#293 = CARTESIAN_POINT ( 'NONE',  ( 0.000000000000000000, 0.000000000000000000, 155.0000000000000000 ) ) ;
#294 = DIRECTION ( 'NONE',  ( 0.000000000000000000, 0.000000000000000000, 1.000000000000000000 ) ) ;
#295 = ORIENTED_EDGE ( 'NONE', *, *, #67, .T. ) ;
#296 = CARTESIAN_POINT ( 'NONE',  ( 0.000000000000000000, 0.000000000000000000, 5.000000000000000000 ) ) ;
#297 = TOROIDAL_SURFACE ( 'NONE', #166, 3.500000000000000444, 0.5000000000000000000 ) ;
#298 = ORIENTED_EDGE ( 'NONE', *, *, #154, .T. ) ;
#299 = DIRECTION ( 'NONE',  ( -1.000000000000000000, 0.000000000000000000, 0.000000000000000000 ) ) ;
#300 = AXIS2_PLACEMENT_3D ( 'NONE', #316, #256, #337 ) ;
#301 = DIRECTION ( 'NONE',  ( 1.000000000000000000, 0.000000000000000000, 0.000000000000000000 ) ) ;
#302 = DIRECTION ( 'NONE',  ( 1.000000000000000000, 0.000000000000000000, 0.000000000000000000 ) ) ;
#303 = VERTEX_POINT ( 'NONE', #80 ) ;
#304 = ORIENTED_EDGE ( 'NONE', *, *, #71, .F. ) ;
#305 = DIRECTION ( 'NONE',  ( 0.000000000000000000, 0.000000000000000000, -1.000000000000000000 ) ) ;
#306 = APPROVAL_STATUS ( 'not_yet_approved' ) ;
#307 = UNCERTAINTY_MEASURE_WITH_UNIT (LENGTH_MEASURE( 1.000000000000000082E-05 ), #274, 'distance_accuracy_value', 'NONE');
#308 = ADVANCED_FACE ( 'NONE', ( #29 ), #231, .T. ) ;
#309 = EDGE_CURVE ( 'NONE', #320, #209, #332, .T. ) ;
#310 = CARTESIAN_POINT ( 'NONE',  ( 0.000000000000000000, 0.000000000000000000, 5.500000000000005329 ) ) ;
#311 = CARTESIAN_POINT ( 'NONE',  ( -1.750000000000000000, 0.000000000000000000, 155.0000000000000000 ) ) ;
#312 = FACE_OUTER_BOUND ( 'NONE', #237, .T. ) ;
#313 = CC_DESIGN_APPROVAL ( #40, ( #375 ) ) ;
#314 = DIRECTION ( 'NONE',  ( 1.000000000000000000, 0.000000000000000000, 0.000000000000000000 ) ) ;
#315 = DIRECTION ( 'NONE',  ( 0.000000000000000000, 0.000000000000000000, -1.000000000000000000 ) ) ;
#316 = CARTESIAN_POINT ( 'NONE',  ( 0.000000000000000000, 0.000000000000000000, 5.500000000000005329 ) ) ;
#317 = AXIS2_PLACEMENT_3D ( 'NONE', #7, #242, #238 ) ;
#318 = VERTEX_POINT ( 'NONE', #95 ) ;
#319 = ORIENTED_EDGE ( 'NONE', *, *, #42, .F. ) ;
#320 = VERTEX_POINT ( 'NONE', #28 ) ;
#321 = LOCAL_TIME ( 17, 39, 41.00000000000000000, #104 ) ;
#322 = LINE ( 'NONE', #327, #225 ) ;
#323 = CARTESIAN_POINT ( 'NONE',  ( 0.000000000000000000, 0.000000000000000000, 155.0000000000000000 ) ) ;
#324 = APPROVAL_PERSON_ORGANIZATION ( #333, #60, #328 ) ;
#325 = CARTESIAN_POINT ( 'NONE',  ( 3.000000000000000444, 3.673940397442060361E-16, 155.0000000000000000 ) ) ;
#326 = EDGE_CURVE ( 'NONE', #348, #303, #176, .T. ) ;
#327 = CARTESIAN_POINT ( 'NONE',  ( -3.000000000000000444, 0.000000000000000000, 155.0000000000000000 ) ) ;
#328 = APPROVAL_ROLE ( '' ) ;
#329 = EDGE_LOOP ( 'NONE', ( #295, #103 ) ) ;
#330 = AXIS2_PLACEMENT_3D ( 'NONE', #108, #16, #55 ) ;
#331 = DIRECTION ( 'NONE',  ( -0.000000000000000000, -0.000000000000000000, -1.000000000000000000 ) ) ;
#332 = CIRCLE ( 'NONE', #317, 3.500000000000000444 ) ;
#333 = PERSON_AND_ORGANIZATION ( #267, #107 ) ;
#334 = CARTESIAN_POINT ( 'NONE',  ( -3.500000000000000444, 4.286263797015737088E-16, 5.500000000000005329 ) ) ;
#335 = DATE_TIME_ROLE ( 'classification_date' ) ;
#336 = DIRECTION ( 'NONE',  ( 1.000000000000000000, 0.000000000000000000, 0.000000000000000000 ) ) ;
#337 = DIRECTION ( 'NONE',  ( 1.000000000000000000, 0.000000000000000000, 0.000000000000000000 ) ) ;
#338 = CIRCLE ( 'NONE', #172, 3.000000000000000444 ) ;
#339 = DIRECTION ( 'NONE',  ( -1.000000000000000000, 0.000000000000000000, 0.000000000000000000 ) ) ;
#340 = EDGE_CURVE ( 'NONE', #303, #91, #344, .T. ) ;
#341 = CARTESIAN_POINT ( 'NONE',  ( 0.000000000000000000, 0.000000000000000000, 155.0000000000000000 ) ) ;
#342 = EDGE_LOOP ( 'NONE', ( #275, #73 ) ) ;
#343 = TOROIDAL_SURFACE ( 'NONE', #300, 3.500000000000000444, 0.5000000000000000000 ) ;
#344 = LINE ( 'NONE', #204, #41 ) ;
#345 = PRODUCT_DEFINITION_SHAPE ( 'NONE', 'NONE',  #375 ) ;
#346 = EDGE_LOOP ( 'NONE', ( #124, #4, #359, #192 ) ) ;
#347 = VERTEX_POINT ( 'NONE', #152 ) ;
#348 = VERTEX_POINT ( 'NONE', #174 ) ;
#349 = CIRCLE ( 'NONE', #193, 1.750000000000000000 ) ;
#350 = ORIENTED_EDGE ( 'NONE', *, *, #149, .T. ) ;
#351 = DIRECTION ( 'NONE',  ( 0.000000000000000000, 0.000000000000000000, 1.000000000000000000 ) ) ;
#352 = DIRECTION ( 'NONE',  ( 1.000000000000000000, 0.000000000000000000, 0.000000000000000000 ) ) ;
#353 = CARTESIAN_POINT ( 'NONE',  ( -6.000000000000000888, 0.000000000000000000, 0.000000000000000000 ) ) ;
#354 = ADVANCED_FACE ( 'NONE', ( #210 ), #355, .F. ) ;
#355 = CYLINDRICAL_SURFACE ( 'NONE', #135, 1.750000000000000000 ) ;
#356 = AXIS2_PLACEMENT_3D ( 'NONE', #369, #202, #315 ) ;
#357 = PLANE ( 'NONE',  #85 ) ;
#358 = DATE_AND_TIME ( #39, #321 ) ;
#359 = ORIENTED_EDGE ( 'NONE', *, *, #168, .T. ) ;
#360 = COORDINATED_UNIVERSAL_TIME_OFFSET ( 1, 0, .AHEAD. ) ;
#361 = CYLINDRICAL_SURFACE ( 'NONE', #113, 3.000000000000000444 ) ;
#362 = APPROVAL_STATUS ( 'not_yet_approved' ) ;
#363 = VECTOR ( 'NONE', #367, 1000.000000000000000 ) ;
#364 = DIRECTION ( 'NONE',  ( 0.000000000000000000, 0.000000000000000000, 1.000000000000000000 ) ) ;
#365 = CARTESIAN_POINT ( 'NONE',  ( 0.000000000000000000, 0.000000000000000000, 0.000000000000000000 ) ) ;
#366 = COORDINATED_UNIVERSAL_TIME_OFFSET ( 1, 0, .AHEAD. ) ;
#367 = DIRECTION ( 'NONE',  ( 0.000000000000000000, 0.000000000000000000, -1.000000000000000000 ) ) ;
#368 = CLOSED_SHELL ( 'NONE', ( #354, #9, #283, #308, #376, #280, #50, #54, #131, #261, #185 ) ) ;
#369 = CARTESIAN_POINT ( 'NONE',  ( 3.500000000000000444, 0.000000000000000000, 5.500000000000005329 ) ) ;
#370 = APPROVAL_PERSON_ORGANIZATION ( #69, #94, #187 ) ;
#371 = PLANE ( 'NONE',  #151 ) ;
#372 = APPLICATION_PROTOCOL_DEFINITION ( 'international standard', 'config_control_design', 1994, #93 ) ;
#373 = EDGE_CURVE ( 'NONE', #3, #347, #257, .T. ) ;
#374 = EDGE_CURVE ( 'NONE', #262, #30, #338, .T. ) ;
#375 = PRODUCT_DEFINITION ( 'NEZNÁMÝ', '', #92, #46 ) ;
#376 = ADVANCED_FACE ( 'NONE', ( #272 ), #31, .T. ) ;
#377 = CIRCLE ( 'NONE', #235, 3.000000000000000444 ) ;
#378 = CARTESIAN_POINT ( 'NONE',  ( 0.000000000000000000, 0.000000000000000000, 155.0000000000000000 ) ) ;
#379 = EDGE_LOOP ( 'NONE', ( #350, #37 ) ) ;
#380 = VECTOR ( 'NONE', #116, 1000.000000000000000 ) ;
#381 = CIRCLE ( 'NONE', #82, 1.750000000000000000 ) ;
ENDSEC;
END-ISO-10303-21;
