ISO-10303-21;
HEADER;
FILE_DESCRIPTION (( 'STEP AP203' ),
    '1' );
FILE_NAME ('2a42.STEP',
    '2022-07-08T15:17:02',
    ( '' ),
    ( '' ),
    'SwSTEP 2.0',
    'SolidWorks 2019',
    '' );
FILE_SCHEMA (( 'CONFIG_CONTROL_DESIGN' ));
ENDSEC;

DATA;
#1 = CC_DESIGN_APPROVAL ( #375, ( #117 ) ) ;
#2 = PRODUCT_DEFINITION ( 'NEZNÁMÝ', '', #117, #232 ) ;
#3 = DIRECTION ( 'NONE',  ( 0.000000000000000000, 0.000000000000000000, -1.000000000000000000 ) ) ;
#4 = DATE_TIME_ROLE ( 'classification_date' ) ;
#5 = FACE_OUTER_BOUND ( 'NONE', #302, .T. ) ;
#6 = ORIENTED_EDGE ( 'NONE', *, *, #258, .F. ) ;
#7 = PERSON_AND_ORGANIZATION ( #260, #127 ) ;
#8 = ORIENTED_EDGE ( 'NONE', *, *, #294, .T. ) ;
#9 = EDGE_CURVE ( 'NONE', #336, #132, #68, .T. ) ;
#10 = PERSON_AND_ORGANIZATION_ROLE ( 'classification_officer' ) ;
#11 = APPROVAL_PERSON_ORGANIZATION ( #7, #367, #40 ) ;
#12 = FACE_BOUND ( 'NONE', #217, .T. ) ;
#13 = DIRECTION ( 'NONE',  ( 1.000000000000000000, 0.000000000000000000, 0.000000000000000000 ) ) ;
#14 = DIRECTION ( 'NONE',  ( 1.000000000000000000, 0.000000000000000000, 0.000000000000000000 ) ) ;
#15 = TOROIDAL_SURFACE ( 'NONE', #50, 5.500000000000000000, 0.5000000000000000000 ) ;
#16 = CARTESIAN_POINT ( 'NONE',  ( 8.000000000000000000, 9.797174393178825657E-16, 5.000000000000000000 ) ) ;
#17 = UNCERTAINTY_MEASURE_WITH_UNIT (LENGTH_MEASURE( 1.000000000000000082E-05 ), #113, 'distance_accuracy_value', 'NONE');
#18 = LOCAL_TIME ( 17, 17, 2.000000000000000000, #198 ) ;
#19 = DIRECTION ( 'NONE',  ( 1.000000000000000000, 0.000000000000000000, 0.000000000000000000 ) ) ;
#20 = CARTESIAN_POINT ( 'NONE',  ( 0.000000000000000000, 0.000000000000000000, 165.0000000000000000 ) ) ;
#21 = CARTESIAN_POINT ( 'NONE',  ( 0.000000000000000000, 0.000000000000000000, 165.0000000000000000 ) ) ;
#22 = CARTESIAN_POINT ( 'NONE',  ( 0.000000000000000000, 0.000000000000000000, 165.0000000000000000 ) ) ;
#23 = EDGE_CURVE ( 'NONE', #242, #243, #274, .T. ) ;
#24 = LINE ( 'NONE', #236, #95 ) ;
#25 = CYLINDRICAL_SURFACE ( 'NONE', #249, 5.000000000000000000 ) ;
#26 = CIRCLE ( 'NONE', #162, 2.500000000000000000 ) ;
#27 = PLANE ( 'NONE',  #219 ) ;
#28 = EDGE_LOOP ( 'NONE', ( #254, #76, #105, #157 ) ) ;
#29 = CARTESIAN_POINT ( 'NONE',  ( 0.000000000000000000, 0.000000000000000000, 0.000000000000000000 ) ) ;
#30 = AXIS2_PLACEMENT_3D ( 'NONE', #321, #350, #295 ) ;
#31 = DIRECTION ( 'NONE',  ( -1.000000000000000000, 0.000000000000000000, 0.000000000000000000 ) ) ;
#32 = ORIENTED_EDGE ( 'NONE', *, *, #153, .F. ) ;
#33 = CYLINDRICAL_SURFACE ( 'NONE', #356, 2.500000000000000000 ) ;
#34 = ADVANCED_FACE ( 'NONE', ( #12, #79 ), #245, .T. ) ;
#35 = FACE_OUTER_BOUND ( 'NONE', #360, .T. ) ;
#36 = AXIS2_PLACEMENT_3D ( 'NONE', #51, #54, #290 ) ;
#37 = APPLICATION_PROTOCOL_DEFINITION ( 'international standard', 'config_control_design', 1994, #359 ) ;
#38 = AXIS2_PLACEMENT_3D ( 'NONE', #247, #140, #13 ) ;
#39 = APPROVAL ( #324, 'NEURÈENÝ' ) ;
#40 = APPROVAL_ROLE ( '' ) ;
#41 = DIRECTION ( 'NONE',  ( 1.000000000000000000, 0.000000000000000000, 0.000000000000000000 ) ) ;
#42 = CARTESIAN_POINT ( 'NONE',  ( 5.000000000000000000, 6.123233995736766282E-16, 165.0000000000000000 ) ) ;
#43 = AXIS2_PLACEMENT_3D ( 'NONE', #21, #48, #262 ) ;
#44 = COORDINATED_UNIVERSAL_TIME_OFFSET ( 1, 0, .AHEAD. ) ;
#45 = CARTESIAN_POINT ( 'NONE',  ( -5.000000000000000000, 0.000000000000000000, 165.0000000000000000 ) ) ;
#46 = ORIENTED_EDGE ( 'NONE', *, *, #357, .T. ) ;
#47 = ADVANCED_FACE ( 'NONE', ( #83 ), #15, .F. ) ;
#48 = DIRECTION ( 'NONE',  ( 0.000000000000000000, 0.000000000000000000, -1.000000000000000000 ) ) ;
#49 = ORIENTED_EDGE ( 'NONE', *, *, #9, .T. ) ;
#50 = AXIS2_PLACEMENT_3D ( 'NONE', #101, #220, #325 ) ;
#51 = CARTESIAN_POINT ( 'NONE',  ( -5.500000000000000000, 6.735557395310442023E-16, 5.500000000000005329 ) ) ;
#52 = CIRCLE ( 'NONE', #297, 8.000000000000000000 ) ;
#53 = DIRECTION ( 'NONE',  ( 0.000000000000000000, 0.000000000000000000, 1.000000000000000000 ) ) ;
#54 = DIRECTION ( 'NONE',  ( 1.224646799147353207E-16, 1.000000000000000000, -0.000000000000000000 ) ) ;
#55 = PRODUCT ( '2a42', '2a42', '', ( #380 ) ) ;
#56 = AXIS2_PLACEMENT_3D ( 'NONE', #281, #231, #228 ) ;
#57 = APPROVAL_PERSON_ORGANIZATION ( #244, #39, #137 ) ;
#58 = PRODUCT_DEFINITION_SHAPE ( 'NONE', 'NONE',  #2 ) ;
#59 = EDGE_CURVE ( 'NONE', #132, #218, #267, .T. ) ;
#60 = ORIENTED_EDGE ( 'NONE', *, *, #23, .F. ) ;
#61 = AXIS2_PLACEMENT_3D ( 'NONE', #29, #316, #292 ) ;
#62 = DIRECTION ( 'NONE',  ( 1.000000000000000000, 0.000000000000000000, 0.000000000000000000 ) ) ;
#63 = ORIENTED_EDGE ( 'NONE', *, *, #187, .F. ) ;
#64 = EDGE_CURVE ( 'NONE', #336, #160, #309, .T. ) ;
#65 = ORIENTED_EDGE ( 'NONE', *, *, #258, .T. ) ;
#66 = LINE ( 'NONE', #161, #376 ) ;
#67 = COORDINATED_UNIVERSAL_TIME_OFFSET ( 1, 0, .AHEAD. ) ;
#68 = CIRCLE ( 'NONE', #56, 5.000000000000000000 ) ;
#69 = AXIS2_PLACEMENT_3D ( 'NONE', #143, #312, #237 ) ;
#70 = ORIENTED_EDGE ( 'NONE', *, *, #23, .T. ) ;
#71 = DATE_AND_TIME ( #167, #229 ) ;
#72 = LINE ( 'NONE', #45, #146 ) ;
#73 = DIRECTION ( 'NONE',  ( 0.000000000000000000, 0.000000000000000000, 1.000000000000000000 ) ) ;
#74 = APPROVAL_STATUS ( 'not_yet_approved' ) ;
#75 = DIRECTION ( 'NONE',  ( 0.000000000000000000, 0.000000000000000000, 1.000000000000000000 ) ) ;
#76 = ORIENTED_EDGE ( 'NONE', *, *, #204, .F. ) ;
#77 = APPROVAL_DATE_TIME ( #280, #375 ) ;
#78 = FACE_OUTER_BOUND ( 'NONE', #80, .T. ) ;
#79 = FACE_OUTER_BOUND ( 'NONE', #352, .T. ) ;
#80 = EDGE_LOOP ( 'NONE', ( #379, #330, #150, #99 ) ) ;
#81 = CARTESIAN_POINT ( 'NONE',  ( -2.500000000000000000, 0.000000000000000000, 165.0000000000000000 ) ) ;
#82 = AXIS2_PLACEMENT_3D ( 'NONE', #156, #320, #62 ) ;
#83 = FACE_OUTER_BOUND ( 'NONE', #28, .T. ) ;
#84 = DIRECTION ( 'NONE',  ( -0.000000000000000000, -0.000000000000000000, -1.000000000000000000 ) ) ;
#85 = LINE ( 'NONE', #174, #120 ) ;
#86 = ADVANCED_FACE ( 'NONE', ( #314 ), #144, .T. ) ;
#87 = DIRECTION ( 'NONE',  ( -0.000000000000000000, -0.000000000000000000, -1.000000000000000000 ) ) ;
#88 = CIRCLE ( 'NONE', #212, 5.500000000000000000 ) ;
#89 = CARTESIAN_POINT ( 'NONE',  ( 0.000000000000000000, 0.000000000000000000, 5.500000000000005329 ) ) ;
#90 = CC_DESIGN_SECURITY_CLASSIFICATION ( #364, ( #117 ) ) ;
#91 = ADVANCED_FACE ( 'NONE', ( #369, #256 ), #27, .F. ) ;
#92 = FACE_OUTER_BOUND ( 'NONE', #215, .T. ) ;
#93 = DIRECTION ( 'NONE',  ( -0.000000000000000000, -0.000000000000000000, -1.000000000000000000 ) ) ;
#94 = CC_DESIGN_DATE_AND_TIME_ASSIGNMENT ( #71, #4, ( #364 ) ) ;
#95 = VECTOR ( 'NONE', #84, 1000.000000000000000 ) ;
#96 = ORIENTED_EDGE ( 'NONE', *, *, #343, .T. ) ;
#97 = ORIENTED_EDGE ( 'NONE', *, *, #291, .T. ) ;
#98 = PERSON_AND_ORGANIZATION ( #260, #127 ) ;
#99 = ORIENTED_EDGE ( 'NONE', *, *, #59, .F. ) ;
#100 = CALENDAR_DATE ( 2022, 8, 7 ) ;
#101 = CARTESIAN_POINT ( 'NONE',  ( 0.000000000000000000, 0.000000000000000000, 5.500000000000005329 ) ) ;
#102 = AXIS2_PLACEMENT_3D ( 'NONE', #192, #172, #301 ) ;
#103 = CALENDAR_DATE ( 2022, 8, 7 ) ;
#104 = CC_DESIGN_APPROVAL ( #367, ( #2 ) ) ;
#105 = ORIENTED_EDGE ( 'NONE', *, *, #59, .T. ) ;
#106 = VERTEX_POINT ( 'NONE', #206 ) ;
#107 = EDGE_LOOP ( 'NONE', ( #195, #279, #65, #49 ) ) ;
#108 = COORDINATED_UNIVERSAL_TIME_OFFSET ( 1, 0, .AHEAD. ) ;
#109 = CARTESIAN_POINT ( 'NONE',  ( 0.000000000000000000, 0.000000000000000000, 165.0000000000000000 ) ) ;
#110 = EDGE_CURVE ( 'NONE', #270, #363, #259, .T. ) ;
#111 = CIRCLE ( 'NONE', #333, 5.000000000000000000 ) ;
#112 = ORIENTED_EDGE ( 'NONE', *, *, #223, .T. ) ;
#113 =( LENGTH_UNIT ( ) NAMED_UNIT ( * ) SI_UNIT ( .MILLI., .METRE. ) );
#114 = DIRECTION ( 'NONE',  ( 0.000000000000000000, 0.000000000000000000, 1.000000000000000000 ) ) ;
#115 = AXIS2_PLACEMENT_3D ( 'NONE', #339, #366, #257 ) ;
#116 = DIRECTION ( 'NONE',  ( -1.000000000000000000, 0.000000000000000000, 0.000000000000000000 ) ) ;
#117 = PRODUCT_DEFINITION_FORMATION_WITH_SPECIFIED_SOURCE ( 'LIBOVOLNÝ', '', #55, .NOT_KNOWN. ) ;
#118 = CARTESIAN_POINT ( 'NONE',  ( -5.500000000000000000, 6.735557395310442023E-16, 5.000000000000002665 ) ) ;
#119 = EDGE_CURVE ( 'NONE', #218, #160, #136, .T. ) ;
#120 = VECTOR ( 'NONE', #342, 1000.000000000000000 ) ;
#121 = EDGE_LOOP ( 'NONE', ( #209, #163, #112, #322 ) ) ;
#122 = AXIS2_PLACEMENT_3D ( 'NONE', #268, #123, #381 ) ;
#123 = DIRECTION ( 'NONE',  ( 0.000000000000000000, 0.000000000000000000, 1.000000000000000000 ) ) ;
#124 = APPLICATION_PROTOCOL_DEFINITION ( 'international standard', 'config_control_design', 1994, #155 ) ;
#125 = ORIENTED_EDGE ( 'NONE', *, *, #134, .T. ) ;
#126 = PLANE ( 'NONE',  #185 ) ;
#127 = ORGANIZATION ( 'NEURÈENÝ', 'NEURÈENÝ', '' ) ;
#128 = ORIENTED_EDGE ( 'NONE', *, *, #294, .F. ) ;
#129 = SHAPE_DEFINITION_REPRESENTATION ( #58, #289 ) ;
#130 = DIRECTION ( 'NONE',  ( -0.000000000000000000, -0.000000000000000000, -1.000000000000000000 ) ) ;
#131 = EDGE_LOOP ( 'NONE', ( #284, #63 ) ) ;
#132 = VERTEX_POINT ( 'NONE', #337 ) ;
#133 = PERSON_AND_ORGANIZATION ( #260, #127 ) ;
#134 = EDGE_CURVE ( 'NONE', #242, #334, #85, .T. ) ;
#135 = PERSON_AND_ORGANIZATION_ROLE ( 'creator' ) ;
#136 = CIRCLE ( 'NONE', #69, 5.500000000000000000 ) ;
#137 = APPROVAL_ROLE ( '' ) ;
#138 = APPROVAL_STATUS ( 'not_yet_approved' ) ;
#139 = ADVANCED_FACE ( 'NONE', ( #149 ), #25, .T. ) ;
#140 = DIRECTION ( 'NONE',  ( 0.000000000000000000, 0.000000000000000000, 1.000000000000000000 ) ) ;
#141 = DIRECTION ( 'NONE',  ( 1.000000000000000000, 0.000000000000000000, -0.000000000000000000 ) ) ;
#142 = CARTESIAN_POINT ( 'NONE',  ( 2.500000000000000000, 3.061616997868383141E-16, 165.0000000000000000 ) ) ;
#143 = CARTESIAN_POINT ( 'NONE',  ( 0.000000000000000000, 0.000000000000000000, 5.000000000000000000 ) ) ;
#144 = CYLINDRICAL_SURFACE ( 'NONE', #115, 8.000000000000000000 ) ;
#145 = DIRECTION ( 'NONE',  ( 1.000000000000000000, 0.000000000000000000, 0.000000000000000000 ) ) ;
#146 = VECTOR ( 'NONE', #358, 1000.000000000000000 ) ;
#147 = CARTESIAN_POINT ( 'NONE',  ( -5.000000000000000000, 0.000000000000000000, 5.500000000000005329 ) ) ;
#148 = EDGE_CURVE ( 'NONE', #243, #242, #340, .T. ) ;
#149 = FACE_OUTER_BOUND ( 'NONE', #107, .T. ) ;
#150 = ORIENTED_EDGE ( 'NONE', *, *, #119, .F. ) ;
#151 = CARTESIAN_POINT ( 'NONE',  ( 0.000000000000000000, 0.000000000000000000, 165.0000000000000000 ) ) ;
#152 = EDGE_LOOP ( 'NONE', ( #128, #304, #125, #46 ) ) ;
#153 = EDGE_CURVE ( 'NONE', #239, #347, #207, .T. ) ;
#154 = LOCAL_TIME ( 17, 17, 2.000000000000000000, #331 ) ;
#155 = APPLICATION_CONTEXT ( 'configuration controlled 3d designs of mechanical parts and assemblies' ) ;
#156 = CARTESIAN_POINT ( 'NONE',  ( 0.000000000000000000, 0.000000000000000000, 0.000000000000000000 ) ) ;
#157 = ORIENTED_EDGE ( 'NONE', *, *, #252, .F. ) ;
#158 = DIRECTION ( 'NONE',  ( 1.000000000000000000, 0.000000000000000000, 0.000000000000000000 ) ) ;
#159 = DIRECTION ( 'NONE',  ( 0.000000000000000000, 0.000000000000000000, 1.000000000000000000 ) ) ;
#160 = VERTEX_POINT ( 'NONE', #118 ) ;
#161 = CARTESIAN_POINT ( 'NONE',  ( -8.000000000000000000, 0.000000000000000000, 5.000000000000000000 ) ) ;
#162 = AXIS2_PLACEMENT_3D ( 'NONE', #173, #307, #368 ) ;
#163 = ORIENTED_EDGE ( 'NONE', *, *, #266, .F. ) ;
#164 = ADVANCED_FACE ( 'NONE', ( #238 ), #349, .T. ) ;
#165 = EDGE_LOOP ( 'NONE', ( #177, #248, #313, #226 ) ) ;
#166 = ORIENTED_EDGE ( 'NONE', *, *, #148, .F. ) ;
#167 = CALENDAR_DATE ( 2022, 8, 7 ) ;
#168 = VERTEX_POINT ( 'NONE', #180 ) ;
#169 = ADVANCED_FACE ( 'NONE', ( #92 ), #33, .F. ) ;
#170 = CIRCLE ( 'NONE', #122, 5.000000000000000000 ) ;
#171 = CARTESIAN_POINT ( 'NONE',  ( -8.000000000000000000, 0.000000000000000000, 5.000000000000000000 ) ) ;
#172 = DIRECTION ( 'NONE',  ( 0.000000000000000000, -1.000000000000000000, 0.000000000000000000 ) ) ;
#173 = CARTESIAN_POINT ( 'NONE',  ( 0.000000000000000000, 0.000000000000000000, 0.000000000000000000 ) ) ;
#174 = CARTESIAN_POINT ( 'NONE',  ( -2.500000000000000000, 0.000000000000000000, 165.0000000000000000 ) ) ;
#175 = FACE_OUTER_BOUND ( 'NONE', #152, .T. ) ;
#176 = DIRECTION ( 'NONE',  ( 1.000000000000000000, 0.000000000000000000, 0.000000000000000000 ) ) ;
#177 = ORIENTED_EDGE ( 'NONE', *, *, #282, .F. ) ;
#178 = EDGE_CURVE ( 'NONE', #106, #334, #202, .T. ) ;
#179 = LOCAL_TIME ( 17, 17, 2.000000000000000000, #44 ) ;
#180 = CARTESIAN_POINT ( 'NONE',  ( -8.000000000000000000, 0.000000000000000000, 0.000000000000000000 ) ) ;
#181 = CC_DESIGN_PERSON_AND_ORGANIZATION_ASSIGNMENT ( #133, #222, ( #2 ) ) ;
#182 = FACE_BOUND ( 'NONE', #275, .T. ) ;
#183 = ORIENTED_EDGE ( 'NONE', *, *, #357, .F. ) ;
#184 = AXIS2_PLACEMENT_3D ( 'NONE', #377, #346, #158 ) ;
#185 = AXIS2_PLACEMENT_3D ( 'NONE', #271, #159, #213 ) ;
#186 = CARTESIAN_POINT ( 'NONE',  ( 0.000000000000000000, 0.000000000000000000, 5.000000000000000000 ) ) ;
#187 = EDGE_CURVE ( 'NONE', #363, #168, #261, .T. ) ;
#188 = CLOSED_SHELL ( 'NONE', ( #169, #323, #305, #86, #164, #34, #91, #139, #214, #47, #338 ) ) ;
#189 = ORIENTED_EDGE ( 'NONE', *, *, #204, .T. ) ;
#190 = CALENDAR_DATE ( 2022, 8, 7 ) ;
#191 = LINE ( 'NONE', #362, #199 ) ;
#192 = CARTESIAN_POINT ( 'NONE',  ( 5.500000000000000000, 0.000000000000000000, 5.500000000000005329 ) ) ;
#193 = CARTESIAN_POINT ( 'NONE',  ( 0.000000000000000000, 0.000000000000000000, 165.0000000000000000 ) ) ;
#194 = EDGE_CURVE ( 'NONE', #168, #363, #310, .T. ) ;
#195 = ORIENTED_EDGE ( 'NONE', *, *, #343, .F. ) ;
#196 = PERSON_AND_ORGANIZATION ( #260, #127 ) ;
#197 = CARTESIAN_POINT ( 'NONE',  ( 0.000000000000000000, 0.000000000000000000, 5.000000000000000000 ) ) ;
#198 = COORDINATED_UNIVERSAL_TIME_OFFSET ( 1, 0, .AHEAD. ) ;
#199 = VECTOR ( 'NONE', #230, 1000.000000000000000 ) ;
#200 = DIRECTION ( 'NONE',  ( -0.000000000000000000, -0.000000000000000000, -1.000000000000000000 ) ) ;
#201 = CC_DESIGN_PERSON_AND_ORGANIZATION_ASSIGNMENT ( #348, #210, ( #55 ) ) ;
#202 = CIRCLE ( 'NONE', #82, 2.500000000000000000 ) ;
#203 = CARTESIAN_POINT ( 'NONE',  ( 0.000000000000000000, 0.000000000000000000, 165.0000000000000000 ) ) ;
#204 = EDGE_CURVE ( 'NONE', #132, #336, #170, .T. ) ;
#205 = CARTESIAN_POINT ( 'NONE',  ( -2.500000000000000000, 0.000000000000000000, 0.000000000000000000 ) ) ;
#206 = CARTESIAN_POINT ( 'NONE',  ( 2.500000000000000000, 3.061616997868383141E-16, 0.000000000000000000 ) ) ;
#207 = CIRCLE ( 'NONE', #341, 5.000000000000000000 ) ;
#208 = ORIENTED_EDGE ( 'NONE', *, *, #282, .T. ) ;
#209 = ORIENTED_EDGE ( 'NONE', *, *, #110, .F. ) ;
#210 = PERSON_AND_ORGANIZATION_ROLE ( 'design_owner' ) ;
#211 = ORIENTED_EDGE ( 'NONE', *, *, #153, .T. ) ;
#212 = AXIS2_PLACEMENT_3D ( 'NONE', #278, #200, #353 ) ;
#213 = DIRECTION ( 'NONE',  ( 1.000000000000000000, 0.000000000000000000, -0.000000000000000000 ) ) ;
#214 = ADVANCED_FACE ( 'NONE', ( #182, #35 ), #126, .T. ) ;
#215 = EDGE_LOOP ( 'NONE', ( #70, #8, #365, #240 ) ) ;
#216 = SECURITY_CLASSIFICATION_LEVEL ( 'unclassified' ) ;
#217 = EDGE_LOOP ( 'NONE', ( #344, #354 ) ) ;
#218 = VERTEX_POINT ( 'NONE', #273 ) ;
#219 = AXIS2_PLACEMENT_3D ( 'NONE', #234, #114, #372 ) ;
#220 = DIRECTION ( 'NONE',  ( 0.000000000000000000, 0.000000000000000000, 1.000000000000000000 ) ) ;
#221 = AXIS2_PLACEMENT_3D ( 'NONE', #193, #283, #329 ) ;
#222 = PERSON_AND_ORGANIZATION_ROLE ( 'creator' ) ;
#223 = EDGE_CURVE ( 'NONE', #272, #168, #66, .T. ) ;
#224 = CARTESIAN_POINT ( 'NONE',  ( 8.000000000000000000, 9.797174393178825657E-16, 5.000000000000000000 ) ) ;
#225 = CARTESIAN_POINT ( 'NONE',  ( 0.000000000000000000, 0.000000000000000000, 165.0000000000000000 ) ) ;
#226 = ORIENTED_EDGE ( 'NONE', *, *, #223, .F. ) ;
#227 = CALENDAR_DATE ( 2022, 8, 7 ) ;
#228 = DIRECTION ( 'NONE',  ( 1.000000000000000000, 0.000000000000000000, 0.000000000000000000 ) ) ;
#229 = LOCAL_TIME ( 17, 17, 2.000000000000000000, #67 ) ;
#230 = DIRECTION ( 'NONE',  ( 0.000000000000000000, 0.000000000000000000, -1.000000000000000000 ) ) ;
#231 = DIRECTION ( 'NONE',  ( 0.000000000000000000, 0.000000000000000000, 1.000000000000000000 ) ) ;
#232 = DESIGN_CONTEXT ( 'detailed design', #359, 'design' ) ;
#233 = CARTESIAN_POINT ( 'NONE',  ( 8.000000000000000000, 9.797174393178825657E-16, 0.000000000000000000 ) ) ;
#234 = CARTESIAN_POINT ( 'NONE',  ( 0.000000000000000000, 0.000000000000000000, 0.000000000000000000 ) ) ;
#235 = AXIS2_PLACEMENT_3D ( 'NONE', #203, #53, #176 ) ;
#236 = CARTESIAN_POINT ( 'NONE',  ( 5.000000000000000000, 6.123233995736766282E-16, 165.0000000000000000 ) ) ;
#237 = DIRECTION ( 'NONE',  ( 1.000000000000000000, 0.000000000000000000, 0.000000000000000000 ) ) ;
#238 = FACE_OUTER_BOUND ( 'NONE', #121, .T. ) ;
#239 = VERTEX_POINT ( 'NONE', #42 ) ;
#240 = ORIENTED_EDGE ( 'NONE', *, *, #134, .F. ) ;
#241 = PERSON_AND_ORGANIZATION_ROLE ( 'design_supplier' ) ;
#242 = VERTEX_POINT ( 'NONE', #81 ) ;
#243 = VERTEX_POINT ( 'NONE', #142 ) ;
#244 = PERSON_AND_ORGANIZATION ( #260, #127 ) ;
#245 = PLANE ( 'NONE',  #374 ) ;
#246 = CC_DESIGN_PERSON_AND_ORGANIZATION_ASSIGNMENT ( #303, #10, ( #364 ) ) ;
#247 = CARTESIAN_POINT ( 'NONE',  ( 0.000000000000000000, 0.000000000000000000, 5.000000000000000000 ) ) ;
#248 = ORIENTED_EDGE ( 'NONE', *, *, #110, .T. ) ;
#249 = AXIS2_PLACEMENT_3D ( 'NONE', #20, #87, #116 ) ;
#250 = APPROVAL_DATE_TIME ( #298, #39 ) ;
#251 = DIRECTION ( 'NONE',  ( 0.000000000000000000, 0.000000000000000000, 1.000000000000000000 ) ) ;
#252 = EDGE_CURVE ( 'NONE', #160, #218, #88, .T. ) ;
#253 = VECTOR ( 'NONE', #373, 1000.000000000000000 ) ;
#254 = ORIENTED_EDGE ( 'NONE', *, *, #64, .F. ) ;
#255 = CC_DESIGN_APPROVAL ( #39, ( #364 ) ) ;
#256 = FACE_OUTER_BOUND ( 'NONE', #131, .T. ) ;
#257 = DIRECTION ( 'NONE',  ( -1.000000000000000000, 0.000000000000000000, 0.000000000000000000 ) ) ;
#258 = EDGE_CURVE ( 'NONE', #347, #336, #72, .T. ) ;
#259 = LINE ( 'NONE', #16, #253 ) ;
#260 = PERSON ( 'NEURÈENÝ', 'NEURÈENÝ', 'NEURÈENÝ', ('NEURÈENÝ'), ('NEURÈENÝ'), ('NEURÈENÝ') ) ;
#261 = CIRCLE ( 'NONE', #30, 8.000000000000000000 ) ;
#262 = DIRECTION ( 'NONE',  ( -1.000000000000000000, 0.000000000000000000, 0.000000000000000000 ) ) ;
#263 = DIRECTION ( 'NONE',  ( 0.000000000000000000, 0.000000000000000000, 1.000000000000000000 ) ) ;
#264 = ORIENTED_EDGE ( 'NONE', *, *, #266, .T. ) ;
#265 = DIRECTION ( 'NONE',  ( -1.000000000000000000, 0.000000000000000000, 0.000000000000000000 ) ) ;
#266 = EDGE_CURVE ( 'NONE', #272, #270, #326, .T. ) ;
#267 = CIRCLE ( 'NONE', #102, 0.5000000000000004441 ) ;
#268 = CARTESIAN_POINT ( 'NONE',  ( 0.000000000000000000, 0.000000000000000000, 5.500000000000005329 ) ) ;
#269 =( GEOMETRIC_REPRESENTATION_CONTEXT ( 3 ) GLOBAL_UNCERTAINTY_ASSIGNED_CONTEXT ( ( #17 ) ) GLOBAL_UNIT_ASSIGNED_CONTEXT ( ( #113, #378, #318 ) ) REPRESENTATION_CONTEXT ( 'NONE', 'WORKASPACE' ) );
#270 = VERTEX_POINT ( 'NONE', #224 ) ;
#271 = CARTESIAN_POINT ( 'NONE',  ( 0.000000000000000000, 0.000000000000000000, 165.0000000000000000 ) ) ;
#272 = VERTEX_POINT ( 'NONE', #171 ) ;
#273 = CARTESIAN_POINT ( 'NONE',  ( 5.500000000000000000, 0.000000000000000000, 5.000000000000002665 ) ) ;
#274 = CIRCLE ( 'NONE', #361, 2.500000000000000000 ) ;
#275 = EDGE_LOOP ( 'NONE', ( #60, #166 ) ) ;
#276 = TOROIDAL_SURFACE ( 'NONE', #293, 5.500000000000000000, 0.5000000000000000000 ) ;
#277 = PERSON_AND_ORGANIZATION ( #260, #127 ) ;
#278 = CARTESIAN_POINT ( 'NONE',  ( 0.000000000000000000, 0.000000000000000000, 5.000000000000000000 ) ) ;
#279 = ORIENTED_EDGE ( 'NONE', *, *, #291, .F. ) ;
#280 = DATE_AND_TIME ( #103, #179 ) ;
#281 = CARTESIAN_POINT ( 'NONE',  ( 0.000000000000000000, 0.000000000000000000, 5.500000000000005329 ) ) ;
#282 = EDGE_CURVE ( 'NONE', #270, #272, #52, .T. ) ;
#283 = DIRECTION ( 'NONE',  ( -0.000000000000000000, -0.000000000000000000, -1.000000000000000000 ) ) ;
#284 = ORIENTED_EDGE ( 'NONE', *, *, #194, .F. ) ;
#285 = LOCAL_TIME ( 17, 17, 2.000000000000000000, #108 ) ;
#286 = EDGE_LOOP ( 'NONE', ( #183, #296 ) ) ;
#287 = APPROVAL_DATE_TIME ( #327, #367 ) ;
#288 = DIRECTION ( 'NONE',  ( 1.000000000000000000, 0.000000000000000000, 0.000000000000000000 ) ) ;
#289 = ADVANCED_BREP_SHAPE_REPRESENTATION ( '2a42', ( #317, #184 ), #269 ) ;
#290 = DIRECTION ( 'NONE',  ( -1.000000000000000000, 1.224646799147351482E-16, 0.000000000000000000 ) ) ;
#291 = EDGE_CURVE ( 'NONE', #347, #239, #111, .T. ) ;
#292 = DIRECTION ( 'NONE',  ( 1.000000000000000000, 0.000000000000000000, 0.000000000000000000 ) ) ;
#293 = AXIS2_PLACEMENT_3D ( 'NONE', #89, #371, #19 ) ;
#294 = EDGE_CURVE ( 'NONE', #243, #106, #191, .T. ) ;
#295 = DIRECTION ( 'NONE',  ( 1.000000000000000000, 0.000000000000000000, 0.000000000000000000 ) ) ;
#296 = ORIENTED_EDGE ( 'NONE', *, *, #178, .F. ) ;
#297 = AXIS2_PLACEMENT_3D ( 'NONE', #328, #251, #288 ) ;
#298 = DATE_AND_TIME ( #190, #154 ) ;
#299 = CC_DESIGN_DATE_AND_TIME_ASSIGNMENT ( #306, #355, ( #2 ) ) ;
#300 = CYLINDRICAL_SURFACE ( 'NONE', #221, 5.000000000000000000 ) ;
#301 = DIRECTION ( 'NONE',  ( 0.000000000000000000, 0.000000000000000000, -1.000000000000000000 ) ) ;
#302 = EDGE_LOOP ( 'NONE', ( #32, #96, #189, #6 ) ) ;
#303 = PERSON_AND_ORGANIZATION ( #260, #127 ) ;
#304 = ORIENTED_EDGE ( 'NONE', *, *, #148, .T. ) ;
#305 = ADVANCED_FACE ( 'NONE', ( #5 ), #300, .T. ) ;
#306 = DATE_AND_TIME ( #227, #18 ) ;
#307 = DIRECTION ( 'NONE',  ( -0.000000000000000000, -0.000000000000000000, -1.000000000000000000 ) ) ;
#308 = CC_DESIGN_PERSON_AND_ORGANIZATION_ASSIGNMENT ( #196, #241, ( #117 ) ) ;
#309 = CIRCLE ( 'NONE', #36, 0.5000000000000004441 ) ;
#310 = CIRCLE ( 'NONE', #61, 8.000000000000000000 ) ;
#311 = CARTESIAN_POINT ( 'NONE',  ( -5.000000000000000000, 0.000000000000000000, 165.0000000000000000 ) ) ;
#312 = DIRECTION ( 'NONE',  ( -0.000000000000000000, -0.000000000000000000, -1.000000000000000000 ) ) ;
#313 = ORIENTED_EDGE ( 'NONE', *, *, #187, .T. ) ;
#314 = FACE_OUTER_BOUND ( 'NONE', #165, .T. ) ;
#315 = CC_DESIGN_PERSON_AND_ORGANIZATION_ASSIGNMENT ( #98, #135, ( #117 ) ) ;
#316 = DIRECTION ( 'NONE',  ( 0.000000000000000000, 0.000000000000000000, 1.000000000000000000 ) ) ;
#317 = MANIFOLD_SOLID_BREP ( 'Odebrat vysunutím3', #188 ) ;
#318 =( NAMED_UNIT ( * ) SI_UNIT ( $, .STERADIAN. ) SOLID_ANGLE_UNIT ( ) );
#319 = APPROVAL_PERSON_ORGANIZATION ( #277, #375, #351 ) ;
#320 = DIRECTION ( 'NONE',  ( -0.000000000000000000, -0.000000000000000000, -1.000000000000000000 ) ) ;
#321 = CARTESIAN_POINT ( 'NONE',  ( 0.000000000000000000, 0.000000000000000000, 0.000000000000000000 ) ) ;
#322 = ORIENTED_EDGE ( 'NONE', *, *, #194, .T. ) ;
#323 = ADVANCED_FACE ( 'NONE', ( #78 ), #276, .F. ) ;
#324 = APPROVAL_STATUS ( 'not_yet_approved' ) ;
#325 = DIRECTION ( 'NONE',  ( 1.000000000000000000, 0.000000000000000000, 0.000000000000000000 ) ) ;
#326 = CIRCLE ( 'NONE', #38, 8.000000000000000000 ) ;
#327 = DATE_AND_TIME ( #100, #285 ) ;
#328 = CARTESIAN_POINT ( 'NONE',  ( 0.000000000000000000, 0.000000000000000000, 5.000000000000000000 ) ) ;
#329 = DIRECTION ( 'NONE',  ( -1.000000000000000000, 0.000000000000000000, 0.000000000000000000 ) ) ;
#330 = ORIENTED_EDGE ( 'NONE', *, *, #64, .T. ) ;
#331 = COORDINATED_UNIVERSAL_TIME_OFFSET ( 1, 0, .AHEAD. ) ;
#332 = DIRECTION ( 'NONE',  ( 0.000000000000000000, 0.000000000000000000, 1.000000000000000000 ) ) ;
#333 = AXIS2_PLACEMENT_3D ( 'NONE', #109, #75, #41 ) ;
#334 = VERTEX_POINT ( 'NONE', #205 ) ;
#335 = CYLINDRICAL_SURFACE ( 'NONE', #43, 2.500000000000000000 ) ;
#336 = VERTEX_POINT ( 'NONE', #147 ) ;
#337 = CARTESIAN_POINT ( 'NONE',  ( 5.000000000000000000, 6.123233995736766282E-16, 5.500000000000005329 ) ) ;
#338 = ADVANCED_FACE ( 'NONE', ( #175 ), #335, .F. ) ;
#339 = CARTESIAN_POINT ( 'NONE',  ( 0.000000000000000000, 0.000000000000000000, 5.000000000000000000 ) ) ;
#340 = CIRCLE ( 'NONE', #235, 2.500000000000000000 ) ;
#341 = AXIS2_PLACEMENT_3D ( 'NONE', #22, #263, #145 ) ;
#342 = DIRECTION ( 'NONE',  ( 0.000000000000000000, 0.000000000000000000, -1.000000000000000000 ) ) ;
#343 = EDGE_CURVE ( 'NONE', #239, #132, #24, .T. ) ;
#344 = ORIENTED_EDGE ( 'NONE', *, *, #119, .T. ) ;
#345 = PRODUCT_RELATED_PRODUCT_CATEGORY ( 'detail', '', ( #55 ) ) ;
#346 = DIRECTION ( 'NONE',  ( 0.000000000000000000, 0.000000000000000000, 1.000000000000000000 ) ) ;
#347 = VERTEX_POINT ( 'NONE', #311 ) ;
#348 = PERSON_AND_ORGANIZATION ( #260, #127 ) ;
#349 = CYLINDRICAL_SURFACE ( 'NONE', #370, 8.000000000000000000 ) ;
#350 = DIRECTION ( 'NONE',  ( 0.000000000000000000, 0.000000000000000000, 1.000000000000000000 ) ) ;
#351 = APPROVAL_ROLE ( '' ) ;
#352 = EDGE_LOOP ( 'NONE', ( #264, #208 ) ) ;
#353 = DIRECTION ( 'NONE',  ( 1.000000000000000000, 0.000000000000000000, 0.000000000000000000 ) ) ;
#354 = ORIENTED_EDGE ( 'NONE', *, *, #252, .T. ) ;
#355 = DATE_TIME_ROLE ( 'creation_date' ) ;
#356 = AXIS2_PLACEMENT_3D ( 'NONE', #151, #3, #265 ) ;
#357 = EDGE_CURVE ( 'NONE', #334, #106, #26, .T. ) ;
#358 = DIRECTION ( 'NONE',  ( -0.000000000000000000, -0.000000000000000000, -1.000000000000000000 ) ) ;
#359 = APPLICATION_CONTEXT ( 'configuration controlled 3d designs of mechanical parts and assemblies' ) ;
#360 = EDGE_LOOP ( 'NONE', ( #97, #211 ) ) ;
#361 = AXIS2_PLACEMENT_3D ( 'NONE', #225, #73, #14 ) ;
#362 = CARTESIAN_POINT ( 'NONE',  ( 2.500000000000000000, 3.061616997868383141E-16, 165.0000000000000000 ) ) ;
#363 = VERTEX_POINT ( 'NONE', #233 ) ;
#364 = SECURITY_CLASSIFICATION ( '', '', #216 ) ;
#365 = ORIENTED_EDGE ( 'NONE', *, *, #178, .T. ) ;
#366 = DIRECTION ( 'NONE',  ( -0.000000000000000000, -0.000000000000000000, -1.000000000000000000 ) ) ;
#367 = APPROVAL ( #138, 'NEURÈENÝ' ) ;
#368 = DIRECTION ( 'NONE',  ( 1.000000000000000000, 0.000000000000000000, 0.000000000000000000 ) ) ;
#369 = FACE_BOUND ( 'NONE', #286, .T. ) ;
#370 = AXIS2_PLACEMENT_3D ( 'NONE', #186, #93, #31 ) ;
#371 = DIRECTION ( 'NONE',  ( 0.000000000000000000, 0.000000000000000000, 1.000000000000000000 ) ) ;
#372 = DIRECTION ( 'NONE',  ( 1.000000000000000000, 0.000000000000000000, -0.000000000000000000 ) ) ;
#373 = DIRECTION ( 'NONE',  ( -0.000000000000000000, -0.000000000000000000, -1.000000000000000000 ) ) ;
#374 = AXIS2_PLACEMENT_3D ( 'NONE', #197, #332, #141 ) ;
#375 = APPROVAL ( #74, 'NEURÈENÝ' ) ;
#376 = VECTOR ( 'NONE', #130, 1000.000000000000000 ) ;
#377 = CARTESIAN_POINT ( 'NONE',  ( 0.000000000000000000, 0.000000000000000000, 0.000000000000000000 ) ) ;
#378 =( NAMED_UNIT ( * ) PLANE_ANGLE_UNIT ( ) SI_UNIT ( $, .RADIAN. ) );
#379 = ORIENTED_EDGE ( 'NONE', *, *, #9, .F. ) ;
#380 = MECHANICAL_CONTEXT ( 'NONE', #155, 'mechanical' ) ;
#381 = DIRECTION ( 'NONE',  ( 1.000000000000000000, 0.000000000000000000, 0.000000000000000000 ) ) ;
ENDSEC;
END-ISO-10303-21;
