ISO-10303-21;
HEADER;
FILE_DESCRIPTION (( 'STEP AP203' ),
    '1' );
FILE_NAME ('75b9.STEP',
    '2022-07-08T14:36:58',
    ( '' ),
    ( '' ),
    'SwSTEP 2.0',
    'SolidWorks 2019',
    '' );
FILE_SCHEMA (( 'CONFIG_CONTROL_DESIGN' ));
ENDSEC;

DATA;
#1 = CALENDAR_DATE ( 2022, 8, 7 ) ;
#2 = PERSON_AND_ORGANIZATION_ROLE ( 'classification_officer' ) ;
#3 = LOCAL_TIME ( 16, 36, 58.00000000000000000, #31 ) ;
#4 = CARTESIAN_POINT ( 'NONE',  ( 6.000000000000000888, 7.347880794884120722E-16, 7.700000000000040146 ) ) ;
#5 = ORIENTED_EDGE ( 'NONE', *, *, #221, .F. ) ;
#6 = FACE_BOUND ( 'NONE', #158, .T. ) ;
#7 = DIRECTION ( 'NONE',  ( -0.000000000000000000, -0.000000000000000000, -1.000000000000000000 ) ) ;
#8 = CC_DESIGN_DATE_AND_TIME_ASSIGNMENT ( #154, #150, ( #142 ) ) ;
#9 = DIRECTION ( 'NONE',  ( -0.000000000000000000, -0.000000000000000000, -1.000000000000000000 ) ) ;
#10 = CYLINDRICAL_SURFACE ( 'NONE', #238, 4.000000000000000000 ) ;
#11 = CARTESIAN_POINT ( 'NONE',  ( 6.000000000000000888, 7.347880794884120722E-16, 707.0000000000000000 ) ) ;
#12 = ADVANCED_FACE ( 'NONE', ( #298, #36 ), #64, .T. ) ;
#13 = CIRCLE ( 'NONE', #30, 10.00000000000000000 ) ;
#14 = DIRECTION ( 'NONE',  ( -1.000000000000000000, 0.000000000000000000, 0.000000000000000000 ) ) ;
#15 = AXIS2_PLACEMENT_3D ( 'NONE', #113, #363, #97 ) ;
#16 = CARTESIAN_POINT ( 'NONE',  ( 10.00000000000000000, 1.224646799147353256E-15, 7.000000000000000000 ) ) ;
#17 = DIRECTION ( 'NONE',  ( 0.000000000000000000, 0.000000000000000000, 1.000000000000000000 ) ) ;
#18 = AXIS2_PLACEMENT_3D ( 'NONE', #70, #101, #220 ) ;
#19 = ORIENTED_EDGE ( 'NONE', *, *, #304, .F. ) ;
#20 = ORIENTED_EDGE ( 'NONE', *, *, #221, .T. ) ;
#21 = DIRECTION ( 'NONE',  ( 0.000000000000000000, 0.000000000000000000, 1.000000000000000000 ) ) ;
#22 = ORIENTED_EDGE ( 'NONE', *, *, #194, .T. ) ;
#23 = APPLICATION_PROTOCOL_DEFINITION ( 'international standard', 'config_control_design', 1994, #167 ) ;
#24 = EDGE_CURVE ( 'NONE', #175, #347, #251, .T. ) ;
#25 = ORIENTED_EDGE ( 'NONE', *, *, #282, .F. ) ;
#26 = ORIENTED_EDGE ( 'NONE', *, *, #131, .F. ) ;
#27 = VECTOR ( 'NONE', #91, 1000.000000000000000 ) ;
#28 = EDGE_CURVE ( 'NONE', #171, #138, #356, .T. ) ;
#29 = LINE ( 'NONE', #272, #80 ) ;
#30 = AXIS2_PLACEMENT_3D ( 'NONE', #73, #46, #43 ) ;
#31 = COORDINATED_UNIVERSAL_TIME_OFFSET ( 1, 0, .AHEAD. ) ;
#32 = DIRECTION ( 'NONE',  ( 1.000000000000000000, 0.000000000000000000, 0.000000000000000000 ) ) ;
#33 = VERTEX_POINT ( 'NONE', #250 ) ;
#34 = ADVANCED_FACE ( 'NONE', ( #35 ), #237, .T. ) ;
#35 = FACE_OUTER_BOUND ( 'NONE', #263, .T. ) ;
#36 = FACE_OUTER_BOUND ( 'NONE', #281, .T. ) ;
#37 = COORDINATED_UNIVERSAL_TIME_OFFSET ( 1, 0, .AHEAD. ) ;
#38 = DIRECTION ( 'NONE',  ( 1.000000000000000000, 0.000000000000000000, 0.000000000000000000 ) ) ;
#39 = VECTOR ( 'NONE', #77, 1000.000000000000000 ) ;
#40 = DIRECTION ( 'NONE',  ( -0.000000000000000000, -0.000000000000000000, -1.000000000000000000 ) ) ;
#41 = FACE_OUTER_BOUND ( 'NONE', #332, .T. ) ;
#42 = ADVANCED_FACE ( 'NONE', ( #155 ), #10, .F. ) ;
#43 = DIRECTION ( 'NONE',  ( 1.000000000000000000, 0.000000000000000000, 0.000000000000000000 ) ) ;
#44 = DIRECTION ( 'NONE',  ( 1.000000000000000000, 0.000000000000000000, 0.000000000000000000 ) ) ;
#45 = CARTESIAN_POINT ( 'NONE',  ( 0.000000000000000000, 0.000000000000000000, 707.0000000000000000 ) ) ;
#46 = DIRECTION ( 'NONE',  ( 0.000000000000000000, 0.000000000000000000, 1.000000000000000000 ) ) ;
#47 = DIRECTION ( 'NONE',  ( 0.000000000000000000, -1.000000000000000000, 0.000000000000000000 ) ) ;
#48 = EDGE_LOOP ( 'NONE', ( #148, #343, #81, #53 ) ) ;
#49 = CARTESIAN_POINT ( 'NONE',  ( -4.000000000000000000, 0.000000000000000000, 0.000000000000000000 ) ) ;
#50 = AXIS2_PLACEMENT_3D ( 'NONE', #369, #337, #368 ) ;
#51 = ORIENTED_EDGE ( 'NONE', *, *, #56, .F. ) ;
#52 = EDGE_CURVE ( 'NONE', #145, #174, #338, .T. ) ;
#53 = ORIENTED_EDGE ( 'NONE', *, *, #308, .F. ) ;
#54 = APPLICATION_PROTOCOL_DEFINITION ( 'international standard', 'config_control_design', 1994, #178 ) ;
#55 =( LENGTH_UNIT ( ) NAMED_UNIT ( * ) SI_UNIT ( .MILLI., .METRE. ) );
#56 = EDGE_CURVE ( 'NONE', #347, #175, #170, .T. ) ;
#57 = COORDINATED_UNIVERSAL_TIME_OFFSET ( 1, 0, .AHEAD. ) ;
#58 = CARTESIAN_POINT ( 'NONE',  ( -6.000000000000000888, 0.000000000000000000, 7.700000000000040146 ) ) ;
#59 = CALENDAR_DATE ( 2022, 8, 7 ) ;
#60 = CARTESIAN_POINT ( 'NONE',  ( 4.000000000000000000, 4.898587196589411843E-16, 0.000000000000000000 ) ) ;
#61 = ORIENTED_EDGE ( 'NONE', *, *, #304, .T. ) ;
#62 = ORGANIZATION ( 'NEURÈENÝ', 'NEURÈENÝ', '' ) ;
#63 = DIRECTION ( 'NONE',  ( 1.000000000000000000, 0.000000000000000000, 0.000000000000000000 ) ) ;
#64 = PLANE ( 'NONE',  #313 ) ;
#65 = APPROVAL_DATE_TIME ( #236, #268 ) ;
#66 = DIRECTION ( 'NONE',  ( 1.000000000000000000, 0.000000000000000000, -0.000000000000000000 ) ) ;
#67 = ORIENTED_EDGE ( 'NONE', *, *, #135, .T. ) ;
#68 = DIRECTION ( 'NONE',  ( -1.000000000000000000, 0.000000000000000000, 0.000000000000000000 ) ) ;
#69 = TOROIDAL_SURFACE ( 'NONE', #262, 6.700000000000001066, 0.6999999999999999556 ) ;
#70 = CARTESIAN_POINT ( 'NONE',  ( 0.000000000000000000, 0.000000000000000000, 7.000000000000000000 ) ) ;
#71 = ADVANCED_FACE ( 'NONE', ( #366, #265 ), #123, .F. ) ;
#72 = DIRECTION ( 'NONE',  ( 1.000000000000000000, 0.000000000000000000, 0.000000000000000000 ) ) ;
#73 = CARTESIAN_POINT ( 'NONE',  ( 0.000000000000000000, 0.000000000000000000, 0.000000000000000000 ) ) ;
#74 = MANIFOLD_SOLID_BREP ( 'Odebrat vysunutím3', #137 ) ;
#75 = CARTESIAN_POINT ( 'NONE',  ( 0.000000000000000000, 0.000000000000000000, 7.700000000000040146 ) ) ;
#76 = ADVANCED_FACE ( 'NONE', ( #6, #242 ), #120, .T. ) ;
#77 = DIRECTION ( 'NONE',  ( -0.000000000000000000, -0.000000000000000000, -1.000000000000000000 ) ) ;
#78 = SECURITY_CLASSIFICATION ( '', '', #99 ) ;
#79 = DIRECTION ( 'NONE',  ( 1.000000000000000000, 0.000000000000000000, 0.000000000000000000 ) ) ;
#80 = VECTOR ( 'NONE', #93, 1000.000000000000000 ) ;
#81 = ORIENTED_EDGE ( 'NONE', *, *, #282, .T. ) ;
#82 = ORIENTED_EDGE ( 'NONE', *, *, #84, .F. ) ;
#83 = VECTOR ( 'NONE', #377, 1000.000000000000000 ) ;
#84 = EDGE_CURVE ( 'NONE', #235, #322, #211, .T. ) ;
#85 = ORIENTED_EDGE ( 'NONE', *, *, #135, .F. ) ;
#86 = CIRCLE ( 'NONE', #302, 6.000000000000000888 ) ;
#87 = PERSON_AND_ORGANIZATION ( #327, #62 ) ;
#88 = ORIENTED_EDGE ( 'NONE', *, *, #364, .F. ) ;
#89 = CALENDAR_DATE ( 2022, 8, 7 ) ;
#90 = EDGE_LOOP ( 'NONE', ( #51, #195 ) ) ;
#91 = DIRECTION ( 'NONE',  ( -0.000000000000000000, -0.000000000000000000, -1.000000000000000000 ) ) ;
#92 = SHAPE_DEFINITION_REPRESENTATION ( #252, #314 ) ;
#93 = DIRECTION ( 'NONE',  ( -0.000000000000000000, -0.000000000000000000, -1.000000000000000000 ) ) ;
#94 = CARTESIAN_POINT ( 'NONE',  ( 0.000000000000000000, 0.000000000000000000, 7.000000000000000000 ) ) ;
#95 = CIRCLE ( 'NONE', #226, 4.000000000000000000 ) ;
#96 = CARTESIAN_POINT ( 'NONE',  ( 10.00000000000000000, 1.224646799147353256E-15, 0.000000000000000000 ) ) ;
#97 = DIRECTION ( 'NONE',  ( 1.000000000000000000, 0.000000000000000000, 0.000000000000000000 ) ) ;
#98 = AXIS2_PLACEMENT_3D ( 'NONE', #331, #40, #68 ) ;
#99 = SECURITY_CLASSIFICATION_LEVEL ( 'unclassified' ) ;
#100 = CARTESIAN_POINT ( 'NONE',  ( -6.000000000000000888, 0.000000000000000000, 707.0000000000000000 ) ) ;
#101 = DIRECTION ( 'NONE',  ( -0.000000000000000000, -0.000000000000000000, -1.000000000000000000 ) ) ;
#102 = FACE_OUTER_BOUND ( 'NONE', #203, .T. ) ;
#103 = LOCAL_TIME ( 16, 36, 58.00000000000000000, #290 ) ;
#104 = DIRECTION ( 'NONE',  ( -0.000000000000000000, -0.000000000000000000, -1.000000000000000000 ) ) ;
#105 = TOROIDAL_SURFACE ( 'NONE', #243, 6.700000000000001066, 0.6999999999999999556 ) ;
#106 = PERSON_AND_ORGANIZATION_ROLE ( 'creator' ) ;
#107 = APPROVAL ( #333, 'NEURÈENÝ' ) ;
#108 = EDGE_LOOP ( 'NONE', ( #239, #200 ) ) ;
#109 = CARTESIAN_POINT ( 'NONE',  ( 0.000000000000000000, 0.000000000000000000, 707.0000000000000000 ) ) ;
#110 = AXIS2_PLACEMENT_3D ( 'NONE', #247, #275, #14 ) ;
#111 = ORIENTED_EDGE ( 'NONE', *, *, #334, .T. ) ;
#112 =( NAMED_UNIT ( * ) PLANE_ANGLE_UNIT ( ) SI_UNIT ( $, .RADIAN. ) );
#113 = CARTESIAN_POINT ( 'NONE',  ( 0.000000000000000000, 0.000000000000000000, 0.000000000000000000 ) ) ;
#114 = PERSON_AND_ORGANIZATION ( #327, #62 ) ;
#115 = ORIENTED_EDGE ( 'NONE', *, *, #194, .F. ) ;
#116 = CC_DESIGN_SECURITY_CLASSIFICATION ( #78, ( #190 ) ) ;
#117 = DATE_TIME_ROLE ( 'classification_date' ) ;
#118 = VERTEX_POINT ( 'NONE', #361 ) ;
#119 = AXIS2_PLACEMENT_3D ( 'NONE', #299, #358, #63 ) ;
#120 = PLANE ( 'NONE',  #192 ) ;
#121 = CC_DESIGN_PERSON_AND_ORGANIZATION_ASSIGNMENT ( #182, #2, ( #78 ) ) ;
#122 = ORIENTED_EDGE ( 'NONE', *, *, #276, .F. ) ;
#123 = PLANE ( 'NONE',  #367 ) ;
#124 = VERTEX_POINT ( 'NONE', #96 ) ;
#125 = AXIS2_PLACEMENT_3D ( 'NONE', #214, #335, #32 ) ;
#126 = APPROVAL_ROLE ( '' ) ;
#127 = CYLINDRICAL_SURFACE ( 'NONE', #133, 4.000000000000000000 ) ;
#128 = CYLINDRICAL_SURFACE ( 'NONE', #110, 10.00000000000000000 ) ;
#129 = CYLINDRICAL_SURFACE ( 'NONE', #18, 10.00000000000000000 ) ;
#130 = LINE ( 'NONE', #16, #39 ) ;
#131 = EDGE_CURVE ( 'NONE', #138, #174, #29, .T. ) ;
#132 = PERSON_AND_ORGANIZATION ( #327, #62 ) ;
#133 = AXIS2_PLACEMENT_3D ( 'NONE', #183, #291, #152 ) ;
#134 = LOCAL_TIME ( 16, 36, 58.00000000000000000, #37 ) ;
#135 = EDGE_CURVE ( 'NONE', #174, #145, #86, .T. ) ;
#136 = CARTESIAN_POINT ( 'NONE',  ( 0.000000000000000000, 0.000000000000000000, 7.700000000000040146 ) ) ;
#137 = CLOSED_SHELL ( 'NONE', ( #42, #344, #34, #273, #300, #76, #71, #176, #12, #219, #165 ) ) ;
#138 = VERTEX_POINT ( 'NONE', #100 ) ;
#139 = CARTESIAN_POINT ( 'NONE',  ( 4.000000000000000000, 4.898587196589411843E-16, 707.0000000000000000 ) ) ;
#140 = EDGE_LOOP ( 'NONE', ( #22, #285 ) ) ;
#141 = VECTOR ( 'NONE', #340, 1000.000000000000000 ) ;
#142 = PRODUCT_DEFINITION ( 'NEZNÁMÝ', '', #190, #231 ) ;
#143 = APPROVAL_PERSON_ORGANIZATION ( #323, #107, #177 ) ;
#144 = AXIS2_PLACEMENT_3D ( 'NONE', #295, #7, #180 ) ;
#145 = VERTEX_POINT ( 'NONE', #4 ) ;
#146 = ORIENTED_EDGE ( 'NONE', *, *, #232, .T. ) ;
#147 = CARTESIAN_POINT ( 'NONE',  ( 0.000000000000000000, 0.000000000000000000, 7.700000000000040146 ) ) ;
#148 = ORIENTED_EDGE ( 'NONE', *, *, #326, .F. ) ;
#149 = CIRCLE ( 'NONE', #161, 6.000000000000000888 ) ;
#150 = DATE_TIME_ROLE ( 'creation_date' ) ;
#151 = CC_DESIGN_PERSON_AND_ORGANIZATION_ASSIGNMENT ( #87, #197, ( #277 ) ) ;
#152 = DIRECTION ( 'NONE',  ( -1.000000000000000000, 0.000000000000000000, 0.000000000000000000 ) ) ;
#153 = ORIENTED_EDGE ( 'NONE', *, *, #28, .F. ) ;
#154 = DATE_AND_TIME ( #1, #362 ) ;
#155 = FACE_OUTER_BOUND ( 'NONE', #378, .T. ) ;
#156 = ORIENTED_EDGE ( 'NONE', *, *, #28, .T. ) ;
#157 = DIRECTION ( 'NONE',  ( 1.000000000000000000, 0.000000000000000000, -0.000000000000000000 ) ) ;
#158 = EDGE_LOOP ( 'NONE', ( #20, #228 ) ) ;
#159 = CC_DESIGN_APPROVAL ( #107, ( #78 ) ) ;
#160 = DIRECTION ( 'NONE',  ( 1.000000000000000000, 0.000000000000000000, 0.000000000000000000 ) ) ;
#161 = AXIS2_PLACEMENT_3D ( 'NONE', #186, #245, #191 ) ;
#162 = CARTESIAN_POINT ( 'NONE',  ( 0.000000000000000000, 0.000000000000000000, 7.000000000000000000 ) ) ;
#163 = DIRECTION ( 'NONE',  ( 0.000000000000000000, 0.000000000000000000, 1.000000000000000000 ) ) ;
#164 = DIRECTION ( 'NONE',  ( -0.000000000000000000, -0.000000000000000000, -1.000000000000000000 ) ) ;
#165 = ADVANCED_FACE ( 'NONE', ( #207 ), #127, .F. ) ;
#166 = ORIENTED_EDGE ( 'NONE', *, *, #364, .T. ) ;
#167 = APPLICATION_CONTEXT ( 'configuration controlled 3d designs of mechanical parts and assemblies' ) ;
#168 = VERTEX_POINT ( 'NONE', #324 ) ;
#169 = DIRECTION ( 'NONE',  ( 0.000000000000000000, 0.000000000000000000, 1.000000000000000000 ) ) ;
#170 = CIRCLE ( 'NONE', #144, 4.000000000000000000 ) ;
#171 = VERTEX_POINT ( 'NONE', #297 ) ;
#172 =( NAMED_UNIT ( * ) SI_UNIT ( $, .STERADIAN. ) SOLID_ANGLE_UNIT ( ) );
#173 = DIRECTION ( 'NONE',  ( 1.000000000000000000, 0.000000000000000000, 0.000000000000000000 ) ) ;
#174 = VERTEX_POINT ( 'NONE', #58 ) ;
#175 = VERTEX_POINT ( 'NONE', #60 ) ;
#176 = ADVANCED_FACE ( 'NONE', ( #205 ), #328, .T. ) ;
#177 = APPROVAL_ROLE ( '' ) ;
#178 = APPLICATION_CONTEXT ( 'configuration controlled 3d designs of mechanical parts and assemblies' ) ;
#179 = AXIS2_PLACEMENT_3D ( 'NONE', #270, #9, #321 ) ;
#180 = DIRECTION ( 'NONE',  ( 1.000000000000000000, 0.000000000000000000, 0.000000000000000000 ) ) ;
#181 = CARTESIAN_POINT ( 'NONE',  ( 0.000000000000000000, 0.000000000000000000, 707.0000000000000000 ) ) ;
#182 = PERSON_AND_ORGANIZATION ( #327, #62 ) ;
#183 = CARTESIAN_POINT ( 'NONE',  ( 0.000000000000000000, 0.000000000000000000, 707.0000000000000000 ) ) ;
#184 = CARTESIAN_POINT ( 'NONE',  ( -10.00000000000000000, 0.000000000000000000, 7.000000000000000000 ) ) ;
#185 = CIRCLE ( 'NONE', #50, 0.7000000000000000666 ) ;
#186 = CARTESIAN_POINT ( 'NONE',  ( 0.000000000000000000, 0.000000000000000000, 707.0000000000000000 ) ) ;
#187 = CARTESIAN_POINT ( 'NONE',  ( 0.000000000000000000, 0.000000000000000000, 0.000000000000000000 ) ) ;
#188 = CARTESIAN_POINT ( 'NONE',  ( 0.000000000000000000, 0.000000000000000000, 7.000000000000000000 ) ) ;
#189 = CIRCLE ( 'NONE', #125, 10.00000000000000000 ) ;
#190 = PRODUCT_DEFINITION_FORMATION_WITH_SPECIFIED_SOURCE ( 'LIBOVOLNÝ', '', #277, .NOT_KNOWN. ) ;
#191 = DIRECTION ( 'NONE',  ( 1.000000000000000000, 0.000000000000000000, 0.000000000000000000 ) ) ;
#192 = AXIS2_PLACEMENT_3D ( 'NONE', #94, #209, #66 ) ;
#193 = CARTESIAN_POINT ( 'NONE',  ( -10.00000000000000000, 0.000000000000000000, 0.000000000000000000 ) ) ;
#194 = EDGE_CURVE ( 'NONE', #235, #118, #189, .T. ) ;
#195 = ORIENTED_EDGE ( 'NONE', *, *, #24, .F. ) ;
#196 = ORIENTED_EDGE ( 'NONE', *, *, #294, .F. ) ;
#197 = PERSON_AND_ORGANIZATION_ROLE ( 'design_owner' ) ;
#198 = AXIS2_PLACEMENT_3D ( 'NONE', #218, #164, #79 ) ;
#199 = CARTESIAN_POINT ( 'NONE',  ( -4.000000000000000000, 0.000000000000000000, 707.0000000000000000 ) ) ;
#200 = ORIENTED_EDGE ( 'NONE', *, *, #339, .F. ) ;
#201 = DATE_AND_TIME ( #89, #227 ) ;
#202 = AXIS2_PLACEMENT_3D ( 'NONE', #306, #47, #278 ) ;
#203 = EDGE_LOOP ( 'NONE', ( #196, #61, #111, #82 ) ) ;
#204 = PERSON_AND_ORGANIZATION_ROLE ( 'creator' ) ;
#205 = FACE_OUTER_BOUND ( 'NONE', #287, .T. ) ;
#206 = EDGE_CURVE ( 'NONE', #138, #171, #149, .T. ) ;
#207 = FACE_OUTER_BOUND ( 'NONE', #381, .T. ) ;
#208 = ORIENTED_EDGE ( 'NONE', *, *, #52, .T. ) ;
#209 = DIRECTION ( 'NONE',  ( 0.000000000000000000, 0.000000000000000000, 1.000000000000000000 ) ) ;
#210 = CC_DESIGN_PERSON_AND_ORGANIZATION_ASSIGNMENT ( #132, #106, ( #142 ) ) ;
#211 = LINE ( 'NONE', #184, #27 ) ;
#212 = ORIENTED_EDGE ( 'NONE', *, *, #206, .T. ) ;
#213 = AXIS2_PLACEMENT_3D ( 'NONE', #45, #216, #72 ) ;
#214 = CARTESIAN_POINT ( 'NONE',  ( 0.000000000000000000, 0.000000000000000000, 7.000000000000000000 ) ) ;
#215 = FACE_OUTER_BOUND ( 'NONE', #48, .T. ) ;
#216 = DIRECTION ( 'NONE',  ( 0.000000000000000000, 0.000000000000000000, 1.000000000000000000 ) ) ;
#217 = APPROVAL_PERSON_ORGANIZATION ( #258, #372, #230 ) ;
#218 = CARTESIAN_POINT ( 'NONE',  ( 0.000000000000000000, 0.000000000000000000, 7.000000000000000000 ) ) ;
#219 = ADVANCED_FACE ( 'NONE', ( #215 ), #105, .F. ) ;
#220 = DIRECTION ( 'NONE',  ( -1.000000000000000000, 0.000000000000000000, 0.000000000000000000 ) ) ;
#221 = EDGE_CURVE ( 'NONE', #223, #33, #317, .T. ) ;
#222 = LINE ( 'NONE', #11, #141 ) ;
#223 = VERTEX_POINT ( 'NONE', #249 ) ;
#224 = MECHANICAL_CONTEXT ( 'NONE', #167, 'mechanical' ) ;
#225 = ORIENTED_EDGE ( 'NONE', *, *, #24, .T. ) ;
#226 = AXIS2_PLACEMENT_3D ( 'NONE', #109, #288, #374 ) ;
#227 = LOCAL_TIME ( 16, 36, 58.00000000000000000, #352 ) ;
#228 = ORIENTED_EDGE ( 'NONE', *, *, #308, .T. ) ;
#229 = ORIENTED_EDGE ( 'NONE', *, *, #350, .F. ) ;
#230 = APPROVAL_ROLE ( '' ) ;
#231 = DESIGN_CONTEXT ( 'detailed design', #178, 'design' ) ;
#232 = EDGE_CURVE ( 'NONE', #322, #124, #379, .T. ) ;
#233 = AXIS2_PLACEMENT_3D ( 'NONE', #274, #169, #173 ) ;
#234 = CC_DESIGN_APPROVAL ( #372, ( #142 ) ) ;
#235 = VERTEX_POINT ( 'NONE', #336 ) ;
#236 = DATE_AND_TIME ( #59, #103 ) ;
#237 = CYLINDRICAL_SURFACE ( 'NONE', #98, 6.000000000000000888 ) ;
#238 = AXIS2_PLACEMENT_3D ( 'NONE', #289, #355, #359 ) ;
#239 = ORIENTED_EDGE ( 'NONE', *, *, #373, .F. ) ;
#240 = DIRECTION ( 'NONE',  ( 0.000000000000000000, 0.000000000000000000, 1.000000000000000000 ) ) ;
#241 = PERSON_AND_ORGANIZATION_ROLE ( 'design_supplier' ) ;
#242 = FACE_OUTER_BOUND ( 'NONE', #140, .T. ) ;
#243 = AXIS2_PLACEMENT_3D ( 'NONE', #75, #301, #342 ) ;
#244 = APPROVAL_DATE_TIME ( #357, #107 ) ;
#245 = DIRECTION ( 'NONE',  ( 0.000000000000000000, 0.000000000000000000, 1.000000000000000000 ) ) ;
#246 = CC_DESIGN_PERSON_AND_ORGANIZATION_ASSIGNMENT ( #296, #241, ( #190 ) ) ;
#247 = CARTESIAN_POINT ( 'NONE',  ( 0.000000000000000000, 0.000000000000000000, 7.000000000000000000 ) ) ;
#248 = VECTOR ( 'NONE', #376, 1000.000000000000000 ) ;
#249 = CARTESIAN_POINT ( 'NONE',  ( 6.700000000000001066, 0.000000000000000000, 7.000000000000020428 ) ) ;
#250 = CARTESIAN_POINT ( 'NONE',  ( -6.700000000000001066, 8.205133554287267548E-16, 7.000000000000020428 ) ) ;
#251 = CIRCLE ( 'NONE', #15, 4.000000000000000000 ) ;
#252 = PRODUCT_DEFINITION_SHAPE ( 'NONE', 'NONE',  #142 ) ;
#253 = CC_DESIGN_APPROVAL ( #268, ( #190 ) ) ;
#254 = PRODUCT_RELATED_PRODUCT_CATEGORY ( 'detail', '', ( #277 ) ) ;
#255 = ORIENTED_EDGE ( 'NONE', *, *, #84, .T. ) ;
#256 = LINE ( 'NONE', #139, #83 ) ;
#257 = AXIS2_PLACEMENT_3D ( 'NONE', #162, #17, #44 ) ;
#258 = PERSON_AND_ORGANIZATION ( #327, #62 ) ;
#259 = ORIENTED_EDGE ( 'NONE', *, *, #206, .F. ) ;
#260 = APPROVAL_STATUS ( 'not_yet_approved' ) ;
#261 = DIRECTION ( 'NONE',  ( 0.000000000000000000, 0.000000000000000000, 1.000000000000000000 ) ) ;
#262 = AXIS2_PLACEMENT_3D ( 'NONE', #136, #21, #349 ) ;
#263 = EDGE_LOOP ( 'NONE', ( #153, #284, #208, #26 ) ) ;
#264 = CALENDAR_DATE ( 2022, 8, 7 ) ;
#265 = FACE_OUTER_BOUND ( 'NONE', #279, .T. ) ;
#266 = ORIENTED_EDGE ( 'NONE', *, *, #56, .T. ) ;
#267 = CARTESIAN_POINT ( 'NONE',  ( 0.000000000000000000, 0.000000000000000000, 0.000000000000000000 ) ) ;
#268 = APPROVAL ( #260, 'NEURÈENÝ' ) ;
#269 = DIRECTION ( 'NONE',  ( 0.000000000000000000, 0.000000000000000000, 1.000000000000000000 ) ) ;
#270 = CARTESIAN_POINT ( 'NONE',  ( 0.000000000000000000, 0.000000000000000000, 707.0000000000000000 ) ) ;
#271 = DIRECTION ( 'NONE',  ( 1.000000000000000000, 0.000000000000000000, -0.000000000000000000 ) ) ;
#272 = CARTESIAN_POINT ( 'NONE',  ( -6.000000000000000888, 0.000000000000000000, 707.0000000000000000 ) ) ;
#273 = ADVANCED_FACE ( 'NONE', ( #102 ), #129, .T. ) ;
#274 = CARTESIAN_POINT ( 'NONE',  ( 0.000000000000000000, 0.000000000000000000, 707.0000000000000000 ) ) ;
#275 = DIRECTION ( 'NONE',  ( -0.000000000000000000, -0.000000000000000000, -1.000000000000000000 ) ) ;
#276 = EDGE_CURVE ( 'NONE', #171, #145, #222, .T. ) ;
#277 = PRODUCT ( '75b9', '75b9', '', ( #224 ) ) ;
#278 = DIRECTION ( 'NONE',  ( 0.000000000000000000, 0.000000000000000000, -1.000000000000000000 ) ) ;
#279 = EDGE_LOOP ( 'NONE', ( #360, #312 ) ) ;
#280 = LINE ( 'NONE', #199, #248 ) ;
#281 = EDGE_LOOP ( 'NONE', ( #212, #156 ) ) ;
#282 = EDGE_CURVE ( 'NONE', #145, #223, #353, .T. ) ;
#283 = FACE_OUTER_BOUND ( 'NONE', #325, .T. ) ;
#284 = ORIENTED_EDGE ( 'NONE', *, *, #276, .T. ) ;
#285 = ORIENTED_EDGE ( 'NONE', *, *, #294, .T. ) ;
#286 = CC_DESIGN_PERSON_AND_ORGANIZATION_ASSIGNMENT ( #365, #204, ( #190 ) ) ;
#287 = EDGE_LOOP ( 'NONE', ( #122, #259, #375, #67 ) ) ;
#288 = DIRECTION ( 'NONE',  ( 0.000000000000000000, 0.000000000000000000, 1.000000000000000000 ) ) ;
#289 = CARTESIAN_POINT ( 'NONE',  ( 0.000000000000000000, 0.000000000000000000, 707.0000000000000000 ) ) ;
#290 = COORDINATED_UNIVERSAL_TIME_OFFSET ( 1, 0, .AHEAD. ) ;
#291 = DIRECTION ( 'NONE',  ( 0.000000000000000000, 0.000000000000000000, -1.000000000000000000 ) ) ;
#292 = CIRCLE ( 'NONE', #257, 10.00000000000000000 ) ;
#293 = ORIENTED_EDGE ( 'NONE', *, *, #373, .T. ) ;
#294 = EDGE_CURVE ( 'NONE', #118, #235, #292, .T. ) ;
#295 = CARTESIAN_POINT ( 'NONE',  ( 0.000000000000000000, 0.000000000000000000, 0.000000000000000000 ) ) ;
#296 = PERSON_AND_ORGANIZATION ( #327, #62 ) ;
#297 = CARTESIAN_POINT ( 'NONE',  ( 6.000000000000000888, 7.347880794884120722E-16, 707.0000000000000000 ) ) ;
#298 = FACE_BOUND ( 'NONE', #108, .T. ) ;
#299 = CARTESIAN_POINT ( 'NONE',  ( 0.000000000000000000, 0.000000000000000000, 7.700000000000040146 ) ) ;
#300 = ADVANCED_FACE ( 'NONE', ( #41 ), #128, .T. ) ;
#301 = DIRECTION ( 'NONE',  ( 0.000000000000000000, 0.000000000000000000, 1.000000000000000000 ) ) ;
#302 = AXIS2_PLACEMENT_3D ( 'NONE', #147, #261, #38 ) ;
#303 = APPROVAL_PERSON_ORGANIZATION ( #114, #268, #126 ) ;
#304 = EDGE_CURVE ( 'NONE', #118, #124, #130, .T. ) ;
#305 = CARTESIAN_POINT ( 'NONE',  ( 4.000000000000000000, 4.898587196589411843E-16, 707.0000000000000000 ) ) ;
#306 = CARTESIAN_POINT ( 'NONE',  ( 6.700000000000001066, 0.000000000000000000, 7.700000000000040146 ) ) ;
#307 = ORIENTED_EDGE ( 'NONE', *, *, #326, .T. ) ;
#308 = EDGE_CURVE ( 'NONE', #33, #223, #370, .T. ) ;
#309 = ORIENTED_EDGE ( 'NONE', *, *, #339, .T. ) ;
#310 = AXIS2_PLACEMENT_3D ( 'NONE', #188, #104, #160 ) ;
#311 = DIRECTION ( 'NONE',  ( 1.000000000000000000, 0.000000000000000000, 0.000000000000000000 ) ) ;
#312 = ORIENTED_EDGE ( 'NONE', *, *, #334, .F. ) ;
#313 = AXIS2_PLACEMENT_3D ( 'NONE', #181, #269, #271 ) ;
#314 = ADVANCED_BREP_SHAPE_REPRESENTATION ( '75b9', ( #74, #354 ), #348 ) ;
#315 = CC_DESIGN_DATE_AND_TIME_ASSIGNMENT ( #320, #117, ( #78 ) ) ;
#316 = VERTEX_POINT ( 'NONE', #305 ) ;
#317 = CIRCLE ( 'NONE', #310, 6.700000000000001066 ) ;
#318 = APPROVAL_DATE_TIME ( #201, #372 ) ;
#319 = UNCERTAINTY_MEASURE_WITH_UNIT (LENGTH_MEASURE( 1.000000000000000082E-05 ), #55, 'distance_accuracy_value', 'NONE');
#320 = DATE_AND_TIME ( #330, #134 ) ;
#321 = DIRECTION ( 'NONE',  ( -1.000000000000000000, 0.000000000000000000, 0.000000000000000000 ) ) ;
#322 = VERTEX_POINT ( 'NONE', #193 ) ;
#323 = PERSON_AND_ORGANIZATION ( #327, #62 ) ;
#324 = CARTESIAN_POINT ( 'NONE',  ( -4.000000000000000000, 0.000000000000000000, 707.0000000000000000 ) ) ;
#325 = EDGE_LOOP ( 'NONE', ( #85, #307, #5, #25 ) ) ;
#326 = EDGE_CURVE ( 'NONE', #174, #33, #185, .T. ) ;
#327 = PERSON ( 'NEURÈENÝ', 'NEURÈENÝ', 'NEURÈENÝ', ('NEURÈENÝ'), ('NEURÈENÝ'), ('NEURÈENÝ') ) ;
#328 = CYLINDRICAL_SURFACE ( 'NONE', #179, 6.000000000000000888 ) ;
#329 = CIRCLE ( 'NONE', #233, 4.000000000000000000 ) ;
#330 = CALENDAR_DATE ( 2022, 8, 7 ) ;
#331 = CARTESIAN_POINT ( 'NONE',  ( 0.000000000000000000, 0.000000000000000000, 707.0000000000000000 ) ) ;
#332 = EDGE_LOOP ( 'NONE', ( #19, #115, #255, #146 ) ) ;
#333 = APPROVAL_STATUS ( 'not_yet_approved' ) ;
#334 = EDGE_CURVE ( 'NONE', #124, #322, #13, .T. ) ;
#335 = DIRECTION ( 'NONE',  ( 0.000000000000000000, 0.000000000000000000, 1.000000000000000000 ) ) ;
#336 = CARTESIAN_POINT ( 'NONE',  ( -10.00000000000000000, 0.000000000000000000, 7.000000000000000000 ) ) ;
#337 = DIRECTION ( 'NONE',  ( 1.224646799147353207E-16, 1.000000000000000000, -0.000000000000000000 ) ) ;
#338 = CIRCLE ( 'NONE', #119, 6.000000000000000888 ) ;
#339 = EDGE_CURVE ( 'NONE', #316, #168, #329, .T. ) ;
#340 = DIRECTION ( 'NONE',  ( -0.000000000000000000, -0.000000000000000000, -1.000000000000000000 ) ) ;
#341 = AXIS2_PLACEMENT_3D ( 'NONE', #187, #163, #371 ) ;
#342 = DIRECTION ( 'NONE',  ( 1.000000000000000000, 0.000000000000000000, 0.000000000000000000 ) ) ;
#343 = ORIENTED_EDGE ( 'NONE', *, *, #52, .F. ) ;
#344 = ADVANCED_FACE ( 'NONE', ( #283 ), #69, .F. ) ;
#345 = ORIENTED_EDGE ( 'NONE', *, *, #350, .T. ) ;
#346 = DIRECTION ( 'NONE',  ( 0.000000000000000000, 0.000000000000000000, 1.000000000000000000 ) ) ;
#347 = VERTEX_POINT ( 'NONE', #49 ) ;
#348 =( GEOMETRIC_REPRESENTATION_CONTEXT ( 3 ) GLOBAL_UNCERTAINTY_ASSIGNED_CONTEXT ( ( #319 ) ) GLOBAL_UNIT_ASSIGNED_CONTEXT ( ( #55, #112, #172 ) ) REPRESENTATION_CONTEXT ( 'NONE', 'WORKASPACE' ) );
#349 = DIRECTION ( 'NONE',  ( 1.000000000000000000, 0.000000000000000000, 0.000000000000000000 ) ) ;
#350 = EDGE_CURVE ( 'NONE', #168, #347, #280, .T. ) ;
#351 = CARTESIAN_POINT ( 'NONE',  ( 0.000000000000000000, 0.000000000000000000, 0.000000000000000000 ) ) ;
#352 = COORDINATED_UNIVERSAL_TIME_OFFSET ( 1, 0, .AHEAD. ) ;
#353 = CIRCLE ( 'NONE', #202, 0.7000000000000000666 ) ;
#354 = AXIS2_PLACEMENT_3D ( 'NONE', #351, #346, #311 ) ;
#355 = DIRECTION ( 'NONE',  ( 0.000000000000000000, 0.000000000000000000, -1.000000000000000000 ) ) ;
#356 = CIRCLE ( 'NONE', #213, 6.000000000000000888 ) ;
#357 = DATE_AND_TIME ( #264, #3 ) ;
#358 = DIRECTION ( 'NONE',  ( 0.000000000000000000, 0.000000000000000000, 1.000000000000000000 ) ) ;
#359 = DIRECTION ( 'NONE',  ( -1.000000000000000000, 0.000000000000000000, 0.000000000000000000 ) ) ;
#360 = ORIENTED_EDGE ( 'NONE', *, *, #232, .F. ) ;
#361 = CARTESIAN_POINT ( 'NONE',  ( 10.00000000000000000, 1.224646799147353256E-15, 7.000000000000000000 ) ) ;
#362 = LOCAL_TIME ( 16, 36, 58.00000000000000000, #57 ) ;
#363 = DIRECTION ( 'NONE',  ( -0.000000000000000000, -0.000000000000000000, -1.000000000000000000 ) ) ;
#364 = EDGE_CURVE ( 'NONE', #316, #175, #256, .T. ) ;
#365 = PERSON_AND_ORGANIZATION ( #327, #62 ) ;
#366 = FACE_BOUND ( 'NONE', #90, .T. ) ;
#367 = AXIS2_PLACEMENT_3D ( 'NONE', #267, #240, #157 ) ;
#368 = DIRECTION ( 'NONE',  ( -1.000000000000000000, 1.224646799147353454E-16, 0.000000000000000000 ) ) ;
#369 = CARTESIAN_POINT ( 'NONE',  ( -6.700000000000001066, 8.205133554287267548E-16, 7.700000000000040146 ) ) ;
#370 = CIRCLE ( 'NONE', #198, 6.700000000000001066 ) ;
#371 = DIRECTION ( 'NONE',  ( 1.000000000000000000, 0.000000000000000000, 0.000000000000000000 ) ) ;
#372 = APPROVAL ( #380, 'NEURÈENÝ' ) ;
#373 = EDGE_CURVE ( 'NONE', #168, #316, #95, .T. ) ;
#374 = DIRECTION ( 'NONE',  ( 1.000000000000000000, 0.000000000000000000, 0.000000000000000000 ) ) ;
#375 = ORIENTED_EDGE ( 'NONE', *, *, #131, .T. ) ;
#376 = DIRECTION ( 'NONE',  ( 0.000000000000000000, 0.000000000000000000, -1.000000000000000000 ) ) ;
#377 = DIRECTION ( 'NONE',  ( 0.000000000000000000, 0.000000000000000000, -1.000000000000000000 ) ) ;
#378 = EDGE_LOOP ( 'NONE', ( #293, #166, #225, #229 ) ) ;
#379 = CIRCLE ( 'NONE', #341, 10.00000000000000000 ) ;
#380 = APPROVAL_STATUS ( 'not_yet_approved' ) ;
#381 = EDGE_LOOP ( 'NONE', ( #88, #309, #345, #266 ) ) ;
ENDSEC;
END-ISO-10303-21;
