ISO-10303-21;
HEADER;
FILE_DESCRIPTION (( 'STEP AP203' ),
    '1' );
FILE_NAME ('6e6e.STEP',
    '2022-07-08T15:18:16',
    ( '' ),
    ( '' ),
    'SwSTEP 2.0',
    'SolidWorks 2019',
    '' );
FILE_SCHEMA (( 'CONFIG_CONTROL_DESIGN' ));
ENDSEC;

DATA;
#1 = EDGE_LOOP ( 'NONE', ( #294, #325 ) ) ;
#2 = ORIENTED_EDGE ( 'NONE', *, *, #273, .T. ) ;
#3 = ORIENTED_EDGE ( 'NONE', *, *, #351, .T. ) ;
#4 = ADVANCED_FACE ( 'NONE', ( #380, #260 ), #293, .T. ) ;
#5 = EDGE_LOOP ( 'NONE', ( #290, #143, #209, #32 ) ) ;
#6 = AXIS2_PLACEMENT_3D ( 'NONE', #96, #222, #191 ) ;
#7 = PERSON_AND_ORGANIZATION ( #220, #223 ) ;
#8 = CARTESIAN_POINT ( 'NONE',  ( 0.000000000000000000, 0.000000000000000000, 5.000000000000000000 ) ) ;
#9 = CYLINDRICAL_SURFACE ( 'NONE', #6, 4.000000000000000000 ) ;
#10 = EDGE_CURVE ( 'NONE', #27, #320, #299, .T. ) ;
#11 = PERSON_AND_ORGANIZATION ( #220, #223 ) ;
#12 = LINE ( 'NONE', #44, #150 ) ;
#13 = EDGE_CURVE ( 'NONE', #34, #174, #61, .T. ) ;
#14 = AXIS2_PLACEMENT_3D ( 'NONE', #252, #341, #79 ) ;
#15 = LOCAL_TIME ( 17, 18, 16.00000000000000000, #193 ) ;
#16 = DIRECTION ( 'NONE',  ( 0.000000000000000000, 0.000000000000000000, 1.000000000000000000 ) ) ;
#17 = ORIENTED_EDGE ( 'NONE', *, *, #268, .T. ) ;
#18 = DIRECTION ( 'NONE',  ( 1.000000000000000000, 0.000000000000000000, 0.000000000000000000 ) ) ;
#19 = CALENDAR_DATE ( 2022, 8, 7 ) ;
#20 = CARTESIAN_POINT ( 'NONE',  ( -7.000000000000000000, 0.000000000000000000, 5.000000000000000000 ) ) ;
#21 = ORIENTED_EDGE ( 'NONE', *, *, #10, .F. ) ;
#22 = EDGE_CURVE ( 'NONE', #320, #282, #303, .T. ) ;
#23 = DIRECTION ( 'NONE',  ( -0.000000000000000000, -0.000000000000000000, -1.000000000000000000 ) ) ;
#24 = AXIS2_PLACEMENT_3D ( 'NONE', #35, #72, #167 ) ;
#25 = ORIENTED_EDGE ( 'NONE', *, *, #10, .T. ) ;
#26 = DIRECTION ( 'NONE',  ( 0.000000000000000000, 0.000000000000000000, 1.000000000000000000 ) ) ;
#27 = VERTEX_POINT ( 'NONE', #97 ) ;
#28 = ORIENTED_EDGE ( 'NONE', *, *, #328, .F. ) ;
#29 = LOCAL_TIME ( 17, 18, 16.00000000000000000, #41 ) ;
#30 = CARTESIAN_POINT ( 'NONE',  ( 0.000000000000000000, 0.000000000000000000, 755.0000000000000000 ) ) ;
#31 = CYLINDRICAL_SURFACE ( 'NONE', #187, 2.500000000000000000 ) ;
#32 = ORIENTED_EDGE ( 'NONE', *, *, #215, .T. ) ;
#33 = APPLICATION_PROTOCOL_DEFINITION ( 'international standard', 'config_control_design', 1994, #148 ) ;
#34 = VERTEX_POINT ( 'NONE', #163 ) ;
#35 = CARTESIAN_POINT ( 'NONE',  ( 0.000000000000000000, 0.000000000000000000, 755.0000000000000000 ) ) ;
#36 = CIRCLE ( 'NONE', #249, 4.000000000000000000 ) ;
#37 = DIRECTION ( 'NONE',  ( 0.000000000000000000, 0.000000000000000000, -1.000000000000000000 ) ) ;
#38 = PERSON_AND_ORGANIZATION_ROLE ( 'creator' ) ;
#39 = DIRECTION ( 'NONE',  ( 1.000000000000000000, 0.000000000000000000, 0.000000000000000000 ) ) ;
#40 = ADVANCED_FACE ( 'NONE', ( #298 ), #363, .F. ) ;
#41 = COORDINATED_UNIVERSAL_TIME_OFFSET ( 1, 0, .AHEAD. ) ;
#42 = LINE ( 'NONE', #246, #121 ) ;
#43 = CARTESIAN_POINT ( 'NONE',  ( 0.000000000000000000, 0.000000000000000000, 0.000000000000000000 ) ) ;
#44 = CARTESIAN_POINT ( 'NONE',  ( -4.000000000000000000, 0.000000000000000000, 755.0000000000000000 ) ) ;
#45 = FACE_OUTER_BOUND ( 'NONE', #70, .T. ) ;
#46 = AXIS2_PLACEMENT_3D ( 'NONE', #231, #146, #345 ) ;
#47 = DIRECTION ( 'NONE',  ( 0.000000000000000000, 0.000000000000000000, 1.000000000000000000 ) ) ;
#48 = EDGE_LOOP ( 'NONE', ( #90, #151, #62, #3 ) ) ;
#49 = LINE ( 'NONE', #375, #200 ) ;
#50 = VERTEX_POINT ( 'NONE', #161 ) ;
#51 = EDGE_CURVE ( 'NONE', #214, #206, #314, .T. ) ;
#52 = DIRECTION ( 'NONE',  ( 0.000000000000000000, 0.000000000000000000, 1.000000000000000000 ) ) ;
#53 = CARTESIAN_POINT ( 'NONE',  ( 2.500000000000000000, 3.061616997868383141E-16, 755.0000000000000000 ) ) ;
#54 = AXIS2_PLACEMENT_3D ( 'NONE', #138, #311, #306 ) ;
#55 = ORIENTED_EDGE ( 'NONE', *, *, #208, .F. ) ;
#56 = APPROVAL ( #124, 'NEURÈENÝ' ) ;
#57 = ORIENTED_EDGE ( 'NONE', *, *, #208, .T. ) ;
#58 = PLANE ( 'NONE',  #46 ) ;
#59 = EDGE_LOOP ( 'NONE', ( #267, #55 ) ) ;
#60 = CYLINDRICAL_SURFACE ( 'NONE', #184, 7.000000000000000000 ) ;
#61 = CIRCLE ( 'NONE', #176, 4.500000000000000888 ) ;
#62 = ORIENTED_EDGE ( 'NONE', *, *, #192, .T. ) ;
#63 = MANIFOLD_SOLID_BREP ( 'Odebrat vysunutím3', #195 ) ;
#64 = ORIENTED_EDGE ( 'NONE', *, *, #13, .T. ) ;
#65 = DIRECTION ( 'NONE',  ( 1.000000000000000000, 0.000000000000000000, 0.000000000000000000 ) ) ;
#66 = CIRCLE ( 'NONE', #94, 4.000000000000000000 ) ;
#67 = DATE_TIME_ROLE ( 'creation_date' ) ;
#68 = ADVANCED_FACE ( 'NONE', ( #275 ), #9, .T. ) ;
#69 = CALENDAR_DATE ( 2022, 8, 7 ) ;
#70 = EDGE_LOOP ( 'NONE', ( #233, #17 ) ) ;
#71 = DIRECTION ( 'NONE',  ( 0.000000000000000000, 0.000000000000000000, 1.000000000000000000 ) ) ;
#72 = DIRECTION ( 'NONE',  ( 0.000000000000000000, 0.000000000000000000, -1.000000000000000000 ) ) ;
#73 = EDGE_CURVE ( 'NONE', #338, #359, #366, .T. ) ;
#74 = CARTESIAN_POINT ( 'NONE',  ( 0.000000000000000000, 0.000000000000000000, 5.000000000000000000 ) ) ;
#75 = FACE_OUTER_BOUND ( 'NONE', #322, .T. ) ;
#76 = CARTESIAN_POINT ( 'NONE',  ( 0.000000000000000000, 0.000000000000000000, 5.000000000000000000 ) ) ;
#77 = CIRCLE ( 'NONE', #110, 7.000000000000000000 ) ;
#78 = CARTESIAN_POINT ( 'NONE',  ( 4.500000000000000888, 0.000000000000000000, 5.499999999999949374 ) ) ;
#79 = DIRECTION ( 'NONE',  ( 1.000000000000000000, 0.000000000000000000, 0.000000000000000000 ) ) ;
#80 = ADVANCED_FACE ( 'NONE', ( #173 ), #354, .F. ) ;
#81 = EDGE_LOOP ( 'NONE', ( #84, #333, #149, #349 ) ) ;
#82 = DIRECTION ( 'NONE',  ( -1.000000000000000000, 0.000000000000000000, 0.000000000000000000 ) ) ;
#83 = PRODUCT_DEFINITION ( 'NEZNÁMÝ', '', #288, #310 ) ;
#84 = ORIENTED_EDGE ( 'NONE', *, *, #351, .F. ) ;
#85 = CARTESIAN_POINT ( 'NONE',  ( 4.000000000000000000, 4.898587196589412829E-16, 755.0000000000000000 ) ) ;
#86 = ORIENTED_EDGE ( 'NONE', *, *, #22, .T. ) ;
#87 = DIRECTION ( 'NONE',  ( -1.000000000000000000, 0.000000000000000000, 0.000000000000000000 ) ) ;
#88 = CIRCLE ( 'NONE', #100, 2.500000000000000000 ) ;
#89 = APPROVAL_PERSON_ORGANIZATION ( #156, #56, #242 ) ;
#90 = ORIENTED_EDGE ( 'NONE', *, *, #321, .F. ) ;
#91 = APPROVAL_DATE_TIME ( #221, #343 ) ;
#92 = VERTEX_POINT ( 'NONE', #147 ) ;
#93 = MECHANICAL_CONTEXT ( 'NONE', #254, 'mechanical' ) ;
#94 = AXIS2_PLACEMENT_3D ( 'NONE', #141, #26, #207 ) ;
#95 = COORDINATED_UNIVERSAL_TIME_OFFSET ( 1, 0, .AHEAD. ) ;
#96 = CARTESIAN_POINT ( 'NONE',  ( 0.000000000000000000, 0.000000000000000000, 755.0000000000000000 ) ) ;
#97 = CARTESIAN_POINT ( 'NONE',  ( -2.500000000000000000, 0.000000000000000000, 755.0000000000000000 ) ) ;
#98 = CC_DESIGN_PERSON_AND_ORGANIZATION_ASSIGNMENT ( #7, #128, ( #177 ) ) ;
#99 = DIRECTION ( 'NONE',  ( -0.000000000000000000, -0.000000000000000000, -1.000000000000000000 ) ) ;
#100 = AXIS2_PLACEMENT_3D ( 'NONE', #248, #47, #172 ) ;
#101 = AXIS2_PLACEMENT_3D ( 'NONE', #284, #373, #201 ) ;
#102 = APPROVAL_PERSON_ORGANIZATION ( #372, #132, #374 ) ;
#103 = DATE_AND_TIME ( #304, #15 ) ;
#104 = CYLINDRICAL_SURFACE ( 'NONE', #228, 7.000000000000000000 ) ;
#105 = FACE_OUTER_BOUND ( 'NONE', #120, .T. ) ;
#106 = ORIENTED_EDGE ( 'NONE', *, *, #142, .F. ) ;
#107 = APPROVAL_DATE_TIME ( #103, #132 ) ;
#108 = EDGE_CURVE ( 'NONE', #319, #185, #77, .T. ) ;
#109 = DIRECTION ( 'NONE',  ( 1.000000000000000000, 0.000000000000000000, -0.000000000000000000 ) ) ;
#110 = AXIS2_PLACEMENT_3D ( 'NONE', #272, #71, #65 ) ;
#111 = DIRECTION ( 'NONE',  ( -0.000000000000000000, -0.000000000000000000, -1.000000000000000000 ) ) ;
#112 = CC_DESIGN_DATE_AND_TIME_ASSIGNMENT ( #137, #251, ( #134 ) ) ;
#113 =( NAMED_UNIT ( * ) PLANE_ANGLE_UNIT ( ) SI_UNIT ( $, .RADIAN. ) );
#114 = ORIENTED_EDGE ( 'NONE', *, *, #152, .F. ) ;
#115 = AXIS2_PLACEMENT_3D ( 'NONE', #289, #210, #261 ) ;
#116 = FACE_OUTER_BOUND ( 'NONE', #5, .T. ) ;
#117 = DIRECTION ( 'NONE',  ( 0.000000000000000000, 0.000000000000000000, 1.000000000000000000 ) ) ;
#118 = DIRECTION ( 'NONE',  ( 0.000000000000000000, 0.000000000000000000, -1.000000000000000000 ) ) ;
#119 = ADVANCED_FACE ( 'NONE', ( #190 ), #162, .T. ) ;
#120 = EDGE_LOOP ( 'NONE', ( #296, #353, #316, #226 ) ) ;
#121 = VECTOR ( 'NONE', #194, 1000.000000000000000 ) ;
#122 = LOCAL_TIME ( 17, 18, 16.00000000000000000, #95 ) ;
#123 = EDGE_LOOP ( 'NONE', ( #145, #2 ) ) ;
#124 = APPROVAL_STATUS ( 'not_yet_approved' ) ;
#125 = DIRECTION ( 'NONE',  ( -0.000000000000000000, -0.000000000000000000, -1.000000000000000000 ) ) ;
#126 = DIRECTION ( 'NONE',  ( 1.000000000000000000, 0.000000000000000000, 0.000000000000000000 ) ) ;
#127 = CC_DESIGN_PERSON_AND_ORGANIZATION_ASSIGNMENT ( #324, #154, ( #83 ) ) ;
#128 = PERSON_AND_ORGANIZATION_ROLE ( 'design_owner' ) ;
#129 = CIRCLE ( 'NONE', #340, 7.000000000000000000 ) ;
#130 = CC_DESIGN_APPROVAL ( #132, ( #134 ) ) ;
#131 = DIRECTION ( 'NONE',  ( -0.000000000000000000, -0.000000000000000000, -1.000000000000000000 ) ) ;
#132 = APPROVAL ( #334, 'NEURÈENÝ' ) ;
#133 = CIRCLE ( 'NONE', #212, 4.000000000000000000 ) ;
#134 = SECURITY_CLASSIFICATION ( '', '', #196 ) ;
#135 = EDGE_CURVE ( 'NONE', #185, #319, #129, .T. ) ;
#136 = PERSON_AND_ORGANIZATION_ROLE ( 'classification_officer' ) ;
#137 = DATE_AND_TIME ( #19, #300 ) ;
#138 = CARTESIAN_POINT ( 'NONE',  ( 0.000000000000000000, 0.000000000000000000, 0.000000000000000000 ) ) ;
#139 = ORIENTED_EDGE ( 'NONE', *, *, #328, .T. ) ;
#140 = AXIS2_PLACEMENT_3D ( 'NONE', #361, #125, #301 ) ;
#141 = CARTESIAN_POINT ( 'NONE',  ( 0.000000000000000000, 0.000000000000000000, 5.499999999999949374 ) ) ;
#142 = EDGE_CURVE ( 'NONE', #27, #309, #42, .T. ) ;
#143 = ORIENTED_EDGE ( 'NONE', *, *, #160, .T. ) ;
#144 = FACE_OUTER_BOUND ( 'NONE', #175, .T. ) ;
#145 = ORIENTED_EDGE ( 'NONE', *, *, #73, .T. ) ;
#146 = DIRECTION ( 'NONE',  ( 0.000000000000000000, 0.000000000000000000, 1.000000000000000000 ) ) ;
#147 = CARTESIAN_POINT ( 'NONE',  ( 4.000000000000000000, 4.898587196589412829E-16, 5.499999999999949374 ) ) ;
#148 = APPLICATION_CONTEXT ( 'configuration controlled 3d designs of mechanical parts and assemblies' ) ;
#149 = ORIENTED_EDGE ( 'NONE', *, *, #335, .F. ) ;
#150 = VECTOR ( 'NONE', #99, 1000.000000000000000 ) ;
#151 = ORIENTED_EDGE ( 'NONE', *, *, #73, .F. ) ;
#152 = EDGE_CURVE ( 'NONE', #214, #319, #369, .T. ) ;
#153 = ORIENTED_EDGE ( 'NONE', *, *, #268, .F. ) ;
#154 = PERSON_AND_ORGANIZATION_ROLE ( 'creator' ) ;
#155 = ORIENTED_EDGE ( 'NONE', *, *, #135, .T. ) ;
#156 = PERSON_AND_ORGANIZATION ( #220, #223 ) ;
#157 = CIRCLE ( 'NONE', #166, 2.500000000000000000 ) ;
#158 = CARTESIAN_POINT ( 'NONE',  ( 0.000000000000000000, 0.000000000000000000, 5.499999999999949374 ) ) ;
#159 = CC_DESIGN_APPROVAL ( #343, ( #83 ) ) ;
#160 = EDGE_CURVE ( 'NONE', #320, #27, #88, .T. ) ;
#161 = CARTESIAN_POINT ( 'NONE',  ( -4.000000000000000000, 0.000000000000000000, 5.499999999999949374 ) ) ;
#162 = CYLINDRICAL_SURFACE ( 'NONE', #140, 4.000000000000000000 ) ;
#163 = CARTESIAN_POINT ( 'NONE',  ( -4.500000000000000888, 5.510910596163088569E-16, 4.999999999999975131 ) ) ;
#164 = DIRECTION ( 'NONE',  ( 0.000000000000000000, 0.000000000000000000, 1.000000000000000000 ) ) ;
#165 = CARTESIAN_POINT ( 'NONE',  ( 0.000000000000000000, 0.000000000000000000, 5.000000000000000000 ) ) ;
#166 = AXIS2_PLACEMENT_3D ( 'NONE', #281, #225, #197 ) ;
#167 = DIRECTION ( 'NONE',  ( -1.000000000000000000, 0.000000000000000000, 0.000000000000000000 ) ) ;
#168 = PLANE ( 'NONE',  #204 ) ;
#169 = CIRCLE ( 'NONE', #330, 7.000000000000000000 ) ;
#170 = CARTESIAN_POINT ( 'NONE',  ( 0.000000000000000000, 0.000000000000000000, 755.0000000000000000 ) ) ;
#171 = PERSON_AND_ORGANIZATION ( #220, #223 ) ;
#172 = DIRECTION ( 'NONE',  ( 1.000000000000000000, 0.000000000000000000, 0.000000000000000000 ) ) ;
#173 = FACE_OUTER_BOUND ( 'NONE', #81, .T. ) ;
#174 = VERTEX_POINT ( 'NONE', #342 ) ;
#175 = EDGE_LOOP ( 'NONE', ( #153, #211, #155, #114 ) ) ;
#176 = AXIS2_PLACEMENT_3D ( 'NONE', #8, #365, #357 ) ;
#177 = PRODUCT ( '6e6e', '6e6e', '', ( #93 ) ) ;
#178 = DIRECTION ( 'NONE',  ( 1.000000000000000000, 0.000000000000000000, 0.000000000000000000 ) ) ;
#179 = CARTESIAN_POINT ( 'NONE',  ( 0.000000000000000000, 0.000000000000000000, 5.499999999999949374 ) ) ;
#180 = CARTESIAN_POINT ( 'NONE',  ( 0.000000000000000000, 0.000000000000000000, 755.0000000000000000 ) ) ;
#181 = CARTESIAN_POINT ( 'NONE',  ( 0.000000000000000000, 0.000000000000000000, 5.000000000000000000 ) ) ;
#182 = EDGE_CURVE ( 'NONE', #92, #174, #336, .T. ) ;
#183 = ORIENTED_EDGE ( 'NONE', *, *, #356, .F. ) ;
#184 = AXIS2_PLACEMENT_3D ( 'NONE', #181, #258, #232 ) ;
#185 = VERTEX_POINT ( 'NONE', #250 ) ;
#186 = EDGE_LOOP ( 'NONE', ( #262, #269, #139, #352 ) ) ;
#187 = AXIS2_PLACEMENT_3D ( 'NONE', #264, #118, #87 ) ;
#188 = APPROVAL_DATE_TIME ( #217, #56 ) ;
#189 = PERSON_AND_ORGANIZATION ( #220, #223 ) ;
#190 = FACE_OUTER_BOUND ( 'NONE', #186, .T. ) ;
#191 = DIRECTION ( 'NONE',  ( -1.000000000000000000, 0.000000000000000000, 0.000000000000000000 ) ) ;
#192 = EDGE_CURVE ( 'NONE', #338, #50, #12, .T. ) ;
#193 = COORDINATED_UNIVERSAL_TIME_OFFSET ( 1, 0, .AHEAD. ) ;
#194 = DIRECTION ( 'NONE',  ( 0.000000000000000000, 0.000000000000000000, -1.000000000000000000 ) ) ;
#195 = CLOSED_SHELL ( 'NONE', ( #40, #80, #119, #379, #203, #259, #362, #68, #4, #255, #313 ) ) ;
#196 = SECURITY_CLASSIFICATION_LEVEL ( 'unclassified' ) ;
#197 = DIRECTION ( 'NONE',  ( 1.000000000000000000, 0.000000000000000000, 0.000000000000000000 ) ) ;
#198 = CC_DESIGN_DATE_AND_TIME_ASSIGNMENT ( #297, #67, ( #83 ) ) ;
#199 = CARTESIAN_POINT ( 'NONE',  ( -7.000000000000000000, 0.000000000000000000, 5.000000000000000000 ) ) ;
#200 = VECTOR ( 'NONE', #111, 1000.000000000000000 ) ;
#201 = DIRECTION ( 'NONE',  ( 1.000000000000000000, 0.000000000000000000, 0.000000000000000000 ) ) ;
#202 = CARTESIAN_POINT ( 'NONE',  ( 0.000000000000000000, 0.000000000000000000, 5.000000000000000000 ) ) ;
#203 = ADVANCED_FACE ( 'NONE', ( #105 ), #104, .T. ) ;
#204 = AXIS2_PLACEMENT_3D ( 'NONE', #202, #16, #109 ) ;
#205 = CC_DESIGN_SECURITY_CLASSIFICATION ( #134, ( #288 ) ) ;
#206 = VERTEX_POINT ( 'NONE', #229 ) ;
#207 = DIRECTION ( 'NONE',  ( 1.000000000000000000, 0.000000000000000000, 0.000000000000000000 ) ) ;
#208 = EDGE_CURVE ( 'NONE', #282, #309, #157, .T. ) ;
#209 = ORIENTED_EDGE ( 'NONE', *, *, #142, .T. ) ;
#210 = DIRECTION ( 'NONE',  ( 1.224646799147353207E-16, 1.000000000000000000, -0.000000000000000000 ) ) ;
#211 = ORIENTED_EDGE ( 'NONE', *, *, #277, .T. ) ;
#212 = AXIS2_PLACEMENT_3D ( 'NONE', #179, #52, #178 ) ;
#213 = CARTESIAN_POINT ( 'NONE',  ( 4.000000000000000000, 4.898587196589412829E-16, 755.0000000000000000 ) ) ;
#214 = VERTEX_POINT ( 'NONE', #199 ) ;
#215 = EDGE_CURVE ( 'NONE', #309, #282, #219, .T. ) ;
#216 = COORDINATED_UNIVERSAL_TIME_OFFSET ( 1, 0, .AHEAD. ) ;
#217 = DATE_AND_TIME ( #69, #29 ) ;
#218 = APPROVAL_STATUS ( 'not_yet_approved' ) ;
#219 = CIRCLE ( 'NONE', #54, 2.500000000000000000 ) ;
#220 = PERSON ( 'NEURÈENÝ', 'NEURÈENÝ', 'NEURÈENÝ', ('NEURÈENÝ'), ('NEURÈENÝ'), ('NEURÈENÝ') ) ;
#221 = DATE_AND_TIME ( #331, #122 ) ;
#222 = DIRECTION ( 'NONE',  ( -0.000000000000000000, -0.000000000000000000, -1.000000000000000000 ) ) ;
#223 = ORGANIZATION ( 'NEURÈENÝ', 'NEURÈENÝ', '' ) ;
#224 = DIRECTION ( 'NONE',  ( -0.000000000000000000, -0.000000000000000000, -1.000000000000000000 ) ) ;
#225 = DIRECTION ( 'NONE',  ( -0.000000000000000000, -0.000000000000000000, -1.000000000000000000 ) ) ;
#226 = ORIENTED_EDGE ( 'NONE', *, *, #108, .T. ) ;
#227 = DIRECTION ( 'NONE',  ( 0.000000000000000000, 0.000000000000000000, 1.000000000000000000 ) ) ;
#228 = AXIS2_PLACEMENT_3D ( 'NONE', #74, #224, #82 ) ;
#229 = CARTESIAN_POINT ( 'NONE',  ( 7.000000000000000000, 8.572527594031473190E-16, 5.000000000000000000 ) ) ;
#230 = PRODUCT_RELATED_PRODUCT_CATEGORY ( 'detail', '', ( #177 ) ) ;
#231 = CARTESIAN_POINT ( 'NONE',  ( 0.000000000000000000, 0.000000000000000000, 0.000000000000000000 ) ) ;
#232 = DIRECTION ( 'NONE',  ( -1.000000000000000000, 0.000000000000000000, 0.000000000000000000 ) ) ;
#233 = ORIENTED_EDGE ( 'NONE', *, *, #51, .T. ) ;
#234 = AXIS2_PLACEMENT_3D ( 'NONE', #318, #235, #238 ) ;
#235 = DIRECTION ( 'NONE',  ( -0.000000000000000000, -0.000000000000000000, -1.000000000000000000 ) ) ;
#236 = EDGE_LOOP ( 'NONE', ( #25, #86, #57, #106 ) ) ;
#237 = DIRECTION ( 'NONE',  ( 1.000000000000000000, 0.000000000000000000, 0.000000000000000000 ) ) ;
#238 = DIRECTION ( 'NONE',  ( 1.000000000000000000, 0.000000000000000000, 0.000000000000000000 ) ) ;
#239 = AXIS2_PLACEMENT_3D ( 'NONE', #78, #247, #337 ) ;
#240 = APPLICATION_PROTOCOL_DEFINITION ( 'international standard', 'config_control_design', 1994, #254 ) ;
#241 = DIRECTION ( 'NONE',  ( 0.000000000000000000, 0.000000000000000000, 1.000000000000000000 ) ) ;
#242 = APPROVAL_ROLE ( '' ) ;
#243 = CARTESIAN_POINT ( 'NONE',  ( 0.000000000000000000, 0.000000000000000000, 0.000000000000000000 ) ) ;
#244 = APPROVAL_ROLE ( '' ) ;
#245 =( GEOMETRIC_REPRESENTATION_CONTEXT ( 3 ) GLOBAL_UNCERTAINTY_ASSIGNED_CONTEXT ( ( #253 ) ) GLOBAL_UNIT_ASSIGNED_CONTEXT ( ( #344, #113, #292 ) ) REPRESENTATION_CONTEXT ( 'NONE', 'WORKASPACE' ) );
#246 = CARTESIAN_POINT ( 'NONE',  ( -2.500000000000000000, 0.000000000000000000, 755.0000000000000000 ) ) ;
#247 = DIRECTION ( 'NONE',  ( 0.000000000000000000, -1.000000000000000000, 0.000000000000000000 ) ) ;
#248 = CARTESIAN_POINT ( 'NONE',  ( 0.000000000000000000, 0.000000000000000000, 755.0000000000000000 ) ) ;
#249 = AXIS2_PLACEMENT_3D ( 'NONE', #170, #227, #18 ) ;
#250 = CARTESIAN_POINT ( 'NONE',  ( 7.000000000000000000, 8.572527594031473190E-16, 0.000000000000000000 ) ) ;
#251 = DATE_TIME_ROLE ( 'classification_date' ) ;
#252 = CARTESIAN_POINT ( 'NONE',  ( 0.000000000000000000, 0.000000000000000000, 755.0000000000000000 ) ) ;
#253 = UNCERTAINTY_MEASURE_WITH_UNIT (LENGTH_MEASURE( 1.000000000000000082E-05 ), #344, 'distance_accuracy_value', 'NONE');
#254 = APPLICATION_CONTEXT ( 'configuration controlled 3d designs of mechanical parts and assemblies' ) ;
#255 = ADVANCED_FACE ( 'NONE', ( #75 ), #271, .F. ) ;
#256 = AXIS2_PLACEMENT_3D ( 'NONE', #180, #241, #355 ) ;
#257 = FACE_OUTER_BOUND ( 'NONE', #1, .T. ) ;
#258 = DIRECTION ( 'NONE',  ( -0.000000000000000000, -0.000000000000000000, -1.000000000000000000 ) ) ;
#259 = ADVANCED_FACE ( 'NONE', ( #307, #45 ), #168, .T. ) ;
#260 = FACE_OUTER_BOUND ( 'NONE', #123, .T. ) ;
#261 = DIRECTION ( 'NONE',  ( -1.000000000000000000, 1.224646799147351482E-16, 0.000000000000000000 ) ) ;
#262 = ORIENTED_EDGE ( 'NONE', *, *, #273, .F. ) ;
#263 = APPROVAL_PERSON_ORGANIZATION ( #189, #343, #244 ) ;
#264 = CARTESIAN_POINT ( 'NONE',  ( 0.000000000000000000, 0.000000000000000000, 755.0000000000000000 ) ) ;
#265 = ORIENTED_EDGE ( 'NONE', *, *, #335, .T. ) ;
#266 = LINE ( 'NONE', #85, #376 ) ;
#267 = ORIENTED_EDGE ( 'NONE', *, *, #215, .F. ) ;
#268 = EDGE_CURVE ( 'NONE', #206, #214, #169, .T. ) ;
#269 = ORIENTED_EDGE ( 'NONE', *, *, #321, .T. ) ;
#270 = AXIS2_PLACEMENT_3D ( 'NONE', #30, #117, #237 ) ;
#271 = TOROIDAL_SURFACE ( 'NONE', #101, 4.500000000000000888, 0.5000000000000000000 ) ;
#272 = CARTESIAN_POINT ( 'NONE',  ( 0.000000000000000000, 0.000000000000000000, 0.000000000000000000 ) ) ;
#273 = EDGE_CURVE ( 'NONE', #359, #338, #36, .T. ) ;
#274 = DIRECTION ( 'NONE',  ( 1.000000000000000000, 0.000000000000000000, 0.000000000000000000 ) ) ;
#275 = FACE_OUTER_BOUND ( 'NONE', #48, .T. ) ;
#276 = AXIS2_PLACEMENT_3D ( 'NONE', #165, #327, #126 ) ;
#277 = EDGE_CURVE ( 'NONE', #206, #185, #49, .T. ) ;
#278 = PERSON_AND_ORGANIZATION ( #220, #223 ) ;
#279 = PERSON_AND_ORGANIZATION_ROLE ( 'design_supplier' ) ;
#280 = CIRCLE ( 'NONE', #115, 0.5000000000000004441 ) ;
#281 = CARTESIAN_POINT ( 'NONE',  ( 0.000000000000000000, 0.000000000000000000, 0.000000000000000000 ) ) ;
#282 = VERTEX_POINT ( 'NONE', #312 ) ;
#283 = COORDINATED_UNIVERSAL_TIME_OFFSET ( 1, 0, .AHEAD. ) ;
#284 = CARTESIAN_POINT ( 'NONE',  ( 0.000000000000000000, 0.000000000000000000, 5.499999999999949374 ) ) ;
#285 = EDGE_LOOP ( 'NONE', ( #21, #348 ) ) ;
#286 = FACE_BOUND ( 'NONE', #59, .T. ) ;
#287 = VECTOR ( 'NONE', #37, 1000.000000000000000 ) ;
#288 = PRODUCT_DEFINITION_FORMATION_WITH_SPECIFIED_SOURCE ( 'LIBOVOLNÝ', '', #177, .NOT_KNOWN. ) ;
#289 = CARTESIAN_POINT ( 'NONE',  ( -4.500000000000000888, 5.510910596163089556E-16, 5.499999999999949374 ) ) ;
#290 = ORIENTED_EDGE ( 'NONE', *, *, #22, .F. ) ;
#291 = ORIENTED_EDGE ( 'NONE', *, *, #182, .T. ) ;
#292 =( NAMED_UNIT ( * ) SI_UNIT ( $, .STERADIAN. ) SOLID_ANGLE_UNIT ( ) );
#293 = PLANE ( 'NONE',  #256 ) ;
#294 = ORIENTED_EDGE ( 'NONE', *, *, #108, .F. ) ;
#295 = CC_DESIGN_PERSON_AND_ORGANIZATION_ASSIGNMENT ( #278, #279, ( #288 ) ) ;
#296 = ORIENTED_EDGE ( 'NONE', *, *, #277, .F. ) ;
#297 = DATE_AND_TIME ( #326, #367 ) ;
#298 = FACE_OUTER_BOUND ( 'NONE', #236, .T. ) ;
#299 = CIRCLE ( 'NONE', #270, 2.500000000000000000 ) ;
#300 = LOCAL_TIME ( 17, 18, 16.00000000000000000, #283 ) ;
#301 = DIRECTION ( 'NONE',  ( -1.000000000000000000, 0.000000000000000000, 0.000000000000000000 ) ) ;
#302 = CC_DESIGN_PERSON_AND_ORGANIZATION_ASSIGNMENT ( #171, #136, ( #134 ) ) ;
#303 = LINE ( 'NONE', #332, #287 ) ;
#304 = CALENDAR_DATE ( 2022, 8, 7 ) ;
#305 = AXIS2_PLACEMENT_3D ( 'NONE', #158, #329, #39 ) ;
#306 = DIRECTION ( 'NONE',  ( 1.000000000000000000, 0.000000000000000000, 0.000000000000000000 ) ) ;
#307 = FACE_BOUND ( 'NONE', #377, .T. ) ;
#308 = DIRECTION ( 'NONE',  ( 0.000000000000000000, 0.000000000000000000, 1.000000000000000000 ) ) ;
#309 = VERTEX_POINT ( 'NONE', #381 ) ;
#310 = DESIGN_CONTEXT ( 'detailed design', #148, 'design' ) ;
#311 = DIRECTION ( 'NONE',  ( -0.000000000000000000, -0.000000000000000000, -1.000000000000000000 ) ) ;
#312 = CARTESIAN_POINT ( 'NONE',  ( 2.500000000000000000, 3.061616997868383141E-16, 0.000000000000000000 ) ) ;
#313 = ADVANCED_FACE ( 'NONE', ( #116 ), #31, .F. ) ;
#314 = CIRCLE ( 'NONE', #276, 7.000000000000000000 ) ;
#315 = AXIS2_PLACEMENT_3D ( 'NONE', #243, #358, #360 ) ;
#316 = ORIENTED_EDGE ( 'NONE', *, *, #152, .T. ) ;
#317 = PRODUCT_DEFINITION_SHAPE ( 'NONE', 'NONE',  #83 ) ;
#318 = CARTESIAN_POINT ( 'NONE',  ( 0.000000000000000000, 0.000000000000000000, 5.000000000000000000 ) ) ;
#319 = VERTEX_POINT ( 'NONE', #350 ) ;
#320 = VERTEX_POINT ( 'NONE', #53 ) ;
#321 = EDGE_CURVE ( 'NONE', #359, #92, #266, .T. ) ;
#322 = EDGE_LOOP ( 'NONE', ( #183, #28, #291, #371 ) ) ;
#323 = VECTOR ( 'NONE', #131, 1000.000000000000000 ) ;
#324 = PERSON_AND_ORGANIZATION ( #220, #223 ) ;
#325 = ORIENTED_EDGE ( 'NONE', *, *, #135, .F. ) ;
#326 = CALENDAR_DATE ( 2022, 8, 7 ) ;
#327 = DIRECTION ( 'NONE',  ( 0.000000000000000000, 0.000000000000000000, 1.000000000000000000 ) ) ;
#328 = EDGE_CURVE ( 'NONE', #92, #50, #133, .T. ) ;
#329 = DIRECTION ( 'NONE',  ( 0.000000000000000000, 0.000000000000000000, 1.000000000000000000 ) ) ;
#330 = AXIS2_PLACEMENT_3D ( 'NONE', #76, #308, #339 ) ;
#331 = CALENDAR_DATE ( 2022, 8, 7 ) ;
#332 = CARTESIAN_POINT ( 'NONE',  ( 2.500000000000000000, 3.061616997868383141E-16, 755.0000000000000000 ) ) ;
#333 = ORIENTED_EDGE ( 'NONE', *, *, #356, .T. ) ;
#334 = APPROVAL_STATUS ( 'not_yet_approved' ) ;
#335 = EDGE_CURVE ( 'NONE', #174, #34, #346, .T. ) ;
#336 = CIRCLE ( 'NONE', #239, 0.5000000000000004441 ) ;
#337 = DIRECTION ( 'NONE',  ( 0.000000000000000000, 0.000000000000000000, -1.000000000000000000 ) ) ;
#338 = VERTEX_POINT ( 'NONE', #378 ) ;
#339 = DIRECTION ( 'NONE',  ( 1.000000000000000000, 0.000000000000000000, 0.000000000000000000 ) ) ;
#340 = AXIS2_PLACEMENT_3D ( 'NONE', #43, #164, #274 ) ;
#341 = DIRECTION ( 'NONE',  ( 0.000000000000000000, 0.000000000000000000, 1.000000000000000000 ) ) ;
#342 = CARTESIAN_POINT ( 'NONE',  ( 4.500000000000000888, 0.000000000000000000, 4.999999999999975131 ) ) ;
#343 = APPROVAL ( #218, 'NEURÈENÝ' ) ;
#344 =( LENGTH_UNIT ( ) NAMED_UNIT ( * ) SI_UNIT ( .MILLI., .METRE. ) );
#345 = DIRECTION ( 'NONE',  ( 1.000000000000000000, 0.000000000000000000, -0.000000000000000000 ) ) ;
#346 = CIRCLE ( 'NONE', #234, 4.500000000000000888 ) ;
#347 = CC_DESIGN_APPROVAL ( #56, ( #288 ) ) ;
#348 = ORIENTED_EDGE ( 'NONE', *, *, #160, .F. ) ;
#349 = ORIENTED_EDGE ( 'NONE', *, *, #182, .F. ) ;
#350 = CARTESIAN_POINT ( 'NONE',  ( -7.000000000000000000, 0.000000000000000000, 0.000000000000000000 ) ) ;
#351 = EDGE_CURVE ( 'NONE', #50, #92, #66, .T. ) ;
#352 = ORIENTED_EDGE ( 'NONE', *, *, #192, .F. ) ;
#353 = ORIENTED_EDGE ( 'NONE', *, *, #51, .F. ) ;
#354 = TOROIDAL_SURFACE ( 'NONE', #305, 4.500000000000000888, 0.5000000000000000000 ) ;
#355 = DIRECTION ( 'NONE',  ( 1.000000000000000000, 0.000000000000000000, -0.000000000000000000 ) ) ;
#356 = EDGE_CURVE ( 'NONE', #50, #34, #280, .T. ) ;
#357 = DIRECTION ( 'NONE',  ( 1.000000000000000000, 0.000000000000000000, 0.000000000000000000 ) ) ;
#358 = DIRECTION ( 'NONE',  ( 0.000000000000000000, 0.000000000000000000, 1.000000000000000000 ) ) ;
#359 = VERTEX_POINT ( 'NONE', #213 ) ;
#360 = DIRECTION ( 'NONE',  ( 1.000000000000000000, 0.000000000000000000, 0.000000000000000000 ) ) ;
#361 = CARTESIAN_POINT ( 'NONE',  ( 0.000000000000000000, 0.000000000000000000, 755.0000000000000000 ) ) ;
#362 = ADVANCED_FACE ( 'NONE', ( #286, #257 ), #58, .F. ) ;
#363 = CYLINDRICAL_SURFACE ( 'NONE', #24, 2.500000000000000000 ) ;
#364 = SHAPE_DEFINITION_REPRESENTATION ( #317, #370 ) ;
#365 = DIRECTION ( 'NONE',  ( -0.000000000000000000, -0.000000000000000000, -1.000000000000000000 ) ) ;
#366 = CIRCLE ( 'NONE', #14, 4.000000000000000000 ) ;
#367 = LOCAL_TIME ( 17, 18, 16.00000000000000000, #216 ) ;
#368 = CC_DESIGN_PERSON_AND_ORGANIZATION_ASSIGNMENT ( #11, #38, ( #288 ) ) ;
#369 = LINE ( 'NONE', #20, #323 ) ;
#370 = ADVANCED_BREP_SHAPE_REPRESENTATION ( '6e6e', ( #63, #315 ), #245 ) ;
#371 = ORIENTED_EDGE ( 'NONE', *, *, #13, .F. ) ;
#372 = PERSON_AND_ORGANIZATION ( #220, #223 ) ;
#373 = DIRECTION ( 'NONE',  ( 0.000000000000000000, 0.000000000000000000, 1.000000000000000000 ) ) ;
#374 = APPROVAL_ROLE ( '' ) ;
#375 = CARTESIAN_POINT ( 'NONE',  ( 7.000000000000000000, 8.572527594031473190E-16, 5.000000000000000000 ) ) ;
#376 = VECTOR ( 'NONE', #23, 1000.000000000000000 ) ;
#377 = EDGE_LOOP ( 'NONE', ( #265, #64 ) ) ;
#378 = CARTESIAN_POINT ( 'NONE',  ( -4.000000000000000000, 0.000000000000000000, 755.0000000000000000 ) ) ;
#379 = ADVANCED_FACE ( 'NONE', ( #144 ), #60, .T. ) ;
#380 = FACE_BOUND ( 'NONE', #285, .T. ) ;
#381 = CARTESIAN_POINT ( 'NONE',  ( -2.500000000000000000, 0.000000000000000000, 0.000000000000000000 ) ) ;
ENDSEC;
END-ISO-10303-21;
