ISO-10303-21;
HEADER;
FILE_DESCRIPTION (( 'STEP AP203' ),
    '1' );
FILE_NAME ('37f6.STEP',
    '2022-07-08T14:40:48',
    ( '' ),
    ( '' ),
    'SwSTEP 2.0',
    'SolidWorks 2019',
    '' );
FILE_SCHEMA (( 'CONFIG_CONTROL_DESIGN' ));
ENDSEC;

DATA;
#1 = DIRECTION ( 'NONE',  ( 1.000000000000000000, 0.000000000000000000, -0.000000000000000000 ) ) ;
#2 = APPROVAL_DATE_TIME ( #298, #73 ) ;
#3 = CARTESIAN_POINT ( 'NONE',  ( 6.000000000000000888, 7.347880794884120722E-16, 7.499999999999951150 ) ) ;
#4 = EDGE_CURVE ( 'NONE', #338, #286, #326, .T. ) ;
#5 = FACE_OUTER_BOUND ( 'NONE', #311, .T. ) ;
#6 = APPROVAL_DATE_TIME ( #211, #132 ) ;
#7 = EDGE_CURVE ( 'NONE', #110, #248, #293, .T. ) ;
#8 = AXIS2_PLACEMENT_3D ( 'NONE', #207, #343, #178 ) ;
#9 = LOCAL_TIME ( 16, 40, 48.00000000000000000, #186 ) ;
#10 = DIRECTION ( 'NONE',  ( -0.000000000000000000, -0.000000000000000000, -1.000000000000000000 ) ) ;
#11 = APPROVAL_ROLE ( '' ) ;
#12 = VERTEX_POINT ( 'NONE', #183 ) ;
#13 = AXIS2_PLACEMENT_3D ( 'NONE', #122, #10, #265 ) ;
#14 = LOCAL_TIME ( 16, 40, 48.00000000000000000, #182 ) ;
#15 = ORIENTED_EDGE ( 'NONE', *, *, #69, .T. ) ;
#16 = APPLICATION_PROTOCOL_DEFINITION ( 'international standard', 'config_control_design', 1994, #179 ) ;
#17 = ORIENTED_EDGE ( 'NONE', *, *, #114, .F. ) ;
#18 = DIRECTION ( 'NONE',  ( 1.000000000000000000, 0.000000000000000000, 0.000000000000000000 ) ) ;
#19 = EDGE_CURVE ( 'NONE', #348, #136, #268, .T. ) ;
#20 = EDGE_LOOP ( 'NONE', ( #305, #314 ) ) ;
#21 = CARTESIAN_POINT ( 'NONE',  ( 0.000000000000000000, 0.000000000000000000, 657.0000000000000000 ) ) ;
#22 = ORIENTED_EDGE ( 'NONE', *, *, #361, .T. ) ;
#23 = LINE ( 'NONE', #233, #225 ) ;
#24 = DIRECTION ( 'NONE',  ( -0.000000000000000000, -0.000000000000000000, -1.000000000000000000 ) ) ;
#25 = DIRECTION ( 'NONE',  ( 1.000000000000000000, 0.000000000000000000, 0.000000000000000000 ) ) ;
#26 = DATE_AND_TIME ( #376, #188 ) ;
#27 = CARTESIAN_POINT ( 'NONE',  ( 0.000000000000000000, 0.000000000000000000, 7.499999999999951150 ) ) ;
#28 = CIRCLE ( 'NONE', #102, 10.00000000000000000 ) ;
#29 = SECURITY_CLASSIFICATION ( '', '', #333 ) ;
#30 = CARTESIAN_POINT ( 'NONE',  ( -10.00000000000000000, 0.000000000000000000, 0.000000000000000000 ) ) ;
#31 = CARTESIAN_POINT ( 'NONE',  ( 10.00000000000000000, 1.224646799147353256E-15, 0.000000000000000000 ) ) ;
#32 = PRODUCT_RELATED_PRODUCT_CATEGORY ( 'detail', '', ( #38 ) ) ;
#33 = CALENDAR_DATE ( 2022, 8, 7 ) ;
#34 = DIRECTION ( 'NONE',  ( -0.000000000000000000, -0.000000000000000000, -1.000000000000000000 ) ) ;
#35 = SHAPE_DEFINITION_REPRESENTATION ( #128, #267 ) ;
#36 = AXIS2_PLACEMENT_3D ( 'NONE', #370, #247, #193 ) ;
#37 = CIRCLE ( 'NONE', #334, 6.500000000000000888 ) ;
#38 = PRODUCT ( '37f6', '37f6', '', ( #285 ) ) ;
#39 = CLOSED_SHELL ( 'NONE', ( #214, #284, #294, #177, #140, #72, #264, #241, #103, #380, #40 ) ) ;
#40 = ADVANCED_FACE ( 'NONE', ( #5 ), #269, .F. ) ;
#41 = EDGE_LOOP ( 'NONE', ( #22, #202 ) ) ;
#42 = ORIENTED_EDGE ( 'NONE', *, *, #145, .T. ) ;
#43 = CIRCLE ( 'NONE', #206, 3.250000000000000444 ) ;
#44 = DIRECTION ( 'NONE',  ( 1.000000000000000000, 0.000000000000000000, 0.000000000000000000 ) ) ;
#45 = ORIENTED_EDGE ( 'NONE', *, *, #361, .F. ) ;
#46 = EDGE_CURVE ( 'NONE', #12, #338, #324, .T. ) ;
#47 = DIRECTION ( 'NONE',  ( 1.000000000000000000, 0.000000000000000000, 0.000000000000000000 ) ) ;
#48 = ORIENTED_EDGE ( 'NONE', *, *, #145, .F. ) ;
#49 = CYLINDRICAL_SURFACE ( 'NONE', #319, 6.000000000000000888 ) ;
#50 = DATE_AND_TIME ( #144, #363 ) ;
#51 = VERTEX_POINT ( 'NONE', #3 ) ;
#52 = DIRECTION ( 'NONE',  ( 0.000000000000000000, 0.000000000000000000, -1.000000000000000000 ) ) ;
#53 = CARTESIAN_POINT ( 'NONE',  ( 0.000000000000000000, 0.000000000000000000, 657.0000000000000000 ) ) ;
#54 = VECTOR ( 'NONE', #34, 1000.000000000000000 ) ;
#55 = ORIENTED_EDGE ( 'NONE', *, *, #19, .F. ) ;
#56 = APPROVAL_PERSON_ORGANIZATION ( #325, #73, #100 ) ;
#57 = DIRECTION ( 'NONE',  ( -0.000000000000000000, -0.000000000000000000, -1.000000000000000000 ) ) ;
#58 = APPLICATION_PROTOCOL_DEFINITION ( 'international standard', 'config_control_design', 1994, #158 ) ;
#59 = ORIENTED_EDGE ( 'NONE', *, *, #4, .F. ) ;
#60 = FACE_OUTER_BOUND ( 'NONE', #220, .T. ) ;
#61 = FACE_OUTER_BOUND ( 'NONE', #41, .T. ) ;
#62 = APPROVAL_STATUS ( 'not_yet_approved' ) ;
#63 = AXIS2_PLACEMENT_3D ( 'NONE', #229, #147, #164 ) ;
#64 = PRODUCT_DEFINITION ( 'NEZNÁMÝ', '', #173, #75 ) ;
#65 = CARTESIAN_POINT ( 'NONE',  ( 0.000000000000000000, 0.000000000000000000, 7.000000000000000000 ) ) ;
#66 = CARTESIAN_POINT ( 'NONE',  ( 0.000000000000000000, 0.000000000000000000, 657.0000000000000000 ) ) ;
#67 = COORDINATED_UNIVERSAL_TIME_OFFSET ( 1, 0, .AHEAD. ) ;
#68 = DIRECTION ( 'NONE',  ( 0.000000000000000000, 0.000000000000000000, 1.000000000000000000 ) ) ;
#69 = EDGE_CURVE ( 'NONE', #136, #84, #195, .T. ) ;
#70 = VECTOR ( 'NONE', #257, 1000.000000000000000 ) ;
#71 =( GEOMETRIC_REPRESENTATION_CONTEXT ( 3 ) GLOBAL_UNCERTAINTY_ASSIGNED_CONTEXT ( ( #135 ) ) GLOBAL_UNIT_ASSIGNED_CONTEXT ( ( #227, #340, #208 ) ) REPRESENTATION_CONTEXT ( 'NONE', 'WORKASPACE' ) );
#72 = ADVANCED_FACE ( 'NONE', ( #180, #263 ), #327, .T. ) ;
#73 = APPROVAL ( #62, 'NEURÈENÝ' ) ;
#74 = APPROVAL_PERSON_ORGANIZATION ( #124, #132, #11 ) ;
#75 = DESIGN_CONTEXT ( 'detailed design', #179, 'design' ) ;
#76 = ORIENTED_EDGE ( 'NONE', *, *, #219, .F. ) ;
#77 = DIRECTION ( 'NONE',  ( 0.000000000000000000, 0.000000000000000000, 1.000000000000000000 ) ) ;
#78 = ORIENTED_EDGE ( 'NONE', *, *, #114, .T. ) ;
#79 = DIRECTION ( 'NONE',  ( 0.000000000000000000, 0.000000000000000000, -1.000000000000000000 ) ) ;
#80 = PERSON_AND_ORGANIZATION_ROLE ( 'creator' ) ;
#81 = EDGE_LOOP ( 'NONE', ( #105, #221 ) ) ;
#82 = CARTESIAN_POINT ( 'NONE',  ( 6.000000000000000888, 7.347880794884120722E-16, 657.0000000000000000 ) ) ;
#83 = APPROVAL_ROLE ( '' ) ;
#84 = VERTEX_POINT ( 'NONE', #31 ) ;
#85 = DIRECTION ( 'NONE',  ( 0.000000000000000000, 0.000000000000000000, 1.000000000000000000 ) ) ;
#86 = CARTESIAN_POINT ( 'NONE',  ( -3.250000000000000444, 0.000000000000000000, 657.0000000000000000 ) ) ;
#87 = EDGE_LOOP ( 'NONE', ( #17, #146, #93, #15 ) ) ;
#88 = DIRECTION ( 'NONE',  ( 1.000000000000000000, 0.000000000000000000, -0.000000000000000000 ) ) ;
#89 = CIRCLE ( 'NONE', #98, 10.00000000000000000 ) ;
#90 = CARTESIAN_POINT ( 'NONE',  ( 0.000000000000000000, 0.000000000000000000, 0.000000000000000000 ) ) ;
#91 = CC_DESIGN_SECURITY_CLASSIFICATION ( #29, ( #173 ) ) ;
#92 = CARTESIAN_POINT ( 'NONE',  ( 0.000000000000000000, 0.000000000000000000, 0.000000000000000000 ) ) ;
#93 = ORIENTED_EDGE ( 'NONE', *, *, #19, .T. ) ;
#94 = ORIENTED_EDGE ( 'NONE', *, *, #362, .F. ) ;
#95 = CALENDAR_DATE ( 2022, 8, 7 ) ;
#96 = CC_DESIGN_DATE_AND_TIME_ASSIGNMENT ( #270, #331, ( #29 ) ) ;
#97 = DIRECTION ( 'NONE',  ( -0.000000000000000000, -0.000000000000000000, -1.000000000000000000 ) ) ;
#98 = AXIS2_PLACEMENT_3D ( 'NONE', #92, #346, #339 ) ;
#99 = CARTESIAN_POINT ( 'NONE',  ( 0.000000000000000000, 0.000000000000000000, 0.000000000000000000 ) ) ;
#100 = APPROVAL_ROLE ( '' ) ;
#101 = CARTESIAN_POINT ( 'NONE',  ( -6.500000000000000888, 7.960204194457796463E-16, 6.999999999999975131 ) ) ;
#102 = AXIS2_PLACEMENT_3D ( 'NONE', #112, #381, #47 ) ;
#103 = ADVANCED_FACE ( 'NONE', ( #356, #61 ), #127, .T. ) ;
#104 = CIRCLE ( 'NONE', #63, 6.000000000000000888 ) ;
#105 = ORIENTED_EDGE ( 'NONE', *, *, #362, .T. ) ;
#106 = CARTESIAN_POINT ( 'NONE',  ( 6.000000000000000888, 7.347880794884120722E-16, 657.0000000000000000 ) ) ;
#107 = ORIENTED_EDGE ( 'NONE', *, *, #242, .T. ) ;
#108 = DIRECTION ( 'NONE',  ( -1.000000000000000000, 0.000000000000000000, 0.000000000000000000 ) ) ;
#109 = COORDINATED_UNIVERSAL_TIME_OFFSET ( 1, 0, .AHEAD. ) ;
#110 = VERTEX_POINT ( 'NONE', #101 ) ;
#111 = CIRCLE ( 'NONE', #8, 10.00000000000000000 ) ;
#112 = CARTESIAN_POINT ( 'NONE',  ( 0.000000000000000000, 0.000000000000000000, 7.000000000000000000 ) ) ;
#113 = ORIENTED_EDGE ( 'NONE', *, *, #330, .F. ) ;
#114 = EDGE_CURVE ( 'NONE', #170, #84, #297, .T. ) ;
#115 = CARTESIAN_POINT ( 'NONE',  ( 0.000000000000000000, 0.000000000000000000, 657.0000000000000000 ) ) ;
#116 = DIRECTION ( 'NONE',  ( -1.000000000000000000, 1.224646799147351482E-16, 0.000000000000000000 ) ) ;
#117 = EDGE_LOOP ( 'NONE', ( #133, #78, #304, #55 ) ) ;
#118 = CC_DESIGN_PERSON_AND_ORGANIZATION_ASSIGNMENT ( #176, #216, ( #173 ) ) ;
#119 = CARTESIAN_POINT ( 'NONE',  ( 0.000000000000000000, 0.000000000000000000, 0.000000000000000000 ) ) ;
#120 = FACE_OUTER_BOUND ( 'NONE', #230, .T. ) ;
#121 = CIRCLE ( 'NONE', #238, 0.5000000000000004441 ) ;
#122 = CARTESIAN_POINT ( 'NONE',  ( 0.000000000000000000, 0.000000000000000000, 7.000000000000000000 ) ) ;
#123 = CARTESIAN_POINT ( 'NONE',  ( 10.00000000000000000, 1.224646799147353256E-15, 7.000000000000000000 ) ) ;
#124 = PERSON_AND_ORGANIZATION ( #131, #277 ) ;
#125 = CARTESIAN_POINT ( 'NONE',  ( 3.250000000000000444, 3.980102097228898231E-16, 657.0000000000000000 ) ) ;
#126 = CIRCLE ( 'NONE', #159, 6.000000000000000888 ) ;
#127 = PLANE ( 'NONE',  #371 ) ;
#128 = PRODUCT_DEFINITION_SHAPE ( 'NONE', 'NONE',  #64 ) ;
#129 = EDGE_CURVE ( 'NONE', #377, #373, #130, .T. ) ;
#130 = CIRCLE ( 'NONE', #272, 6.000000000000000888 ) ;
#131 = PERSON ( 'NEURÈENÝ', 'NEURÈENÝ', 'NEURÈENÝ', ('NEURÈENÝ'), ('NEURÈENÝ'), ('NEURÈENÝ') ) ;
#132 = APPROVAL ( #237, 'NEURÈENÝ' ) ;
#133 = ORIENTED_EDGE ( 'NONE', *, *, #189, .F. ) ;
#134 = VECTOR ( 'NONE', #200, 1000.000000000000000 ) ;
#135 = UNCERTAINTY_MEASURE_WITH_UNIT (LENGTH_MEASURE( 1.000000000000000082E-05 ), #227, 'distance_accuracy_value', 'NONE');
#136 = VERTEX_POINT ( 'NONE', #30 ) ;
#137 = DIRECTION ( 'NONE',  ( 1.000000000000000000, 0.000000000000000000, 0.000000000000000000 ) ) ;
#138 = ORIENTED_EDGE ( 'NONE', *, *, #243, .T. ) ;
#139 = FACE_OUTER_BOUND ( 'NONE', #224, .T. ) ;
#140 = ADVANCED_FACE ( 'NONE', ( #295 ), #153, .T. ) ;
#141 = VERTEX_POINT ( 'NONE', #291 ) ;
#142 = AXIS2_PLACEMENT_3D ( 'NONE', #27, #323, #18 ) ;
#143 = DIRECTION ( 'NONE',  ( -0.000000000000000000, -0.000000000000000000, -1.000000000000000000 ) ) ;
#144 = CALENDAR_DATE ( 2022, 8, 7 ) ;
#145 = EDGE_CURVE ( 'NONE', #51, #248, #244, .T. ) ;
#146 = ORIENTED_EDGE ( 'NONE', *, *, #185, .F. ) ;
#147 = DIRECTION ( 'NONE',  ( 0.000000000000000000, 0.000000000000000000, 1.000000000000000000 ) ) ;
#148 = CARTESIAN_POINT ( 'NONE',  ( -6.000000000000000888, 0.000000000000000000, 657.0000000000000000 ) ) ;
#149 = DIRECTION ( 'NONE',  ( -1.000000000000000000, 0.000000000000000000, 0.000000000000000000 ) ) ;
#150 = PERSON_AND_ORGANIZATION_ROLE ( 'design_supplier' ) ;
#151 = DIRECTION ( 'NONE',  ( 1.000000000000000000, 0.000000000000000000, -0.000000000000000000 ) ) ;
#152 = PERSON_AND_ORGANIZATION_ROLE ( 'classification_officer' ) ;
#153 = CYLINDRICAL_SURFACE ( 'NONE', #336, 10.00000000000000000 ) ;
#154 = DIRECTION ( 'NONE',  ( 1.000000000000000000, 0.000000000000000000, 0.000000000000000000 ) ) ;
#155 = DIRECTION ( 'NONE',  ( -1.000000000000000000, 0.000000000000000000, 0.000000000000000000 ) ) ;
#156 = CIRCLE ( 'NONE', #36, 3.250000000000000444 ) ;
#157 = CC_DESIGN_PERSON_AND_ORGANIZATION_ASSIGNMENT ( #328, #152, ( #29 ) ) ;
#158 = APPLICATION_CONTEXT ( 'configuration controlled 3d designs of mechanical parts and assemblies' ) ;
#159 = AXIS2_PLACEMENT_3D ( 'NONE', #53, #365, #137 ) ;
#160 = ORIENTED_EDGE ( 'NONE', *, *, #4, .T. ) ;
#161 = ORIENTED_EDGE ( 'NONE', *, *, #219, .T. ) ;
#162 = TOROIDAL_SURFACE ( 'NONE', #191, 6.500000000000000888, 0.5000000000000000000 ) ;
#163 = ORIENTED_EDGE ( 'NONE', *, *, #46, .T. ) ;
#164 = DIRECTION ( 'NONE',  ( 1.000000000000000000, 0.000000000000000000, 0.000000000000000000 ) ) ;
#165 = APPROVAL_STATUS ( 'not_yet_approved' ) ;
#166 = EDGE_LOOP ( 'NONE', ( #337, #45, #138, #161 ) ) ;
#167 = DIRECTION ( 'NONE',  ( -1.000000000000000000, 0.000000000000000000, 0.000000000000000000 ) ) ;
#168 = EDGE_CURVE ( 'NONE', #318, #12, #43, .T. ) ;
#169 = FACE_OUTER_BOUND ( 'NONE', #282, .T. ) ;
#170 = VERTEX_POINT ( 'NONE', #231 ) ;
#171 = AXIS2_PLACEMENT_3D ( 'NONE', #261, #283, #52 ) ;
#172 = FACE_OUTER_BOUND ( 'NONE', #117, .T. ) ;
#173 = PRODUCT_DEFINITION_FORMATION_WITH_SPECIFIED_SOURCE ( 'LIBOVOLNÝ', '', #38, .NOT_KNOWN. ) ;
#174 = DIRECTION ( 'NONE',  ( 1.000000000000000000, 0.000000000000000000, 0.000000000000000000 ) ) ;
#175 = CARTESIAN_POINT ( 'NONE',  ( 0.000000000000000000, 0.000000000000000000, 7.499999999999951150 ) ) ;
#176 = PERSON_AND_ORGANIZATION ( #131, #277 ) ;
#177 = ADVANCED_FACE ( 'NONE', ( #172 ), #349, .T. ) ;
#178 = DIRECTION ( 'NONE',  ( 1.000000000000000000, 0.000000000000000000, 0.000000000000000000 ) ) ;
#179 = APPLICATION_CONTEXT ( 'configuration controlled 3d designs of mechanical parts and assemblies' ) ;
#180 = FACE_BOUND ( 'NONE', #81, .T. ) ;
#181 = AXIS2_PLACEMENT_3D ( 'NONE', #249, #57, #149 ) ;
#182 = COORDINATED_UNIVERSAL_TIME_OFFSET ( 1, 0, .AHEAD. ) ;
#183 = CARTESIAN_POINT ( 'NONE',  ( 3.250000000000000444, 3.980102097228898231E-16, 657.0000000000000000 ) ) ;
#184 = DIRECTION ( 'NONE',  ( 0.000000000000000000, 0.000000000000000000, 1.000000000000000000 ) ) ;
#185 = EDGE_CURVE ( 'NONE', #348, #170, #28, .T. ) ;
#186 = COORDINATED_UNIVERSAL_TIME_OFFSET ( 1, 0, .AHEAD. ) ;
#187 = AXIS2_PLACEMENT_3D ( 'NONE', #99, #97, #154 ) ;
#188 = LOCAL_TIME ( 16, 40, 48.00000000000000000, #197 ) ;
#189 = EDGE_CURVE ( 'NONE', #170, #348, #111, .T. ) ;
#190 = TOROIDAL_SURFACE ( 'NONE', #142, 6.500000000000000888, 0.5000000000000000000 ) ;
#191 = AXIS2_PLACEMENT_3D ( 'NONE', #260, #77, #347 ) ;
#192 = ORIENTED_EDGE ( 'NONE', *, *, #46, .F. ) ;
#193 = DIRECTION ( 'NONE',  ( 1.000000000000000000, 0.000000000000000000, 0.000000000000000000 ) ) ;
#194 = ORIENTED_EDGE ( 'NONE', *, *, #330, .T. ) ;
#195 = CIRCLE ( 'NONE', #218, 10.00000000000000000 ) ;
#196 = CARTESIAN_POINT ( 'NONE',  ( -3.250000000000000444, 0.000000000000000000, 0.000000000000000000 ) ) ;
#197 = COORDINATED_UNIVERSAL_TIME_OFFSET ( 1, 0, .AHEAD. ) ;
#198 = ORIENTED_EDGE ( 'NONE', *, *, #316, .T. ) ;
#199 = APPROVAL ( #165, 'NEURÈENÝ' ) ;
#200 = DIRECTION ( 'NONE',  ( -0.000000000000000000, -0.000000000000000000, -1.000000000000000000 ) ) ;
#201 = APPROVAL_DATE_TIME ( #50, #199 ) ;
#202 = ORIENTED_EDGE ( 'NONE', *, *, #129, .T. ) ;
#203 = MANIFOLD_SOLID_BREP ( 'Odebrat vysunutím3', #39 ) ;
#204 = DIRECTION ( 'NONE',  ( 0.000000000000000000, 0.000000000000000000, 1.000000000000000000 ) ) ;
#205 = CARTESIAN_POINT ( 'NONE',  ( -10.00000000000000000, 0.000000000000000000, 7.000000000000000000 ) ) ;
#206 = AXIS2_PLACEMENT_3D ( 'NONE', #21, #204, #25 ) ;
#207 = CARTESIAN_POINT ( 'NONE',  ( 0.000000000000000000, 0.000000000000000000, 7.000000000000000000 ) ) ;
#208 =( NAMED_UNIT ( * ) SI_UNIT ( $, .STERADIAN. ) SOLID_ANGLE_UNIT ( ) );
#209 = ORIENTED_EDGE ( 'NONE', *, *, #185, .T. ) ;
#210 = DIRECTION ( 'NONE',  ( -0.000000000000000000, -0.000000000000000000, -1.000000000000000000 ) ) ;
#211 = DATE_AND_TIME ( #240, #9 ) ;
#212 = CARTESIAN_POINT ( 'NONE',  ( 0.000000000000000000, 0.000000000000000000, 7.000000000000000000 ) ) ;
#213 = PERSON_AND_ORGANIZATION ( #131, #277 ) ;
#214 = ADVANCED_FACE ( 'NONE', ( #120 ), #288, .F. ) ;
#215 = DIRECTION ( 'NONE',  ( 0.000000000000000000, 0.000000000000000000, 1.000000000000000000 ) ) ;
#216 = PERSON_AND_ORGANIZATION_ROLE ( 'creator' ) ;
#217 = CARTESIAN_POINT ( 'NONE',  ( 0.000000000000000000, 0.000000000000000000, 657.0000000000000000 ) ) ;
#218 = AXIS2_PLACEMENT_3D ( 'NONE', #236, #184, #296 ) ;
#219 = EDGE_CURVE ( 'NONE', #141, #51, #104, .T. ) ;
#220 = EDGE_LOOP ( 'NONE', ( #76, #342, #94, #48 ) ) ;
#221 = ORIENTED_EDGE ( 'NONE', *, *, #7, .T. ) ;
#222 = PLANE ( 'NONE',  #262 ) ;
#223 = PERSON_AND_ORGANIZATION ( #131, #277 ) ;
#224 = EDGE_LOOP ( 'NONE', ( #307, #107, #368, #366 ) ) ;
#225 = VECTOR ( 'NONE', #312, 1000.000000000000000 ) ;
#226 = DIRECTION ( 'NONE',  ( -1.000000000000000000, 0.000000000000000000, 0.000000000000000000 ) ) ;
#227 =( LENGTH_UNIT ( ) NAMED_UNIT ( * ) SI_UNIT ( .MILLI., .METRE. ) );
#228 = ORIENTED_EDGE ( 'NONE', *, *, #168, .T. ) ;
#229 = CARTESIAN_POINT ( 'NONE',  ( 0.000000000000000000, 0.000000000000000000, 7.499999999999951150 ) ) ;
#230 = EDGE_LOOP ( 'NONE', ( #228, #163, #160, #351 ) ) ;
#231 = CARTESIAN_POINT ( 'NONE',  ( 10.00000000000000000, 1.224646799147353256E-15, 7.000000000000000000 ) ) ;
#232 = AXIS2_PLACEMENT_3D ( 'NONE', #65, #329, #151 ) ;
#233 = CARTESIAN_POINT ( 'NONE',  ( -6.000000000000000888, 0.000000000000000000, 657.0000000000000000 ) ) ;
#234 = CARTESIAN_POINT ( 'NONE',  ( 0.000000000000000000, 0.000000000000000000, 657.0000000000000000 ) ) ;
#235 = DIRECTION ( 'NONE',  ( -0.000000000000000000, -0.000000000000000000, -1.000000000000000000 ) ) ;
#236 = CARTESIAN_POINT ( 'NONE',  ( 0.000000000000000000, 0.000000000000000000, 0.000000000000000000 ) ) ;
#237 = APPROVAL_STATUS ( 'not_yet_approved' ) ;
#238 = AXIS2_PLACEMENT_3D ( 'NONE', #289, #350, #116 ) ;
#239 = DIRECTION ( 'NONE',  ( 0.000000000000000000, 0.000000000000000000, -1.000000000000000000 ) ) ;
#240 = CALENDAR_DATE ( 2022, 8, 7 ) ;
#241 = ADVANCED_FACE ( 'NONE', ( #315 ), #259, .T. ) ;
#242 = EDGE_CURVE ( 'NONE', #377, #51, #321, .T. ) ;
#243 = EDGE_CURVE ( 'NONE', #373, #141, #23, .T. ) ;
#244 = CIRCLE ( 'NONE', #171, 0.5000000000000004441 ) ;
#245 = ORIENTED_EDGE ( 'NONE', *, *, #189, .T. ) ;
#246 = AXIS2_PLACEMENT_3D ( 'NONE', #90, #306, #44 ) ;
#247 = DIRECTION ( 'NONE',  ( -0.000000000000000000, -0.000000000000000000, -1.000000000000000000 ) ) ;
#248 = VERTEX_POINT ( 'NONE', #280 ) ;
#249 = CARTESIAN_POINT ( 'NONE',  ( 0.000000000000000000, 0.000000000000000000, 7.000000000000000000 ) ) ;
#250 = EDGE_CURVE ( 'NONE', #51, #141, #255, .T. ) ;
#251 = PERSON_AND_ORGANIZATION ( #131, #277 ) ;
#252 = ORIENTED_EDGE ( 'NONE', *, *, #168, .F. ) ;
#253 = CARTESIAN_POINT ( 'NONE',  ( 0.000000000000000000, 0.000000000000000000, 657.0000000000000000 ) ) ;
#254 = ORIENTED_EDGE ( 'NONE', *, *, #301, .T. ) ;
#255 = CIRCLE ( 'NONE', #320, 6.000000000000000888 ) ;
#256 = CARTESIAN_POINT ( 'NONE',  ( 0.000000000000000000, 0.000000000000000000, 657.0000000000000000 ) ) ;
#257 = DIRECTION ( 'NONE',  ( 0.000000000000000000, 0.000000000000000000, -1.000000000000000000 ) ) ;
#258 = EDGE_LOOP ( 'NONE', ( #252, #364 ) ) ;
#259 = CYLINDRICAL_SURFACE ( 'NONE', #275, 6.000000000000000888 ) ;
#260 = CARTESIAN_POINT ( 'NONE',  ( 0.000000000000000000, 0.000000000000000000, 7.499999999999951150 ) ) ;
#261 = CARTESIAN_POINT ( 'NONE',  ( 6.500000000000000888, 0.000000000000000000, 7.499999999999951150 ) ) ;
#262 = AXIS2_PLACEMENT_3D ( 'NONE', #119, #292, #88 ) ;
#263 = FACE_OUTER_BOUND ( 'NONE', #279, .T. ) ;
#264 = ADVANCED_FACE ( 'NONE', ( #375, #309 ), #222, .F. ) ;
#265 = DIRECTION ( 'NONE',  ( 1.000000000000000000, 0.000000000000000000, 0.000000000000000000 ) ) ;
#266 = EDGE_CURVE ( 'NONE', #84, #136, #89, .T. ) ;
#267 = ADVANCED_BREP_SHAPE_REPRESENTATION ( '37f6', ( #203, #246 ), #71 ) ;
#268 = LINE ( 'NONE', #332, #360 ) ;
#269 = CYLINDRICAL_SURFACE ( 'NONE', #341, 3.250000000000000444 ) ;
#270 = DATE_AND_TIME ( #95, #271 ) ;
#271 = LOCAL_TIME ( 16, 40, 48.00000000000000000, #67 ) ;
#272 = AXIS2_PLACEMENT_3D ( 'NONE', #217, #68, #353 ) ;
#273 = CC_DESIGN_APPROVAL ( #73, ( #29 ) ) ;
#274 = ORIENTED_EDGE ( 'NONE', *, *, #250, .F. ) ;
#275 = AXIS2_PLACEMENT_3D ( 'NONE', #378, #143, #226 ) ;
#276 = ORIENTED_EDGE ( 'NONE', *, *, #335, .F. ) ;
#277 = ORGANIZATION ( 'NEURÈENÝ', 'NEURÈENÝ', '' ) ;
#278 = PERSON_AND_ORGANIZATION ( #131, #277 ) ;
#279 = EDGE_LOOP ( 'NONE', ( #209, #245 ) ) ;
#280 = CARTESIAN_POINT ( 'NONE',  ( 6.500000000000000888, 0.000000000000000000, 6.999999999999975131 ) ) ;
#281 = DIRECTION ( 'NONE',  ( 1.000000000000000000, 0.000000000000000000, 0.000000000000000000 ) ) ;
#282 = EDGE_LOOP ( 'NONE', ( #276, #274, #42, #345 ) ) ;
#283 = DIRECTION ( 'NONE',  ( 0.000000000000000000, -1.000000000000000000, 0.000000000000000000 ) ) ;
#284 = ADVANCED_FACE ( 'NONE', ( #60 ), #190, .F. ) ;
#285 = MECHANICAL_CONTEXT ( 'NONE', #158, 'mechanical' ) ;
#286 = VERTEX_POINT ( 'NONE', #196 ) ;
#287 = VECTOR ( 'NONE', #359, 1000.000000000000000 ) ;
#288 = CYLINDRICAL_SURFACE ( 'NONE', #303, 3.250000000000000444 ) ;
#289 = CARTESIAN_POINT ( 'NONE',  ( -6.500000000000000888, 7.960204194457796463E-16, 7.499999999999951150 ) ) ;
#290 = CC_DESIGN_DATE_AND_TIME_ASSIGNMENT ( #26, #357, ( #64 ) ) ;
#291 = CARTESIAN_POINT ( 'NONE',  ( -6.000000000000000888, 0.000000000000000000, 7.499999999999951150 ) ) ;
#292 = DIRECTION ( 'NONE',  ( 0.000000000000000000, 0.000000000000000000, 1.000000000000000000 ) ) ;
#293 = CIRCLE ( 'NONE', #13, 6.500000000000000888 ) ;
#294 = ADVANCED_FACE ( 'NONE', ( #139 ), #49, .T. ) ;
#295 = FACE_OUTER_BOUND ( 'NONE', #87, .T. ) ;
#296 = DIRECTION ( 'NONE',  ( 1.000000000000000000, 0.000000000000000000, 0.000000000000000000 ) ) ;
#297 = LINE ( 'NONE', #123, #54 ) ;
#298 = DATE_AND_TIME ( #33, #14 ) ;
#299 = AXIS2_PLACEMENT_3D ( 'NONE', #115, #85, #174 ) ;
#300 = CC_DESIGN_APPROVAL ( #199, ( #64 ) ) ;
#301 = EDGE_CURVE ( 'NONE', #12, #318, #355, .T. ) ;
#302 = CC_DESIGN_PERSON_AND_ORGANIZATION_ASSIGNMENT ( #213, #150, ( #173 ) ) ;
#303 = AXIS2_PLACEMENT_3D ( 'NONE', #256, #79, #108 ) ;
#304 = ORIENTED_EDGE ( 'NONE', *, *, #266, .T. ) ;
#305 = ORIENTED_EDGE ( 'NONE', *, *, #69, .F. ) ;
#306 = DIRECTION ( 'NONE',  ( 0.000000000000000000, 0.000000000000000000, 1.000000000000000000 ) ) ;
#307 = ORIENTED_EDGE ( 'NONE', *, *, #129, .F. ) ;
#308 = CC_DESIGN_APPROVAL ( #132, ( #173 ) ) ;
#309 = FACE_OUTER_BOUND ( 'NONE', #20, .T. ) ;
#310 = LINE ( 'NONE', #86, #70 ) ;
#311 = EDGE_LOOP ( 'NONE', ( #192, #254, #198, #194 ) ) ;
#312 = DIRECTION ( 'NONE',  ( -0.000000000000000000, -0.000000000000000000, -1.000000000000000000 ) ) ;
#313 = CARTESIAN_POINT ( 'NONE',  ( -3.250000000000000444, 0.000000000000000000, 657.0000000000000000 ) ) ;
#314 = ORIENTED_EDGE ( 'NONE', *, *, #266, .F. ) ;
#315 = FACE_OUTER_BOUND ( 'NONE', #166, .T. ) ;
#316 = EDGE_CURVE ( 'NONE', #318, #286, #310, .T. ) ;
#317 = CARTESIAN_POINT ( 'NONE',  ( 0.000000000000000000, 0.000000000000000000, 7.000000000000000000 ) ) ;
#318 = VERTEX_POINT ( 'NONE', #313 ) ;
#319 = AXIS2_PLACEMENT_3D ( 'NONE', #253, #369, #167 ) ;
#320 = AXIS2_PLACEMENT_3D ( 'NONE', #175, #367, #352 ) ;
#321 = LINE ( 'NONE', #82, #134 ) ;
#322 = EDGE_LOOP ( 'NONE', ( #113, #59 ) ) ;
#323 = DIRECTION ( 'NONE',  ( 0.000000000000000000, 0.000000000000000000, 1.000000000000000000 ) ) ;
#324 = LINE ( 'NONE', #125, #287 ) ;
#325 = PERSON_AND_ORGANIZATION ( #131, #277 ) ;
#326 = CIRCLE ( 'NONE', #187, 3.250000000000000444 ) ;
#327 = PLANE ( 'NONE',  #232 ) ;
#328 = PERSON_AND_ORGANIZATION ( #131, #277 ) ;
#329 = DIRECTION ( 'NONE',  ( 0.000000000000000000, 0.000000000000000000, 1.000000000000000000 ) ) ;
#330 = EDGE_CURVE ( 'NONE', #286, #338, #156, .T. ) ;
#331 = DATE_TIME_ROLE ( 'classification_date' ) ;
#332 = CARTESIAN_POINT ( 'NONE',  ( -10.00000000000000000, 0.000000000000000000, 7.000000000000000000 ) ) ;
#333 = SECURITY_CLASSIFICATION_LEVEL ( 'unclassified' ) ;
#334 = AXIS2_PLACEMENT_3D ( 'NONE', #317, #24, #281 ) ;
#335 = EDGE_CURVE ( 'NONE', #141, #110, #121, .T. ) ;
#336 = AXIS2_PLACEMENT_3D ( 'NONE', #212, #235, #354 ) ;
#337 = ORIENTED_EDGE ( 'NONE', *, *, #242, .F. ) ;
#338 = VERTEX_POINT ( 'NONE', #379 ) ;
#339 = DIRECTION ( 'NONE',  ( 1.000000000000000000, 0.000000000000000000, 0.000000000000000000 ) ) ;
#340 =( NAMED_UNIT ( * ) PLANE_ANGLE_UNIT ( ) SI_UNIT ( $, .RADIAN. ) );
#341 = AXIS2_PLACEMENT_3D ( 'NONE', #66, #239, #155 ) ;
#342 = ORIENTED_EDGE ( 'NONE', *, *, #335, .T. ) ;
#343 = DIRECTION ( 'NONE',  ( 0.000000000000000000, 0.000000000000000000, 1.000000000000000000 ) ) ;
#344 = PERSON_AND_ORGANIZATION_ROLE ( 'design_owner' ) ;
#345 = ORIENTED_EDGE ( 'NONE', *, *, #7, .F. ) ;
#346 = DIRECTION ( 'NONE',  ( 0.000000000000000000, 0.000000000000000000, 1.000000000000000000 ) ) ;
#347 = DIRECTION ( 'NONE',  ( 1.000000000000000000, 0.000000000000000000, 0.000000000000000000 ) ) ;
#348 = VERTEX_POINT ( 'NONE', #205 ) ;
#349 = CYLINDRICAL_SURFACE ( 'NONE', #181, 10.00000000000000000 ) ;
#350 = DIRECTION ( 'NONE',  ( 1.224646799147353207E-16, 1.000000000000000000, -0.000000000000000000 ) ) ;
#351 = ORIENTED_EDGE ( 'NONE', *, *, #316, .F. ) ;
#352 = DIRECTION ( 'NONE',  ( 1.000000000000000000, 0.000000000000000000, 0.000000000000000000 ) ) ;
#353 = DIRECTION ( 'NONE',  ( 1.000000000000000000, 0.000000000000000000, 0.000000000000000000 ) ) ;
#354 = DIRECTION ( 'NONE',  ( -1.000000000000000000, 0.000000000000000000, 0.000000000000000000 ) ) ;
#355 = CIRCLE ( 'NONE', #299, 3.250000000000000444 ) ;
#356 = FACE_BOUND ( 'NONE', #258, .T. ) ;
#357 = DATE_TIME_ROLE ( 'creation_date' ) ;
#358 = CC_DESIGN_PERSON_AND_ORGANIZATION_ASSIGNMENT ( #223, #80, ( #64 ) ) ;
#359 = DIRECTION ( 'NONE',  ( 0.000000000000000000, 0.000000000000000000, -1.000000000000000000 ) ) ;
#360 = VECTOR ( 'NONE', #210, 1000.000000000000000 ) ;
#361 = EDGE_CURVE ( 'NONE', #373, #377, #126, .T. ) ;
#362 = EDGE_CURVE ( 'NONE', #248, #110, #37, .T. ) ;
#363 = LOCAL_TIME ( 16, 40, 48.00000000000000000, #109 ) ;
#364 = ORIENTED_EDGE ( 'NONE', *, *, #301, .F. ) ;
#365 = DIRECTION ( 'NONE',  ( 0.000000000000000000, 0.000000000000000000, 1.000000000000000000 ) ) ;
#366 = ORIENTED_EDGE ( 'NONE', *, *, #243, .F. ) ;
#367 = DIRECTION ( 'NONE',  ( 0.000000000000000000, 0.000000000000000000, 1.000000000000000000 ) ) ;
#368 = ORIENTED_EDGE ( 'NONE', *, *, #250, .T. ) ;
#369 = DIRECTION ( 'NONE',  ( -0.000000000000000000, -0.000000000000000000, -1.000000000000000000 ) ) ;
#370 = CARTESIAN_POINT ( 'NONE',  ( 0.000000000000000000, 0.000000000000000000, 0.000000000000000000 ) ) ;
#371 = AXIS2_PLACEMENT_3D ( 'NONE', #234, #215, #1 ) ;
#372 = CC_DESIGN_PERSON_AND_ORGANIZATION_ASSIGNMENT ( #278, #344, ( #38 ) ) ;
#373 = VERTEX_POINT ( 'NONE', #148 ) ;
#374 = APPROVAL_PERSON_ORGANIZATION ( #251, #199, #83 ) ;
#375 = FACE_BOUND ( 'NONE', #322, .T. ) ;
#376 = CALENDAR_DATE ( 2022, 8, 7 ) ;
#377 = VERTEX_POINT ( 'NONE', #106 ) ;
#378 = CARTESIAN_POINT ( 'NONE',  ( 0.000000000000000000, 0.000000000000000000, 657.0000000000000000 ) ) ;
#379 = CARTESIAN_POINT ( 'NONE',  ( 3.250000000000000444, 3.980102097228898231E-16, 0.000000000000000000 ) ) ;
#380 = ADVANCED_FACE ( 'NONE', ( #169 ), #162, .F. ) ;
#381 = DIRECTION ( 'NONE',  ( 0.000000000000000000, 0.000000000000000000, 1.000000000000000000 ) ) ;
ENDSEC;
END-ISO-10303-21;
