ISO-10303-21;
HEADER;
FILE_DESCRIPTION (( 'STEP AP203' ),
    '1' );
FILE_NAME ('7f22.STEP',
    '2022-07-08T15:24:35',
    ( '' ),
    ( '' ),
    'SwSTEP 2.0',
    'SolidWorks 2019',
    '' );
FILE_SCHEMA (( 'CONFIG_CONTROL_DESIGN' ));
ENDSEC;

DATA;
#1 = CIRCLE ( 'NONE', #217, 4.000000000000000000 ) ;
#2 = EDGE_CURVE ( 'NONE', #7, #122, #155, .T. ) ;
#3 = PLANE ( 'NONE',  #250 ) ;
#4 = MANIFOLD_SOLID_BREP ( 'Odebrat vysunutím3', #314 ) ;
#5 = PERSON_AND_ORGANIZATION_ROLE ( 'design_supplier' ) ;
#6 = APPROVAL ( #246, 'NEURÈENÝ' ) ;
#7 = VERTEX_POINT ( 'NONE', #58 ) ;
#8 = FACE_BOUND ( 'NONE', #357, .T. ) ;
#9 = AXIS2_PLACEMENT_3D ( 'NONE', #238, #361, #360 ) ;
#10 = AXIS2_PLACEMENT_3D ( 'NONE', #166, #255, #80 ) ;
#11 = PERSON_AND_ORGANIZATION ( #373, #16 ) ;
#12 = ORIENTED_EDGE ( 'NONE', *, *, #346, .T. ) ;
#13 = ADVANCED_FACE ( 'NONE', ( #185, #40 ), #3, .F. ) ;
#14 = ORIENTED_EDGE ( 'NONE', *, *, #353, .T. ) ;
#15 = DIRECTION ( 'NONE',  ( -0.000000000000000000, -0.000000000000000000, -1.000000000000000000 ) ) ;
#16 = ORGANIZATION ( 'NEURÈENÝ', 'NEURÈENÝ', '' ) ;
#17 = CARTESIAN_POINT ( 'NONE',  ( 7.000000000000000000, 8.572527594031473190E-16, 5.000000000000000000 ) ) ;
#18 = DIRECTION ( 'NONE',  ( 1.000000000000000000, 0.000000000000000000, 0.000000000000000000 ) ) ;
#19 = DIRECTION ( 'NONE',  ( -0.000000000000000000, -0.000000000000000000, -1.000000000000000000 ) ) ;
#20 = CARTESIAN_POINT ( 'NONE',  ( 0.000000000000000000, 0.000000000000000000, 0.000000000000000000 ) ) ;
#21 = AXIS2_PLACEMENT_3D ( 'NONE', #24, #258, #198 ) ;
#22 = EDGE_CURVE ( 'NONE', #379, #317, #169, .T. ) ;
#23 = PRODUCT ( '7f22', '7f22', '', ( #300 ) ) ;
#24 = CARTESIAN_POINT ( 'NONE',  ( 0.000000000000000000, 0.000000000000000000, 5.000000000000000000 ) ) ;
#25 = DIRECTION ( 'NONE',  ( 0.000000000000000000, 0.000000000000000000, 1.000000000000000000 ) ) ;
#26 = ORIENTED_EDGE ( 'NONE', *, *, #101, .F. ) ;
#27 = PERSON_AND_ORGANIZATION ( #373, #16 ) ;
#28 = DIRECTION ( 'NONE',  ( 1.000000000000000000, 0.000000000000000000, 0.000000000000000000 ) ) ;
#29 = VECTOR ( 'NONE', #131, 1000.000000000000000 ) ;
#30 = LOCAL_TIME ( 17, 24, 35.00000000000000000, #201 ) ;
#31 = CARTESIAN_POINT ( 'NONE',  ( 0.000000000000000000, 0.000000000000000000, 0.000000000000000000 ) ) ;
#32 = ADVANCED_FACE ( 'NONE', ( #8, #123 ), #182, .T. ) ;
#33 = EDGE_LOOP ( 'NONE', ( #14, #63 ) ) ;
#34 = AXIS2_PLACEMENT_3D ( 'NONE', #106, #78, #228 ) ;
#35 = DIRECTION ( 'NONE',  ( 1.000000000000000000, 0.000000000000000000, -0.000000000000000000 ) ) ;
#36 = CARTESIAN_POINT ( 'NONE',  ( 0.000000000000000000, 0.000000000000000000, 0.000000000000000000 ) ) ;
#37 = DIRECTION ( 'NONE',  ( 0.000000000000000000, 0.000000000000000000, 1.000000000000000000 ) ) ;
#38 = VECTOR ( 'NONE', #260, 1000.000000000000000 ) ;
#39 = DIRECTION ( 'NONE',  ( 0.000000000000000000, 0.000000000000000000, -1.000000000000000000 ) ) ;
#40 = FACE_OUTER_BOUND ( 'NONE', #243, .T. ) ;
#41 = CYLINDRICAL_SURFACE ( 'NONE', #285, 7.000000000000000000 ) ;
#42 = CIRCLE ( 'NONE', #333, 7.000000000000000000 ) ;
#43 = CARTESIAN_POINT ( 'NONE',  ( 2.250000000000000000, 2.755455298081544285E-16, 155.0000000000000000 ) ) ;
#44 = CARTESIAN_POINT ( 'NONE',  ( 7.000000000000000000, 8.572527594031473190E-16, 5.000000000000000000 ) ) ;
#45 = APPLICATION_CONTEXT ( 'configuration controlled 3d designs of mechanical parts and assemblies' ) ;
#46 = CARTESIAN_POINT ( 'NONE',  ( 0.000000000000000000, 0.000000000000000000, 5.000000000000000000 ) ) ;
#47 = ADVANCED_FACE ( 'NONE', ( #206 ), #358, .F. ) ;
#48 = CARTESIAN_POINT ( 'NONE',  ( 0.000000000000000000, 0.000000000000000000, 5.500000000000005329 ) ) ;
#49 =( GEOMETRIC_REPRESENTATION_CONTEXT ( 3 ) GLOBAL_UNCERTAINTY_ASSIGNED_CONTEXT ( ( #273 ) ) GLOBAL_UNIT_ASSIGNED_CONTEXT ( ( #114, #242, #64 ) ) REPRESENTATION_CONTEXT ( 'NONE', 'WORKASPACE' ) );
#50 = CC_DESIGN_PERSON_AND_ORGANIZATION_ASSIGNMENT ( #328, #59, ( #118 ) ) ;
#51 = CARTESIAN_POINT ( 'NONE',  ( -2.250000000000000000, 0.000000000000000000, 155.0000000000000000 ) ) ;
#52 = EDGE_CURVE ( 'NONE', #204, #268, #343, .T. ) ;
#53 = CARTESIAN_POINT ( 'NONE',  ( 4.500000000000000888, 0.000000000000000000, 5.000000000000002665 ) ) ;
#54 = ORIENTED_EDGE ( 'NONE', *, *, #101, .T. ) ;
#55 = DIRECTION ( 'NONE',  ( 1.000000000000000000, 0.000000000000000000, 0.000000000000000000 ) ) ;
#56 = VERTEX_POINT ( 'NONE', #270 ) ;
#57 = APPROVAL_STATUS ( 'not_yet_approved' ) ;
#58 = CARTESIAN_POINT ( 'NONE',  ( -7.000000000000000000, 0.000000000000000000, 5.000000000000000000 ) ) ;
#59 = PERSON_AND_ORGANIZATION_ROLE ( 'creator' ) ;
#60 = ORIENTED_EDGE ( 'NONE', *, *, #188, .T. ) ;
#61 = EDGE_CURVE ( 'NONE', #115, #7, #147, .T. ) ;
#62 = APPROVAL_DATE_TIME ( #172, #203 ) ;
#63 = ORIENTED_EDGE ( 'NONE', *, *, #61, .T. ) ;
#64 =( NAMED_UNIT ( * ) SI_UNIT ( $, .STERADIAN. ) SOLID_ANGLE_UNIT ( ) );
#65 = ORIENTED_EDGE ( 'NONE', *, *, #22, .F. ) ;
#66 = CIRCLE ( 'NONE', #138, 4.500000000000000888 ) ;
#67 = DATE_TIME_ROLE ( 'classification_date' ) ;
#68 = ORIENTED_EDGE ( 'NONE', *, *, #309, .F. ) ;
#69 = ADVANCED_FACE ( 'NONE', ( #272 ), #159, .T. ) ;
#70 = DIRECTION ( 'NONE',  ( 0.000000000000000000, 0.000000000000000000, 1.000000000000000000 ) ) ;
#71 = LINE ( 'NONE', #307, #29 ) ;
#72 = CIRCLE ( 'NONE', #216, 2.250000000000000000 ) ;
#73 = AXIS2_PLACEMENT_3D ( 'NONE', #281, #144, #289 ) ;
#74 = LINE ( 'NONE', #43, #117 ) ;
#75 = AXIS2_PLACEMENT_3D ( 'NONE', #46, #161, #214 ) ;
#76 = CARTESIAN_POINT ( 'NONE',  ( 4.000000000000000000, 4.898587196589412829E-16, 155.0000000000000000 ) ) ;
#77 = CARTESIAN_POINT ( 'NONE',  ( 0.000000000000000000, 0.000000000000000000, 5.000000000000000000 ) ) ;
#78 = DIRECTION ( 'NONE',  ( 0.000000000000000000, 0.000000000000000000, -1.000000000000000000 ) ) ;
#79 = AXIS2_PLACEMENT_3D ( 'NONE', #94, #294, #119 ) ;
#80 = DIRECTION ( 'NONE',  ( 1.000000000000000000, 0.000000000000000000, 0.000000000000000000 ) ) ;
#81 = CC_DESIGN_DATE_AND_TIME_ASSIGNMENT ( #254, #67, ( #223 ) ) ;
#82 = DIRECTION ( 'NONE',  ( 1.000000000000000000, 0.000000000000000000, 0.000000000000000000 ) ) ;
#83 = ORIENTED_EDGE ( 'NONE', *, *, #239, .T. ) ;
#84 = CARTESIAN_POINT ( 'NONE',  ( -2.250000000000000000, 0.000000000000000000, 155.0000000000000000 ) ) ;
#85 = VERTEX_POINT ( 'NONE', #247 ) ;
#86 = VERTEX_POINT ( 'NONE', #76 ) ;
#87 = DATE_AND_TIME ( #163, #165 ) ;
#88 = CALENDAR_DATE ( 2022, 8, 7 ) ;
#89 = ORIENTED_EDGE ( 'NONE', *, *, #231, .T. ) ;
#90 = ORIENTED_EDGE ( 'NONE', *, *, #52, .F. ) ;
#91 = LOCAL_TIME ( 17, 24, 35.00000000000000000, #356 ) ;
#92 = PERSON_AND_ORGANIZATION_ROLE ( 'design_owner' ) ;
#93 = EDGE_LOOP ( 'NONE', ( #107, #54 ) ) ;
#94 = CARTESIAN_POINT ( 'NONE',  ( 0.000000000000000000, 0.000000000000000000, 0.000000000000000000 ) ) ;
#95 = ADVANCED_FACE ( 'NONE', ( #103 ), #105, .T. ) ;
#96 = CARTESIAN_POINT ( 'NONE',  ( -7.000000000000000000, 0.000000000000000000, 5.000000000000000000 ) ) ;
#97 = AXIS2_PLACEMENT_3D ( 'NONE', #224, #349, #381 ) ;
#98 = DIRECTION ( 'NONE',  ( 1.000000000000000000, 0.000000000000000000, 0.000000000000000000 ) ) ;
#99 = CARTESIAN_POINT ( 'NONE',  ( 7.000000000000000000, 8.572527594031473190E-16, 0.000000000000000000 ) ) ;
#100 = CARTESIAN_POINT ( 'NONE',  ( 4.000000000000000000, 4.898587196589412829E-16, 155.0000000000000000 ) ) ;
#101 = EDGE_CURVE ( 'NONE', #86, #261, #267, .T. ) ;
#102 = APPROVAL_PERSON_ORGANIZATION ( #362, #338, #324 ) ;
#103 = FACE_OUTER_BOUND ( 'NONE', #125, .T. ) ;
#104 = EDGE_CURVE ( 'NONE', #115, #196, #367, .T. ) ;
#105 = CYLINDRICAL_SURFACE ( 'NONE', #75, 7.000000000000000000 ) ;
#106 = CARTESIAN_POINT ( 'NONE',  ( 0.000000000000000000, 0.000000000000000000, 155.0000000000000000 ) ) ;
#107 = ORIENTED_EDGE ( 'NONE', *, *, #323, .T. ) ;
#108 = CIRCLE ( 'NONE', #301, 4.500000000000000888 ) ;
#109 = CARTESIAN_POINT ( 'NONE',  ( -2.250000000000000000, 0.000000000000000000, 0.000000000000000000 ) ) ;
#110 = CIRCLE ( 'NONE', #302, 7.000000000000000000 ) ;
#111 = ORIENTED_EDGE ( 'NONE', *, *, #2, .T. ) ;
#112 = CYLINDRICAL_SURFACE ( 'NONE', #175, 2.250000000000000000 ) ;
#113 = EDGE_LOOP ( 'NONE', ( #222, #60 ) ) ;
#114 =( LENGTH_UNIT ( ) NAMED_UNIT ( * ) SI_UNIT ( .MILLI., .METRE. ) );
#115 = VERTEX_POINT ( 'NONE', #17 ) ;
#116 = EDGE_CURVE ( 'NONE', #268, #85, #108, .T. ) ;
#117 = VECTOR ( 'NONE', #128, 1000.000000000000000 ) ;
#118 = PRODUCT_DEFINITION ( 'NEZNÁMÝ', '', #348, #365 ) ;
#119 = DIRECTION ( 'NONE',  ( 1.000000000000000000, 0.000000000000000000, 0.000000000000000000 ) ) ;
#120 = ORIENTED_EDGE ( 'NONE', *, *, #116, .F. ) ;
#121 = SECURITY_CLASSIFICATION_LEVEL ( 'unclassified' ) ;
#122 = VERTEX_POINT ( 'NONE', #274 ) ;
#123 = FACE_OUTER_BOUND ( 'NONE', #93, .T. ) ;
#124 = VECTOR ( 'NONE', #219, 1000.000000000000000 ) ;
#125 = EDGE_LOOP ( 'NONE', ( #332, #259, #297, #173 ) ) ;
#126 = ORIENTED_EDGE ( 'NONE', *, *, #143, .T. ) ;
#127 = EDGE_CURVE ( 'NONE', #317, #379, #190, .T. ) ;
#128 = DIRECTION ( 'NONE',  ( 0.000000000000000000, 0.000000000000000000, -1.000000000000000000 ) ) ;
#129 = CIRCLE ( 'NONE', #73, 0.5000000000000004441 ) ;
#130 = DIRECTION ( 'NONE',  ( 1.000000000000000000, 0.000000000000000000, 0.000000000000000000 ) ) ;
#131 = DIRECTION ( 'NONE',  ( -0.000000000000000000, -0.000000000000000000, -1.000000000000000000 ) ) ;
#132 = ADVANCED_FACE ( 'NONE', ( #218 ), #370, .T. ) ;
#133 = DIRECTION ( 'NONE',  ( 0.000000000000000000, 0.000000000000000000, 1.000000000000000000 ) ) ;
#134 = DIRECTION ( 'NONE',  ( 0.000000000000000000, 0.000000000000000000, 1.000000000000000000 ) ) ;
#135 = ADVANCED_BREP_SHAPE_REPRESENTATION ( '7f22', ( #4, #79 ), #49 ) ;
#136 = CALENDAR_DATE ( 2022, 8, 7 ) ;
#137 = FACE_OUTER_BOUND ( 'NONE', #210, .T. ) ;
#138 = AXIS2_PLACEMENT_3D ( 'NONE', #337, #157, #130 ) ;
#139 = DIRECTION ( 'NONE',  ( 0.000000000000000000, 0.000000000000000000, 1.000000000000000000 ) ) ;
#140 = SHAPE_DEFINITION_REPRESENTATION ( #288, #135 ) ;
#141 = DIRECTION ( 'NONE',  ( 0.000000000000000000, 0.000000000000000000, 1.000000000000000000 ) ) ;
#142 = ORIENTED_EDGE ( 'NONE', *, *, #188, .F. ) ;
#143 = EDGE_CURVE ( 'NONE', #149, #317, #74, .T. ) ;
#144 = DIRECTION ( 'NONE',  ( 1.224646799147353207E-16, 1.000000000000000000, -0.000000000000000000 ) ) ;
#145 = ORIENTED_EDGE ( 'NONE', *, *, #239, .F. ) ;
#146 = CALENDAR_DATE ( 2022, 8, 7 ) ;
#147 = CIRCLE ( 'NONE', #359, 7.000000000000000000 ) ;
#148 = EDGE_LOOP ( 'NONE', ( #83, #126, #320, #68 ) ) ;
#149 = VERTEX_POINT ( 'NONE', #252 ) ;
#150 = DIRECTION ( 'NONE',  ( -0.000000000000000000, -0.000000000000000000, -1.000000000000000000 ) ) ;
#151 = EDGE_LOOP ( 'NONE', ( #282, #304, #111, #350 ) ) ;
#152 = AXIS2_PLACEMENT_3D ( 'NONE', #306, #187, #279 ) ;
#153 = LOCAL_TIME ( 17, 24, 35.00000000000000000, #209 ) ;
#154 = APPROVAL_STATUS ( 'not_yet_approved' ) ;
#155 = LINE ( 'NONE', #96, #275 ) ;
#156 = DIRECTION ( 'NONE',  ( 1.000000000000000000, 0.000000000000000000, 0.000000000000000000 ) ) ;
#157 = DIRECTION ( 'NONE',  ( -0.000000000000000000, -0.000000000000000000, -1.000000000000000000 ) ) ;
#158 = CC_DESIGN_SECURITY_CLASSIFICATION ( #223, ( #348 ) ) ;
#159 = CYLINDRICAL_SURFACE ( 'NONE', #184, 4.000000000000000000 ) ;
#160 = CARTESIAN_POINT ( 'NONE',  ( 4.000000000000000000, 4.898587196589412829E-16, 5.500000000000005329 ) ) ;
#161 = DIRECTION ( 'NONE',  ( -0.000000000000000000, -0.000000000000000000, -1.000000000000000000 ) ) ;
#162 = EDGE_CURVE ( 'NONE', #149, #334, #374, .T. ) ;
#163 = CALENDAR_DATE ( 2022, 8, 7 ) ;
#164 = AXIS2_PLACEMENT_3D ( 'NONE', #181, #37, #208 ) ;
#165 = LOCAL_TIME ( 17, 24, 35.00000000000000000, #312 ) ;
#166 = CARTESIAN_POINT ( 'NONE',  ( 0.000000000000000000, 0.000000000000000000, 0.000000000000000000 ) ) ;
#167 = LINE ( 'NONE', #84, #38 ) ;
#168 = ORIENTED_EDGE ( 'NONE', *, *, #335, .F. ) ;
#169 = CIRCLE ( 'NONE', #257, 2.250000000000000000 ) ;
#170 = FACE_OUTER_BOUND ( 'NONE', #148, .T. ) ;
#171 = CARTESIAN_POINT ( 'NONE',  ( -4.000000000000000000, 0.000000000000000000, 155.0000000000000000 ) ) ;
#172 = DATE_AND_TIME ( #264, #30 ) ;
#173 = ORIENTED_EDGE ( 'NONE', *, *, #2, .F. ) ;
#174 = PERSON_AND_ORGANIZATION_ROLE ( 'creator' ) ;
#175 = AXIS2_PLACEMENT_3D ( 'NONE', #319, #225, #351 ) ;
#176 = EDGE_LOOP ( 'NONE', ( #226, #12, #120, #90 ) ) ;
#177 = ADVANCED_FACE ( 'NONE', ( #193 ), #41, .T. ) ;
#178 = PERSON_AND_ORGANIZATION ( #373, #16 ) ;
#179 = ORIENTED_EDGE ( 'NONE', *, *, #183, .F. ) ;
#180 = PERSON_AND_ORGANIZATION ( #373, #16 ) ;
#181 = CARTESIAN_POINT ( 'NONE',  ( 0.000000000000000000, 0.000000000000000000, 5.500000000000005329 ) ) ;
#182 = PLANE ( 'NONE',  #9 ) ;
#183 = EDGE_CURVE ( 'NONE', #204, #56, #287, .T. ) ;
#184 = AXIS2_PLACEMENT_3D ( 'NONE', #310, #369, #276 ) ;
#185 = FACE_BOUND ( 'NONE', #263, .T. ) ;
#186 = CC_DESIGN_PERSON_AND_ORGANIZATION_ASSIGNMENT ( #11, #92, ( #23 ) ) ;
#187 = DIRECTION ( 'NONE',  ( 0.000000000000000000, 0.000000000000000000, 1.000000000000000000 ) ) ;
#188 = EDGE_CURVE ( 'NONE', #85, #268, #66, .T. ) ;
#189 = DIRECTION ( 'NONE',  ( -0.000000000000000000, -0.000000000000000000, -1.000000000000000000 ) ) ;
#190 = CIRCLE ( 'NONE', #211, 2.250000000000000000 ) ;
#191 = AXIS2_PLACEMENT_3D ( 'NONE', #331, #303, #39 ) ;
#192 = CARTESIAN_POINT ( 'NONE',  ( 0.000000000000000000, 0.000000000000000000, 155.0000000000000000 ) ) ;
#193 = FACE_OUTER_BOUND ( 'NONE', #151, .T. ) ;
#194 = DIRECTION ( 'NONE',  ( -0.000000000000000000, -0.000000000000000000, -1.000000000000000000 ) ) ;
#195 = CARTESIAN_POINT ( 'NONE',  ( 2.250000000000000000, 2.755455298081544285E-16, 0.000000000000000000 ) ) ;
#196 = VERTEX_POINT ( 'NONE', #99 ) ;
#197 = ORIENTED_EDGE ( 'NONE', *, *, #162, .T. ) ;
#198 = DIRECTION ( 'NONE',  ( 1.000000000000000000, 0.000000000000000000, -0.000000000000000000 ) ) ;
#199 = ORIENTED_EDGE ( 'NONE', *, *, #52, .T. ) ;
#200 = ORIENTED_EDGE ( 'NONE', *, *, #326, .F. ) ;
#201 = COORDINATED_UNIVERSAL_TIME_OFFSET ( 1, 0, .AHEAD. ) ;
#202 = DIRECTION ( 'NONE',  ( -0.000000000000000000, -0.000000000000000000, -1.000000000000000000 ) ) ;
#203 = APPROVAL ( #57, 'NEURÈENÝ' ) ;
#204 = VERTEX_POINT ( 'NONE', #160 ) ;
#205 = APPLICATION_PROTOCOL_DEFINITION ( 'international standard', 'config_control_design', 1994, #377 ) ;
#206 = FACE_OUTER_BOUND ( 'NONE', #176, .T. ) ;
#207 = EDGE_CURVE ( 'NONE', #261, #56, #71, .T. ) ;
#208 = DIRECTION ( 'NONE',  ( 1.000000000000000000, 0.000000000000000000, 0.000000000000000000 ) ) ;
#209 = COORDINATED_UNIVERSAL_TIME_OFFSET ( 1, 0, .AHEAD. ) ;
#210 = EDGE_LOOP ( 'NONE', ( #363, #179, #199, #142 ) ) ;
#211 = AXIS2_PLACEMENT_3D ( 'NONE', #20, #15, #248 ) ;
#212 = CIRCLE ( 'NONE', #97, 4.000000000000000000 ) ;
#213 = DIRECTION ( 'NONE',  ( 0.000000000000000000, 0.000000000000000000, 1.000000000000000000 ) ) ;
#214 = DIRECTION ( 'NONE',  ( -1.000000000000000000, 0.000000000000000000, 0.000000000000000000 ) ) ;
#215 = DIRECTION ( 'NONE',  ( -0.000000000000000000, -0.000000000000000000, -1.000000000000000000 ) ) ;
#216 = AXIS2_PLACEMENT_3D ( 'NONE', #192, #133, #249 ) ;
#217 = AXIS2_PLACEMENT_3D ( 'NONE', #316, #139, #55 ) ;
#218 = FACE_OUTER_BOUND ( 'NONE', #229, .T. ) ;
#219 = DIRECTION ( 'NONE',  ( -0.000000000000000000, -0.000000000000000000, -1.000000000000000000 ) ) ;
#220 = FACE_OUTER_BOUND ( 'NONE', #33, .T. ) ;
#221 = CC_DESIGN_PERSON_AND_ORGANIZATION_ASSIGNMENT ( #180, #5, ( #348 ) ) ;
#222 = ORIENTED_EDGE ( 'NONE', *, *, #116, .T. ) ;
#223 = SECURITY_CLASSIFICATION ( '', '', #121 ) ;
#224 = CARTESIAN_POINT ( 'NONE',  ( 0.000000000000000000, 0.000000000000000000, 5.500000000000005329 ) ) ;
#225 = DIRECTION ( 'NONE',  ( 0.000000000000000000, 0.000000000000000000, -1.000000000000000000 ) ) ;
#226 = ORIENTED_EDGE ( 'NONE', *, *, #380, .F. ) ;
#227 = CC_DESIGN_PERSON_AND_ORGANIZATION_ASSIGNMENT ( #290, #174, ( #348 ) ) ;
#228 = DIRECTION ( 'NONE',  ( -1.000000000000000000, 0.000000000000000000, 0.000000000000000000 ) ) ;
#229 = EDGE_LOOP ( 'NONE', ( #26, #89, #241, #256 ) ) ;
#230 = TOROIDAL_SURFACE ( 'NONE', #376, 4.500000000000000888, 0.5000000000000000000 ) ;
#231 = EDGE_CURVE ( 'NONE', #86, #204, #277, .T. ) ;
#232 = CC_DESIGN_APPROVAL ( #203, ( #348 ) ) ;
#233 = DATE_TIME_ROLE ( 'creation_date' ) ;
#234 = CARTESIAN_POINT ( 'NONE',  ( 0.000000000000000000, 0.000000000000000000, 0.000000000000000000 ) ) ;
#235 = PERSON_AND_ORGANIZATION ( #373, #16 ) ;
#236 = ORIENTED_EDGE ( 'NONE', *, *, #127, .F. ) ;
#237 = VECTOR ( 'NONE', #215, 1000.000000000000000 ) ;
#238 = CARTESIAN_POINT ( 'NONE',  ( 0.000000000000000000, 0.000000000000000000, 155.0000000000000000 ) ) ;
#239 = EDGE_CURVE ( 'NONE', #334, #149, #72, .T. ) ;
#240 = APPROVAL_DATE_TIME ( #262, #338 ) ;
#241 = ORIENTED_EDGE ( 'NONE', *, *, #183, .T. ) ;
#242 =( NAMED_UNIT ( * ) PLANE_ANGLE_UNIT ( ) SI_UNIT ( $, .RADIAN. ) );
#243 = EDGE_LOOP ( 'NONE', ( #200, #168 ) ) ;
#244 = CARTESIAN_POINT ( 'NONE',  ( 0.000000000000000000, 0.000000000000000000, 5.500000000000005329 ) ) ;
#245 = APPROVAL_PERSON_ORGANIZATION ( #27, #6, #366 ) ;
#246 = APPROVAL_STATUS ( 'not_yet_approved' ) ;
#247 = CARTESIAN_POINT ( 'NONE',  ( -4.500000000000000888, 5.510910596163088569E-16, 5.000000000000002665 ) ) ;
#248 = DIRECTION ( 'NONE',  ( 1.000000000000000000, 0.000000000000000000, 0.000000000000000000 ) ) ;
#249 = DIRECTION ( 'NONE',  ( 1.000000000000000000, 0.000000000000000000, 0.000000000000000000 ) ) ;
#250 = AXIS2_PLACEMENT_3D ( 'NONE', #234, #355, #35 ) ;
#251 = ADVANCED_FACE ( 'NONE', ( #344, #220 ), #322, .T. ) ;
#252 = CARTESIAN_POINT ( 'NONE',  ( 2.250000000000000000, 2.755455298081544285E-16, 155.0000000000000000 ) ) ;
#253 = FACE_OUTER_BOUND ( 'NONE', #284, .T. ) ;
#254 = DATE_AND_TIME ( #136, #153 ) ;
#255 = DIRECTION ( 'NONE',  ( 0.000000000000000000, 0.000000000000000000, 1.000000000000000000 ) ) ;
#256 = ORIENTED_EDGE ( 'NONE', *, *, #207, .F. ) ;
#257 = AXIS2_PLACEMENT_3D ( 'NONE', #36, #150, #266 ) ;
#258 = DIRECTION ( 'NONE',  ( 0.000000000000000000, 0.000000000000000000, 1.000000000000000000 ) ) ;
#259 = ORIENTED_EDGE ( 'NONE', *, *, #104, .T. ) ;
#260 = DIRECTION ( 'NONE',  ( 0.000000000000000000, 0.000000000000000000, -1.000000000000000000 ) ) ;
#261 = VERTEX_POINT ( 'NONE', #171 ) ;
#262 = DATE_AND_TIME ( #88, #91 ) ;
#263 = EDGE_LOOP ( 'NONE', ( #65, #236 ) ) ;
#264 = CALENDAR_DATE ( 2022, 8, 7 ) ;
#265 = ORIENTED_EDGE ( 'NONE', *, *, #22, .T. ) ;
#266 = DIRECTION ( 'NONE',  ( 1.000000000000000000, 0.000000000000000000, 0.000000000000000000 ) ) ;
#267 = CIRCLE ( 'NONE', #152, 4.000000000000000000 ) ;
#268 = VERTEX_POINT ( 'NONE', #53 ) ;
#269 = DATE_AND_TIME ( #146, #315 ) ;
#270 = CARTESIAN_POINT ( 'NONE',  ( -4.000000000000000000, 0.000000000000000000, 5.500000000000005329 ) ) ;
#271 = ADVANCED_FACE ( 'NONE', ( #137 ), #230, .F. ) ;
#272 = FACE_OUTER_BOUND ( 'NONE', #352, .T. ) ;
#273 = UNCERTAINTY_MEASURE_WITH_UNIT (LENGTH_MEASURE( 1.000000000000000082E-05 ), #114, 'distance_accuracy_value', 'NONE');
#274 = CARTESIAN_POINT ( 'NONE',  ( -7.000000000000000000, 0.000000000000000000, 0.000000000000000000 ) ) ;
#275 = VECTOR ( 'NONE', #202, 1000.000000000000000 ) ;
#276 = DIRECTION ( 'NONE',  ( -1.000000000000000000, 0.000000000000000000, 0.000000000000000000 ) ) ;
#277 = LINE ( 'NONE', #100, #237 ) ;
#278 = ADVANCED_FACE ( 'NONE', ( #253 ), #112, .F. ) ;
#279 = DIRECTION ( 'NONE',  ( 1.000000000000000000, 0.000000000000000000, 0.000000000000000000 ) ) ;
#280 = ADVANCED_FACE ( 'NONE', ( #170 ), #371, .F. ) ;
#281 = CARTESIAN_POINT ( 'NONE',  ( -4.500000000000000888, 5.510910596163089556E-16, 5.500000000000005329 ) ) ;
#282 = ORIENTED_EDGE ( 'NONE', *, *, #104, .F. ) ;
#283 = CC_DESIGN_PERSON_AND_ORGANIZATION_ASSIGNMENT ( #235, #336, ( #223 ) ) ;
#284 = EDGE_LOOP ( 'NONE', ( #291, #197, #347, #265 ) ) ;
#285 = AXIS2_PLACEMENT_3D ( 'NONE', #339, #19, #313 ) ;
#286 = CIRCLE ( 'NONE', #10, 7.000000000000000000 ) ;
#287 = CIRCLE ( 'NONE', #308, 4.000000000000000000 ) ;
#288 = PRODUCT_DEFINITION_SHAPE ( 'NONE', 'NONE',  #118 ) ;
#289 = DIRECTION ( 'NONE',  ( -1.000000000000000000, 1.224646799147351482E-16, 0.000000000000000000 ) ) ;
#290 = PERSON_AND_ORGANIZATION ( #373, #16 ) ;
#291 = ORIENTED_EDGE ( 'NONE', *, *, #143, .F. ) ;
#292 = APPROVAL_DATE_TIME ( #87, #6 ) ;
#293 = CC_DESIGN_DATE_AND_TIME_ASSIGNMENT ( #269, #233, ( #118 ) ) ;
#294 = DIRECTION ( 'NONE',  ( 0.000000000000000000, 0.000000000000000000, 1.000000000000000000 ) ) ;
#295 = ORIENTED_EDGE ( 'NONE', *, *, #380, .T. ) ;
#296 = APPROVAL_ROLE ( '' ) ;
#297 = ORIENTED_EDGE ( 'NONE', *, *, #335, .T. ) ;
#298 = APPLICATION_PROTOCOL_DEFINITION ( 'international standard', 'config_control_design', 1994, #45 ) ;
#299 = ORIENTED_EDGE ( 'NONE', *, *, #207, .T. ) ;
#300 = MECHANICAL_CONTEXT ( 'NONE', #377, 'mechanical' ) ;
#301 = AXIS2_PLACEMENT_3D ( 'NONE', #77, #189, #340 ) ;
#302 = AXIS2_PLACEMENT_3D ( 'NONE', #31, #141, #28 ) ;
#303 = DIRECTION ( 'NONE',  ( 0.000000000000000000, -1.000000000000000000, 0.000000000000000000 ) ) ;
#304 = ORIENTED_EDGE ( 'NONE', *, *, #353, .F. ) ;
#305 = PRODUCT_RELATED_PRODUCT_CATEGORY ( 'detail', '', ( #23 ) ) ;
#306 = CARTESIAN_POINT ( 'NONE',  ( 0.000000000000000000, 0.000000000000000000, 155.0000000000000000 ) ) ;
#307 = CARTESIAN_POINT ( 'NONE',  ( -4.000000000000000000, 0.000000000000000000, 155.0000000000000000 ) ) ;
#308 = AXIS2_PLACEMENT_3D ( 'NONE', #244, #213, #98 ) ;
#309 = EDGE_CURVE ( 'NONE', #334, #379, #167, .T. ) ;
#310 = CARTESIAN_POINT ( 'NONE',  ( 0.000000000000000000, 0.000000000000000000, 155.0000000000000000 ) ) ;
#311 = CARTESIAN_POINT ( 'NONE',  ( 0.000000000000000000, 0.000000000000000000, 155.0000000000000000 ) ) ;
#312 = COORDINATED_UNIVERSAL_TIME_OFFSET ( 1, 0, .AHEAD. ) ;
#313 = DIRECTION ( 'NONE',  ( -1.000000000000000000, 0.000000000000000000, 0.000000000000000000 ) ) ;
#314 = CLOSED_SHELL ( 'NONE', ( #280, #47, #132, #95, #177, #251, #13, #69, #32, #271, #278 ) ) ;
#315 = LOCAL_TIME ( 17, 24, 35.00000000000000000, #330 ) ;
#316 = CARTESIAN_POINT ( 'NONE',  ( 0.000000000000000000, 0.000000000000000000, 155.0000000000000000 ) ) ;
#317 = VERTEX_POINT ( 'NONE', #195 ) ;
#318 = CARTESIAN_POINT ( 'NONE',  ( 0.000000000000000000, 0.000000000000000000, 5.000000000000000000 ) ) ;
#319 = CARTESIAN_POINT ( 'NONE',  ( 0.000000000000000000, 0.000000000000000000, 155.0000000000000000 ) ) ;
#320 = ORIENTED_EDGE ( 'NONE', *, *, #127, .T. ) ;
#321 = APPROVAL_PERSON_ORGANIZATION ( #178, #203, #296 ) ;
#322 = PLANE ( 'NONE',  #21 ) ;
#323 = EDGE_CURVE ( 'NONE', #261, #86, #1, .T. ) ;
#324 = APPROVAL_ROLE ( '' ) ;
#325 = ORIENTED_EDGE ( 'NONE', *, *, #231, .F. ) ;
#326 = EDGE_CURVE ( 'NONE', #122, #196, #110, .T. ) ;
#327 = CC_DESIGN_APPROVAL ( #6, ( #223 ) ) ;
#328 = PERSON_AND_ORGANIZATION ( #373, #16 ) ;
#329 = ORIENTED_EDGE ( 'NONE', *, *, #323, .F. ) ;
#330 = COORDINATED_UNIVERSAL_TIME_OFFSET ( 1, 0, .AHEAD. ) ;
#331 = CARTESIAN_POINT ( 'NONE',  ( 4.500000000000000888, 0.000000000000000000, 5.500000000000005329 ) ) ;
#332 = ORIENTED_EDGE ( 'NONE', *, *, #61, .F. ) ;
#333 = AXIS2_PLACEMENT_3D ( 'NONE', #318, #25, #372 ) ;
#334 = VERTEX_POINT ( 'NONE', #51 ) ;
#335 = EDGE_CURVE ( 'NONE', #196, #122, #286, .T. ) ;
#336 = PERSON_AND_ORGANIZATION_ROLE ( 'classification_officer' ) ;
#337 = CARTESIAN_POINT ( 'NONE',  ( 0.000000000000000000, 0.000000000000000000, 5.000000000000000000 ) ) ;
#338 = APPROVAL ( #154, 'NEURÈENÝ' ) ;
#339 = CARTESIAN_POINT ( 'NONE',  ( 0.000000000000000000, 0.000000000000000000, 5.000000000000000000 ) ) ;
#340 = DIRECTION ( 'NONE',  ( 1.000000000000000000, 0.000000000000000000, 0.000000000000000000 ) ) ;
#341 = AXIS2_PLACEMENT_3D ( 'NONE', #311, #134, #18 ) ;
#342 = CC_DESIGN_APPROVAL ( #338, ( #118 ) ) ;
#343 = CIRCLE ( 'NONE', #191, 0.5000000000000004441 ) ;
#344 = FACE_BOUND ( 'NONE', #113, .T. ) ;
#345 = CARTESIAN_POINT ( 'NONE',  ( 0.000000000000000000, 0.000000000000000000, 155.0000000000000000 ) ) ;
#346 = EDGE_CURVE ( 'NONE', #56, #85, #129, .T. ) ;
#347 = ORIENTED_EDGE ( 'NONE', *, *, #309, .T. ) ;
#348 = PRODUCT_DEFINITION_FORMATION_WITH_SPECIFIED_SOURCE ( 'LIBOVOLNÝ', '', #23, .NOT_KNOWN. ) ;
#349 = DIRECTION ( 'NONE',  ( 0.000000000000000000, 0.000000000000000000, 1.000000000000000000 ) ) ;
#350 = ORIENTED_EDGE ( 'NONE', *, *, #326, .T. ) ;
#351 = DIRECTION ( 'NONE',  ( -1.000000000000000000, 0.000000000000000000, 0.000000000000000000 ) ) ;
#352 = EDGE_LOOP ( 'NONE', ( #325, #329, #299, #295 ) ) ;
#353 = EDGE_CURVE ( 'NONE', #7, #115, #42, .T. ) ;
#354 = AXIS2_PLACEMENT_3D ( 'NONE', #345, #194, #368 ) ;
#355 = DIRECTION ( 'NONE',  ( 0.000000000000000000, 0.000000000000000000, 1.000000000000000000 ) ) ;
#356 = COORDINATED_UNIVERSAL_TIME_OFFSET ( 1, 0, .AHEAD. ) ;
#357 = EDGE_LOOP ( 'NONE', ( #145, #375 ) ) ;
#358 = TOROIDAL_SURFACE ( 'NONE', #164, 4.500000000000000888, 0.5000000000000000000 ) ;
#359 = AXIS2_PLACEMENT_3D ( 'NONE', #364, #70, #156 ) ;
#360 = DIRECTION ( 'NONE',  ( 1.000000000000000000, 0.000000000000000000, -0.000000000000000000 ) ) ;
#361 = DIRECTION ( 'NONE',  ( 0.000000000000000000, 0.000000000000000000, 1.000000000000000000 ) ) ;
#362 = PERSON_AND_ORGANIZATION ( #373, #16 ) ;
#363 = ORIENTED_EDGE ( 'NONE', *, *, #346, .F. ) ;
#364 = CARTESIAN_POINT ( 'NONE',  ( 0.000000000000000000, 0.000000000000000000, 5.000000000000000000 ) ) ;
#365 = DESIGN_CONTEXT ( 'detailed design', #45, 'design' ) ;
#366 = APPROVAL_ROLE ( '' ) ;
#367 = LINE ( 'NONE', #44, #124 ) ;
#368 = DIRECTION ( 'NONE',  ( -1.000000000000000000, 0.000000000000000000, 0.000000000000000000 ) ) ;
#369 = DIRECTION ( 'NONE',  ( -0.000000000000000000, -0.000000000000000000, -1.000000000000000000 ) ) ;
#370 = CYLINDRICAL_SURFACE ( 'NONE', #354, 4.000000000000000000 ) ;
#371 = CYLINDRICAL_SURFACE ( 'NONE', #34, 2.250000000000000000 ) ;
#372 = DIRECTION ( 'NONE',  ( 1.000000000000000000, 0.000000000000000000, 0.000000000000000000 ) ) ;
#373 = PERSON ( 'NEURÈENÝ', 'NEURÈENÝ', 'NEURÈENÝ', ('NEURÈENÝ'), ('NEURÈENÝ'), ('NEURÈENÝ') ) ;
#374 = CIRCLE ( 'NONE', #341, 2.250000000000000000 ) ;
#375 = ORIENTED_EDGE ( 'NONE', *, *, #162, .F. ) ;
#376 = AXIS2_PLACEMENT_3D ( 'NONE', #48, #378, #82 ) ;
#377 = APPLICATION_CONTEXT ( 'configuration controlled 3d designs of mechanical parts and assemblies' ) ;
#378 = DIRECTION ( 'NONE',  ( 0.000000000000000000, 0.000000000000000000, 1.000000000000000000 ) ) ;
#379 = VERTEX_POINT ( 'NONE', #109 ) ;
#380 = EDGE_CURVE ( 'NONE', #56, #204, #212, .T. ) ;
#381 = DIRECTION ( 'NONE',  ( 1.000000000000000000, 0.000000000000000000, 0.000000000000000000 ) ) ;
ENDSEC;
END-ISO-10303-21;
