ISO-10303-21;
HEADER;
FILE_DESCRIPTION (( 'STEP AP203' ),
    '1' );
FILE_NAME ('6cf3.STEP',
    '2022-07-08T15:34:53',
    ( '' ),
    ( '' ),
    'SwSTEP 2.0',
    'SolidWorks 2019',
    '' );
FILE_SCHEMA (( 'CONFIG_CONTROL_DESIGN' ));
ENDSEC;

DATA;
#1 = FACE_OUTER_BOUND ( 'NONE', #362, .T. ) ;
#2 = CIRCLE ( 'NONE', #327, 3.500000000000000444 ) ;
#3 = TOROIDAL_SURFACE ( 'NONE', #55, 3.500000000000000444, 0.5000000000000000000 ) ;
#4 = CARTESIAN_POINT ( 'NONE',  ( 0.000000000000000000, 0.000000000000000000, 355.0000000000000000 ) ) ;
#5 = SHAPE_DEFINITION_REPRESENTATION ( #228, #61 ) ;
#6 = DIRECTION ( 'NONE',  ( 0.000000000000000000, 0.000000000000000000, 1.000000000000000000 ) ) ;
#7 = ADVANCED_FACE ( 'NONE', ( #193 ), #308, .T. ) ;
#8 = DIRECTION ( 'NONE',  ( 0.000000000000000000, 0.000000000000000000, -1.000000000000000000 ) ) ;
#9 = PRODUCT_RELATED_PRODUCT_CATEGORY ( 'detail', '', ( #336 ) ) ;
#10 = LOCAL_TIME ( 17, 34, 53.00000000000000000, #80 ) ;
#11 = CYLINDRICAL_SURFACE ( 'NONE', #67, 6.000000000000000888 ) ;
#12 = EDGE_LOOP ( 'NONE', ( #316, #18, #380, #48 ) ) ;
#13 = EDGE_CURVE ( 'NONE', #148, #83, #116, .T. ) ;
#14 = DIRECTION ( 'NONE',  ( 0.000000000000000000, 0.000000000000000000, 1.000000000000000000 ) ) ;
#15 = CARTESIAN_POINT ( 'NONE',  ( 6.000000000000000888, 7.347880794884120722E-16, 5.000000000000000000 ) ) ;
#16 = FACE_OUTER_BOUND ( 'NONE', #134, .T. ) ;
#17 = CIRCLE ( 'NONE', #377, 2.000000000000000000 ) ;
#18 = ORIENTED_EDGE ( 'NONE', *, *, #315, .F. ) ;
#19 = AXIS2_PLACEMENT_3D ( 'NONE', #373, #86, #30 ) ;
#20 = LINE ( 'NONE', #75, #163 ) ;
#21 = ORIENTED_EDGE ( 'NONE', *, *, #344, .F. ) ;
#22 = APPROVAL_ROLE ( '' ) ;
#23 = ORIENTED_EDGE ( 'NONE', *, *, #278, .T. ) ;
#24 = EDGE_CURVE ( 'NONE', #273, #148, #311, .T. ) ;
#25 = APPROVAL_DATE_TIME ( #198, #32 ) ;
#26 = CIRCLE ( 'NONE', #349, 3.000000000000000444 ) ;
#27 = CIRCLE ( 'NONE', #62, 6.000000000000000888 ) ;
#28 =( LENGTH_UNIT ( ) NAMED_UNIT ( * ) SI_UNIT ( .MILLI., .METRE. ) );
#29 = AXIS2_PLACEMENT_3D ( 'NONE', #203, #318, #294 ) ;
#30 = DIRECTION ( 'NONE',  ( -1.000000000000000000, 0.000000000000000000, 0.000000000000000000 ) ) ;
#31 = DATE_TIME_ROLE ( 'creation_date' ) ;
#32 = APPROVAL ( #114, 'NEURÈENÝ' ) ;
#33 = PERSON_AND_ORGANIZATION ( #128, #126 ) ;
#34 = ORIENTED_EDGE ( 'NONE', *, *, #175, .T. ) ;
#35 = FACE_OUTER_BOUND ( 'NONE', #12, .T. ) ;
#36 = CARTESIAN_POINT ( 'NONE',  ( 3.500000000000000444, 0.000000000000000000, 5.000000000000002665 ) ) ;
#37 = CC_DESIGN_PERSON_AND_ORGANIZATION_ASSIGNMENT ( #257, #314, ( #106 ) ) ;
#38 = CARTESIAN_POINT ( 'NONE',  ( -3.000000000000000444, 0.000000000000000000, 5.500000000000005329 ) ) ;
#39 = APPROVAL_ROLE ( '' ) ;
#40 = DIRECTION ( 'NONE',  ( 0.000000000000000000, 0.000000000000000000, 1.000000000000000000 ) ) ;
#41 = CARTESIAN_POINT ( 'NONE',  ( -2.000000000000000000, 0.000000000000000000, 355.0000000000000000 ) ) ;
#42 = CC_DESIGN_DATE_AND_TIME_ASSIGNMENT ( #287, #117, ( #259 ) ) ;
#43 = DIRECTION ( 'NONE',  ( 1.000000000000000000, 0.000000000000000000, 0.000000000000000000 ) ) ;
#44 = CIRCLE ( 'NONE', #81, 0.4999999999999995559 ) ;
#45 = DIRECTION ( 'NONE',  ( 0.000000000000000000, 0.000000000000000000, 1.000000000000000000 ) ) ;
#46 = ORIENTED_EDGE ( 'NONE', *, *, #319, .F. ) ;
#47 = PLANE ( 'NONE',  #357 ) ;
#48 = ORIENTED_EDGE ( 'NONE', *, *, #352, .F. ) ;
#49 = DIRECTION ( 'NONE',  ( -0.000000000000000000, -0.000000000000000000, -1.000000000000000000 ) ) ;
#50 = DIRECTION ( 'NONE',  ( 0.000000000000000000, 0.000000000000000000, 1.000000000000000000 ) ) ;
#51 = ORIENTED_EDGE ( 'NONE', *, *, #60, .F. ) ;
#52 = EDGE_LOOP ( 'NONE', ( #82, #252 ) ) ;
#53 = VECTOR ( 'NONE', #295, 1000.000000000000000 ) ;
#54 = CARTESIAN_POINT ( 'NONE',  ( -3.000000000000000444, 0.000000000000000000, 355.0000000000000000 ) ) ;
#55 = AXIS2_PLACEMENT_3D ( 'NONE', #266, #40, #354 ) ;
#56 = COORDINATED_UNIVERSAL_TIME_OFFSET ( 1, 0, .AHEAD. ) ;
#57 = ORIENTED_EDGE ( 'NONE', *, *, #13, .F. ) ;
#58 = CIRCLE ( 'NONE', #275, 2.000000000000000000 ) ;
#59 = DIRECTION ( 'NONE',  ( 1.000000000000000000, 0.000000000000000000, 0.000000000000000000 ) ) ;
#60 = EDGE_CURVE ( 'NONE', #365, #338, #27, .T. ) ;
#61 = ADVANCED_BREP_SHAPE_REPRESENTATION ( '6cf3', ( #234, #276 ), #235 ) ;
#62 = AXIS2_PLACEMENT_3D ( 'NONE', #123, #237, #236 ) ;
#63 = CYLINDRICAL_SURFACE ( 'NONE', #121, 2.000000000000000000 ) ;
#64 = CARTESIAN_POINT ( 'NONE',  ( 0.000000000000000000, 0.000000000000000000, 355.0000000000000000 ) ) ;
#65 = EDGE_CURVE ( 'NONE', #111, #282, #207, .T. ) ;
#66 = DIRECTION ( 'NONE',  ( 1.000000000000000000, 0.000000000000000000, -0.000000000000000000 ) ) ;
#67 = AXIS2_PLACEMENT_3D ( 'NONE', #297, #230, #333 ) ;
#68 = CC_DESIGN_PERSON_AND_ORGANIZATION_ASSIGNMENT ( #289, #227, ( #191 ) ) ;
#69 = CARTESIAN_POINT ( 'NONE',  ( 2.000000000000000000, 2.449293598294706414E-16, 0.000000000000000000 ) ) ;
#70 = CARTESIAN_POINT ( 'NONE',  ( 0.000000000000000000, 0.000000000000000000, 0.000000000000000000 ) ) ;
#71 = EDGE_CURVE ( 'NONE', #148, #273, #284, .T. ) ;
#72 = FACE_OUTER_BOUND ( 'NONE', #288, .T. ) ;
#73 = ORIENTED_EDGE ( 'NONE', *, *, #175, .F. ) ;
#74 = TOROIDAL_SURFACE ( 'NONE', #210, 3.500000000000000444, 0.5000000000000000000 ) ;
#75 = CARTESIAN_POINT ( 'NONE',  ( 6.000000000000000888, 7.347880794884120722E-16, 5.000000000000000000 ) ) ;
#76 = DIRECTION ( 'NONE',  ( 1.000000000000000000, 0.000000000000000000, -0.000000000000000000 ) ) ;
#77 = ORIENTED_EDGE ( 'NONE', *, *, #71, .F. ) ;
#78 = CARTESIAN_POINT ( 'NONE',  ( 2.000000000000000000, 2.449293598294706414E-16, 355.0000000000000000 ) ) ;
#79 = ORIENTED_EDGE ( 'NONE', *, *, #183, .T. ) ;
#80 = COORDINATED_UNIVERSAL_TIME_OFFSET ( 1, 0, .AHEAD. ) ;
#81 = AXIS2_PLACEMENT_3D ( 'NONE', #215, #274, #108 ) ;
#82 = ORIENTED_EDGE ( 'NONE', *, *, #156, .T. ) ;
#83 = VERTEX_POINT ( 'NONE', #38 ) ;
#84 = ADVANCED_FACE ( 'NONE', ( #358 ), #124, .F. ) ;
#85 = COORDINATED_UNIVERSAL_TIME_OFFSET ( 1, 0, .AHEAD. ) ;
#86 = DIRECTION ( 'NONE',  ( -0.000000000000000000, -0.000000000000000000, -1.000000000000000000 ) ) ;
#87 = DATE_AND_TIME ( #254, #169 ) ;
#88 = DIRECTION ( 'NONE',  ( -0.000000000000000000, -0.000000000000000000, -1.000000000000000000 ) ) ;
#89 = MECHANICAL_CONTEXT ( 'NONE', #136, 'mechanical' ) ;
#90 = ORIENTED_EDGE ( 'NONE', *, *, #302, .F. ) ;
#91 = ADVANCED_FACE ( 'NONE', ( #94, #1 ), #356, .T. ) ;
#92 = ORIENTED_EDGE ( 'NONE', *, *, #278, .F. ) ;
#93 = CIRCLE ( 'NONE', #346, 3.500000000000000444 ) ;
#94 = FACE_BOUND ( 'NONE', #371, .T. ) ;
#95 = AXIS2_PLACEMENT_3D ( 'NONE', #240, #49, #296 ) ;
#96 = COORDINATED_UNIVERSAL_TIME_OFFSET ( 1, 0, .AHEAD. ) ;
#97 = CARTESIAN_POINT ( 'NONE',  ( -3.000000000000000444, 0.000000000000000000, 355.0000000000000000 ) ) ;
#98 = DIRECTION ( 'NONE',  ( 0.000000000000000000, 0.000000000000000000, -1.000000000000000000 ) ) ;
#99 = UNCERTAINTY_MEASURE_WITH_UNIT (LENGTH_MEASURE( 1.000000000000000082E-05 ), #28, 'distance_accuracy_value', 'NONE');
#100 = FACE_OUTER_BOUND ( 'NONE', #328, .T. ) ;
#101 = CC_DESIGN_APPROVAL ( #211, ( #259 ) ) ;
#102 = CIRCLE ( 'NONE', #283, 6.000000000000000888 ) ;
#103 = DIRECTION ( 'NONE',  ( -0.000000000000000000, -0.000000000000000000, -1.000000000000000000 ) ) ;
#104 = EDGE_LOOP ( 'NONE', ( #138, #226 ) ) ;
#105 = CARTESIAN_POINT ( 'NONE',  ( 0.000000000000000000, 0.000000000000000000, 0.000000000000000000 ) ) ;
#106 = PRODUCT_DEFINITION ( 'NEZNÁMÝ', '', #191, #353 ) ;
#107 = APPROVAL_PERSON_ORGANIZATION ( #168, #32, #22 ) ;
#108 = DIRECTION ( 'NONE',  ( -1.000000000000000000, 1.224646799147354440E-16, 0.000000000000000000 ) ) ;
#109 = CARTESIAN_POINT ( 'NONE',  ( 0.000000000000000000, 0.000000000000000000, 355.0000000000000000 ) ) ;
#110 = FACE_OUTER_BOUND ( 'NONE', #280, .T. ) ;
#111 = VERTEX_POINT ( 'NONE', #41 ) ;
#112 = ADVANCED_FACE ( 'NONE', ( #238 ), #212, .T. ) ;
#113 = ORIENTED_EDGE ( 'NONE', *, *, #139, .T. ) ;
#114 = APPROVAL_STATUS ( 'not_yet_approved' ) ;
#115 = ORIENTED_EDGE ( 'NONE', *, *, #265, .F. ) ;
#116 = LINE ( 'NONE', #54, #118 ) ;
#117 = DATE_TIME_ROLE ( 'classification_date' ) ;
#118 = VECTOR ( 'NONE', #88, 1000.000000000000000 ) ;
#119 = ORIENTED_EDGE ( 'NONE', *, *, #269, .F. ) ;
#120 = DIRECTION ( 'NONE',  ( -1.000000000000000000, 0.000000000000000000, 0.000000000000000000 ) ) ;
#121 = AXIS2_PLACEMENT_3D ( 'NONE', #206, #98, #209 ) ;
#122 = DIRECTION ( 'NONE',  ( -1.000000000000000000, 0.000000000000000000, 0.000000000000000000 ) ) ;
#123 = CARTESIAN_POINT ( 'NONE',  ( 0.000000000000000000, 0.000000000000000000, 5.000000000000000000 ) ) ;
#124 = CYLINDRICAL_SURFACE ( 'NONE', #378, 2.000000000000000000 ) ;
#125 = LINE ( 'NONE', #181, #53 ) ;
#126 = ORGANIZATION ( 'NEURÈENÝ', 'NEURÈENÝ', '' ) ;
#127 = CARTESIAN_POINT ( 'NONE',  ( 3.000000000000000444, 3.673940397442060361E-16, 355.0000000000000000 ) ) ;
#128 = PERSON ( 'NEURÈENÝ', 'NEURÈENÝ', 'NEURÈENÝ', ('NEURÈENÝ'), ('NEURÈENÝ'), ('NEURÈENÝ') ) ;
#129 = DIRECTION ( 'NONE',  ( 0.000000000000000000, 0.000000000000000000, 1.000000000000000000 ) ) ;
#130 = ORIENTED_EDGE ( 'NONE', *, *, #241, .T. ) ;
#131 = CARTESIAN_POINT ( 'NONE',  ( 0.000000000000000000, 0.000000000000000000, 5.500000000000005329 ) ) ;
#132 = CLOSED_SHELL ( 'NONE', ( #84, #329, #7, #249, #367, #208, #341, #112, #91, #135, #150 ) ) ;
#133 = CARTESIAN_POINT ( 'NONE',  ( 6.000000000000000888, 7.347880794884120722E-16, 0.000000000000000000 ) ) ;
#134 = EDGE_LOOP ( 'NONE', ( #51, #334, #189, #90 ) ) ;
#135 = ADVANCED_FACE ( 'NONE', ( #35 ), #3, .F. ) ;
#136 = APPLICATION_CONTEXT ( 'configuration controlled 3d designs of mechanical parts and assemblies' ) ;
#137 = CARTESIAN_POINT ( 'NONE',  ( -3.500000000000000444, 4.286263797015737088E-16, 5.000000000000002665 ) ) ;
#138 = ORIENTED_EDGE ( 'NONE', *, *, #269, .T. ) ;
#139 = EDGE_CURVE ( 'NONE', #165, #282, #196, .T. ) ;
#140 = APPROVAL_STATUS ( 'not_yet_approved' ) ;
#141 = ORIENTED_EDGE ( 'NONE', *, *, #344, .T. ) ;
#142 = AXIS2_PLACEMENT_3D ( 'NONE', #218, #187, #213 ) ;
#143 = ORIENTED_EDGE ( 'NONE', *, *, #214, .F. ) ;
#144 = CALENDAR_DATE ( 2022, 8, 7 ) ;
#145 = EDGE_LOOP ( 'NONE', ( #219, #309 ) ) ;
#146 = EDGE_CURVE ( 'NONE', #199, #185, #222, .T. ) ;
#147 = CARTESIAN_POINT ( 'NONE',  ( 0.000000000000000000, 0.000000000000000000, 0.000000000000000000 ) ) ;
#148 = VERTEX_POINT ( 'NONE', #97 ) ;
#149 = PLANE ( 'NONE',  #350 ) ;
#150 = ADVANCED_FACE ( 'NONE', ( #100 ), #63, .F. ) ;
#151 = CARTESIAN_POINT ( 'NONE',  ( 3.000000000000000444, 3.673940397442060361E-16, 5.500000000000005329 ) ) ;
#152 = DIRECTION ( 'NONE',  ( 0.000000000000000000, 0.000000000000000000, 1.000000000000000000 ) ) ;
#153 = VECTOR ( 'NONE', #277, 1000.000000000000000 ) ;
#154 = DIRECTION ( 'NONE',  ( 1.000000000000000000, 0.000000000000000000, 0.000000000000000000 ) ) ;
#155 = DIRECTION ( 'NONE',  ( -0.000000000000000000, -0.000000000000000000, -1.000000000000000000 ) ) ;
#156 = EDGE_CURVE ( 'NONE', #185, #246, #93, .T. ) ;
#157 = AXIS2_PLACEMENT_3D ( 'NONE', #351, #292, #268 ) ;
#158 = FACE_OUTER_BOUND ( 'NONE', #221, .T. ) ;
#159 = DIRECTION ( 'NONE',  ( 0.000000000000000000, 0.000000000000000000, 1.000000000000000000 ) ) ;
#160 = ORIENTED_EDGE ( 'NONE', *, *, #65, .T. ) ;
#161 = CARTESIAN_POINT ( 'NONE',  ( 0.000000000000000000, 0.000000000000000000, 5.000000000000000000 ) ) ;
#162 = DIRECTION ( 'NONE',  ( 0.000000000000000000, 0.000000000000000000, 1.000000000000000000 ) ) ;
#163 = VECTOR ( 'NONE', #326, 1000.000000000000000 ) ;
#164 = DIRECTION ( 'NONE',  ( 1.000000000000000000, 0.000000000000000000, 0.000000000000000000 ) ) ;
#165 = VERTEX_POINT ( 'NONE', #69 ) ;
#166 = EDGE_LOOP ( 'NONE', ( #231, #79, #113, #170 ) ) ;
#167 = APPROVAL_DATE_TIME ( #368, #255 ) ;
#168 = PERSON_AND_ORGANIZATION ( #128, #126 ) ;
#169 = LOCAL_TIME ( 17, 34, 53.00000000000000000, #56 ) ;
#170 = ORIENTED_EDGE ( 'NONE', *, *, #65, .F. ) ;
#171 = COORDINATED_UNIVERSAL_TIME_OFFSET ( 1, 0, .AHEAD. ) ;
#172 = PERSON_AND_ORGANIZATION ( #128, #126 ) ;
#173 = AXIS2_PLACEMENT_3D ( 'NONE', #190, #14, #366 ) ;
#174 = FACE_BOUND ( 'NONE', #52, .T. ) ;
#175 = EDGE_CURVE ( 'NONE', #273, #199, #125, .T. ) ;
#176 = LINE ( 'NONE', #291, #263 ) ;
#177 = DIRECTION ( 'NONE',  ( 0.000000000000000000, 0.000000000000000000, -1.000000000000000000 ) ) ;
#178 = CC_DESIGN_DATE_AND_TIME_ASSIGNMENT ( #87, #31, ( #106 ) ) ;
#179 = CARTESIAN_POINT ( 'NONE',  ( 0.000000000000000000, 0.000000000000000000, 355.0000000000000000 ) ) ;
#180 = CIRCLE ( 'NONE', #142, 3.000000000000000444 ) ;
#181 = CARTESIAN_POINT ( 'NONE',  ( 3.000000000000000444, 3.673940397442060361E-16, 355.0000000000000000 ) ) ;
#182 = DIRECTION ( 'NONE',  ( -0.000000000000000000, -0.000000000000000000, -1.000000000000000000 ) ) ;
#183 = EDGE_CURVE ( 'NONE', #307, #165, #176, .T. ) ;
#184 = DIRECTION ( 'NONE',  ( 0.000000000000000000, 0.000000000000000000, 1.000000000000000000 ) ) ;
#185 = VERTEX_POINT ( 'NONE', #36 ) ;
#186 = CIRCLE ( 'NONE', #370, 6.000000000000000888 ) ;
#187 = DIRECTION ( 'NONE',  ( 0.000000000000000000, 0.000000000000000000, 1.000000000000000000 ) ) ;
#188 = FACE_BOUND ( 'NONE', #145, .T. ) ;
#189 = ORIENTED_EDGE ( 'NONE', *, *, #214, .T. ) ;
#190 = CARTESIAN_POINT ( 'NONE',  ( 0.000000000000000000, 0.000000000000000000, 5.000000000000000000 ) ) ;
#191 = PRODUCT_DEFINITION_FORMATION_WITH_SPECIFIED_SOURCE ( 'LIBOVOLNÝ', '', #336, .NOT_KNOWN. ) ;
#192 = PERSON_AND_ORGANIZATION ( #128, #126 ) ;
#193 = FACE_OUTER_BOUND ( 'NONE', #271, .T. ) ;
#194 = PERSON_AND_ORGANIZATION ( #128, #126 ) ;
#195 = SECURITY_CLASSIFICATION_LEVEL ( 'unclassified' ) ;
#196 = CIRCLE ( 'NONE', #29, 2.000000000000000000 ) ;
#197 = CARTESIAN_POINT ( 'NONE',  ( 0.000000000000000000, 0.000000000000000000, 355.0000000000000000 ) ) ;
#198 = DATE_AND_TIME ( #144, #10 ) ;
#199 = VERTEX_POINT ( 'NONE', #151 ) ;
#200 = CALENDAR_DATE ( 2022, 8, 7 ) ;
#201 = ORIENTED_EDGE ( 'NONE', *, *, #24, .F. ) ;
#202 = APPROVAL_PERSON_ORGANIZATION ( #172, #255, #372 ) ;
#203 = CARTESIAN_POINT ( 'NONE',  ( 0.000000000000000000, 0.000000000000000000, 0.000000000000000000 ) ) ;
#204 = EDGE_CURVE ( 'NONE', #282, #165, #58, .T. ) ;
#205 = AXIS2_PLACEMENT_3D ( 'NONE', #4, #320, #154 ) ;
#206 = CARTESIAN_POINT ( 'NONE',  ( 0.000000000000000000, 0.000000000000000000, 355.0000000000000000 ) ) ;
#207 = LINE ( 'NONE', #348, #363 ) ;
#208 = ADVANCED_FACE ( 'NONE', ( #174, #290 ), #149, .T. ) ;
#209 = DIRECTION ( 'NONE',  ( -1.000000000000000000, 0.000000000000000000, 0.000000000000000000 ) ) ;
#210 = AXIS2_PLACEMENT_3D ( 'NONE', #131, #162, #220 ) ;
#211 = APPROVAL ( #347, 'NEURÈENÝ' ) ;
#212 = CYLINDRICAL_SURFACE ( 'NONE', #217, 3.000000000000000444 ) ;
#213 = DIRECTION ( 'NONE',  ( 1.000000000000000000, 0.000000000000000000, 0.000000000000000000 ) ) ;
#214 = EDGE_CURVE ( 'NONE', #261, #223, #102, .T. ) ;
#215 = CARTESIAN_POINT ( 'NONE',  ( -3.500000000000000444, 4.286263797015737088E-16, 5.500000000000005329 ) ) ;
#216 = CC_DESIGN_APPROVAL ( #255, ( #191 ) ) ;
#217 = AXIS2_PLACEMENT_3D ( 'NONE', #179, #155, #122 ) ;
#218 = CARTESIAN_POINT ( 'NONE',  ( 0.000000000000000000, 0.000000000000000000, 5.500000000000005329 ) ) ;
#219 = ORIENTED_EDGE ( 'NONE', *, *, #204, .F. ) ;
#220 = DIRECTION ( 'NONE',  ( 1.000000000000000000, 0.000000000000000000, 0.000000000000000000 ) ) ;
#221 = EDGE_LOOP ( 'NONE', ( #256, #119, #243, #141 ) ) ;
#222 = CIRCLE ( 'NONE', #157, 0.5000000000000004441 ) ;
#223 = VERTEX_POINT ( 'NONE', #360 ) ;
#224 = CC_DESIGN_APPROVAL ( #32, ( #106 ) ) ;
#225 = AXIS2_PLACEMENT_3D ( 'NONE', #197, #152, #262 ) ;
#226 = ORIENTED_EDGE ( 'NONE', *, *, #60, .T. ) ;
#227 = PERSON_AND_ORGANIZATION_ROLE ( 'creator' ) ;
#228 = PRODUCT_DEFINITION_SHAPE ( 'NONE', 'NONE',  #106 ) ;
#229 = DIRECTION ( 'NONE',  ( 1.000000000000000000, 0.000000000000000000, 0.000000000000000000 ) ) ;
#230 = DIRECTION ( 'NONE',  ( -0.000000000000000000, -0.000000000000000000, -1.000000000000000000 ) ) ;
#231 = ORIENTED_EDGE ( 'NONE', *, *, #319, .T. ) ;
#232 = ORIENTED_EDGE ( 'NONE', *, *, #183, .F. ) ;
#233 = CARTESIAN_POINT ( 'NONE',  ( 0.000000000000000000, 0.000000000000000000, 355.0000000000000000 ) ) ;
#234 = MANIFOLD_SOLID_BREP ( 'Odebrat vysunutím3', #132 ) ;
#235 =( GEOMETRIC_REPRESENTATION_CONTEXT ( 3 ) GLOBAL_UNCERTAINTY_ASSIGNED_CONTEXT ( ( #99 ) ) GLOBAL_UNIT_ASSIGNED_CONTEXT ( ( #28, #253, #342 ) ) REPRESENTATION_CONTEXT ( 'NONE', 'WORKASPACE' ) );
#236 = DIRECTION ( 'NONE',  ( 1.000000000000000000, 0.000000000000000000, 0.000000000000000000 ) ) ;
#237 = DIRECTION ( 'NONE',  ( 0.000000000000000000, 0.000000000000000000, 1.000000000000000000 ) ) ;
#238 = FACE_OUTER_BOUND ( 'NONE', #375, .T. ) ;
#239 = CARTESIAN_POINT ( 'NONE',  ( 0.000000000000000000, 0.000000000000000000, 0.000000000000000000 ) ) ;
#240 = CARTESIAN_POINT ( 'NONE',  ( 0.000000000000000000, 0.000000000000000000, 5.000000000000000000 ) ) ;
#241 = EDGE_CURVE ( 'NONE', #83, #246, #44, .T. ) ;
#242 = DIRECTION ( 'NONE',  ( 1.000000000000000000, 0.000000000000000000, -0.000000000000000000 ) ) ;
#243 = ORIENTED_EDGE ( 'NONE', *, *, #302, .T. ) ;
#244 = DIRECTION ( 'NONE',  ( 1.000000000000000000, 0.000000000000000000, 0.000000000000000000 ) ) ;
#245 = EDGE_CURVE ( 'NONE', #365, #261, #20, .T. ) ;
#246 = VERTEX_POINT ( 'NONE', #137 ) ;
#247 = CIRCLE ( 'NONE', #173, 6.000000000000000888 ) ;
#248 = CARTESIAN_POINT ( 'NONE',  ( -2.000000000000000000, 0.000000000000000000, 0.000000000000000000 ) ) ;
#249 = ADVANCED_FACE ( 'NONE', ( #16 ), #250, .T. ) ;
#250 = CYLINDRICAL_SURFACE ( 'NONE', #95, 6.000000000000000888 ) ;
#251 = ORIENTED_EDGE ( 'NONE', *, *, #71, .T. ) ;
#252 = ORIENTED_EDGE ( 'NONE', *, *, #352, .T. ) ;
#253 =( NAMED_UNIT ( * ) PLANE_ANGLE_UNIT ( ) SI_UNIT ( $, .RADIAN. ) );
#254 = CALENDAR_DATE ( 2022, 8, 7 ) ;
#255 = APPROVAL ( #140, 'NEURÈENÝ' ) ;
#256 = ORIENTED_EDGE ( 'NONE', *, *, #245, .F. ) ;
#257 = PERSON_AND_ORGANIZATION ( #128, #126 ) ;
#258 = PERSON_AND_ORGANIZATION_ROLE ( 'classification_officer' ) ;
#259 = SECURITY_CLASSIFICATION ( '', '', #195 ) ;
#260 = AXIS2_PLACEMENT_3D ( 'NONE', #233, #6, #66 ) ;
#261 = VERTEX_POINT ( 'NONE', #133 ) ;
#262 = DIRECTION ( 'NONE',  ( 1.000000000000000000, 0.000000000000000000, 0.000000000000000000 ) ) ;
#263 = VECTOR ( 'NONE', #8, 1000.000000000000000 ) ;
#264 = LOCAL_TIME ( 17, 34, 53.00000000000000000, #85 ) ;
#265 = EDGE_CURVE ( 'NONE', #307, #111, #298, .T. ) ;
#266 = CARTESIAN_POINT ( 'NONE',  ( 0.000000000000000000, 0.000000000000000000, 5.500000000000005329 ) ) ;
#267 = DIRECTION ( 'NONE',  ( 1.000000000000000000, 0.000000000000000000, 0.000000000000000000 ) ) ;
#268 = DIRECTION ( 'NONE',  ( 0.000000000000000000, 0.000000000000000000, -1.000000000000000000 ) ) ;
#269 = EDGE_CURVE ( 'NONE', #338, #365, #247, .T. ) ;
#270 = CARTESIAN_POINT ( 'NONE',  ( 0.000000000000000000, 0.000000000000000000, 355.0000000000000000 ) ) ;
#271 = EDGE_LOOP ( 'NONE', ( #201, #34, #325, #57 ) ) ;
#272 = DIRECTION ( 'NONE',  ( 1.000000000000000000, 0.000000000000000000, 0.000000000000000000 ) ) ;
#273 = VERTEX_POINT ( 'NONE', #127 ) ;
#274 = DIRECTION ( 'NONE',  ( 1.224646799147353207E-16, 1.000000000000000000, -0.000000000000000000 ) ) ;
#275 = AXIS2_PLACEMENT_3D ( 'NONE', #239, #103, #59 ) ;
#276 = AXIS2_PLACEMENT_3D ( 'NONE', #147, #379, #229 ) ;
#277 = DIRECTION ( 'NONE',  ( -0.000000000000000000, -0.000000000000000000, -1.000000000000000000 ) ) ;
#278 = EDGE_CURVE ( 'NONE', #83, #199, #180, .T. ) ;
#279 = APPLICATION_PROTOCOL_DEFINITION ( 'international standard', 'config_control_design', 1994, #136 ) ;
#280 = EDGE_LOOP ( 'NONE', ( #21, #143 ) ) ;
#281 = PERSON_AND_ORGANIZATION_ROLE ( 'design_supplier' ) ;
#282 = VERTEX_POINT ( 'NONE', #248 ) ;
#283 = AXIS2_PLACEMENT_3D ( 'NONE', #105, #305, #330 ) ;
#284 = CIRCLE ( 'NONE', #205, 3.000000000000000444 ) ;
#285 = PERSON_AND_ORGANIZATION_ROLE ( 'design_owner' ) ;
#286 = ORIENTED_EDGE ( 'NONE', *, *, #204, .T. ) ;
#287 = DATE_AND_TIME ( #312, #264 ) ;
#288 = EDGE_LOOP ( 'NONE', ( #92, #130, #369, #299 ) ) ;
#289 = PERSON_AND_ORGANIZATION ( #128, #126 ) ;
#290 = FACE_OUTER_BOUND ( 'NONE', #104, .T. ) ;
#291 = CARTESIAN_POINT ( 'NONE',  ( 2.000000000000000000, 2.449293598294706414E-16, 355.0000000000000000 ) ) ;
#292 = DIRECTION ( 'NONE',  ( 0.000000000000000000, -1.000000000000000000, 0.000000000000000000 ) ) ;
#293 = APPROVAL_PERSON_ORGANIZATION ( #192, #211, #39 ) ;
#294 = DIRECTION ( 'NONE',  ( 1.000000000000000000, 0.000000000000000000, 0.000000000000000000 ) ) ;
#295 = DIRECTION ( 'NONE',  ( -0.000000000000000000, -0.000000000000000000, -1.000000000000000000 ) ) ;
#296 = DIRECTION ( 'NONE',  ( -1.000000000000000000, 0.000000000000000000, 0.000000000000000000 ) ) ;
#297 = CARTESIAN_POINT ( 'NONE',  ( 0.000000000000000000, 0.000000000000000000, 5.000000000000000000 ) ) ;
#298 = CIRCLE ( 'NONE', #340, 2.000000000000000000 ) ;
#299 = ORIENTED_EDGE ( 'NONE', *, *, #146, .F. ) ;
#300 = CC_DESIGN_PERSON_AND_ORGANIZATION_ASSIGNMENT ( #194, #285, ( #336 ) ) ;
#301 = LINE ( 'NONE', #364, #153 ) ;
#302 = EDGE_CURVE ( 'NONE', #338, #223, #301, .T. ) ;
#303 = DIRECTION ( 'NONE',  ( 0.000000000000000000, 0.000000000000000000, 1.000000000000000000 ) ) ;
#304 = CC_DESIGN_PERSON_AND_ORGANIZATION_ASSIGNMENT ( #337, #258, ( #259 ) ) ;
#305 = DIRECTION ( 'NONE',  ( 0.000000000000000000, 0.000000000000000000, 1.000000000000000000 ) ) ;
#306 = LOCAL_TIME ( 17, 34, 53.00000000000000000, #171 ) ;
#307 = VERTEX_POINT ( 'NONE', #78 ) ;
#308 = CYLINDRICAL_SURFACE ( 'NONE', #19, 3.000000000000000444 ) ;
#309 = ORIENTED_EDGE ( 'NONE', *, *, #139, .F. ) ;
#310 = CC_DESIGN_SECURITY_CLASSIFICATION ( #259, ( #191 ) ) ;
#311 = CIRCLE ( 'NONE', #225, 3.000000000000000444 ) ;
#312 = CALENDAR_DATE ( 2022, 8, 7 ) ;
#313 = ORIENTED_EDGE ( 'NONE', *, *, #265, .T. ) ;
#314 = PERSON_AND_ORGANIZATION_ROLE ( 'creator' ) ;
#315 = EDGE_CURVE ( 'NONE', #199, #83, #26, .T. ) ;
#316 = ORIENTED_EDGE ( 'NONE', *, *, #241, .F. ) ;
#317 = DATE_AND_TIME ( #200, #335 ) ;
#318 = DIRECTION ( 'NONE',  ( -0.000000000000000000, -0.000000000000000000, -1.000000000000000000 ) ) ;
#319 = EDGE_CURVE ( 'NONE', #111, #307, #17, .T. ) ;
#320 = DIRECTION ( 'NONE',  ( 0.000000000000000000, 0.000000000000000000, 1.000000000000000000 ) ) ;
#321 = DIRECTION ( 'NONE',  ( -0.000000000000000000, -0.000000000000000000, -1.000000000000000000 ) ) ;
#322 = CARTESIAN_POINT ( 'NONE',  ( 0.000000000000000000, 0.000000000000000000, 5.000000000000000000 ) ) ;
#323 = CARTESIAN_POINT ( 'NONE',  ( 0.000000000000000000, 0.000000000000000000, 0.000000000000000000 ) ) ;
#324 = DIRECTION ( 'NONE',  ( 1.000000000000000000, 0.000000000000000000, 0.000000000000000000 ) ) ;
#325 = ORIENTED_EDGE ( 'NONE', *, *, #315, .T. ) ;
#326 = DIRECTION ( 'NONE',  ( -0.000000000000000000, -0.000000000000000000, -1.000000000000000000 ) ) ;
#327 = AXIS2_PLACEMENT_3D ( 'NONE', #361, #182, #43 ) ;
#328 = EDGE_LOOP ( 'NONE', ( #232, #313, #160, #286 ) ) ;
#329 = ADVANCED_FACE ( 'NONE', ( #72 ), #74, .F. ) ;
#330 = DIRECTION ( 'NONE',  ( 1.000000000000000000, 0.000000000000000000, 0.000000000000000000 ) ) ;
#331 = APPLICATION_CONTEXT ( 'configuration controlled 3d designs of mechanical parts and assemblies' ) ;
#332 = CARTESIAN_POINT ( 'NONE',  ( -6.000000000000000888, 0.000000000000000000, 5.000000000000000000 ) ) ;
#333 = DIRECTION ( 'NONE',  ( -1.000000000000000000, 0.000000000000000000, 0.000000000000000000 ) ) ;
#334 = ORIENTED_EDGE ( 'NONE', *, *, #245, .T. ) ;
#335 = LOCAL_TIME ( 17, 34, 53.00000000000000000, #96 ) ;
#336 = PRODUCT ( '6cf3', '6cf3', '', ( #89 ) ) ;
#337 = PERSON_AND_ORGANIZATION ( #128, #126 ) ;
#338 = VERTEX_POINT ( 'NONE', #332 ) ;
#339 = APPLICATION_PROTOCOL_DEFINITION ( 'international standard', 'config_control_design', 1994, #331 ) ;
#340 = AXIS2_PLACEMENT_3D ( 'NONE', #270, #159, #272 ) ;
#341 = ADVANCED_FACE ( 'NONE', ( #188, #110 ), #47, .F. ) ;
#342 =( NAMED_UNIT ( * ) SI_UNIT ( $, .STERADIAN. ) SOLID_ANGLE_UNIT ( ) );
#343 = ORIENTED_EDGE ( 'NONE', *, *, #13, .T. ) ;
#344 = EDGE_CURVE ( 'NONE', #223, #261, #186, .T. ) ;
#345 = ORIENTED_EDGE ( 'NONE', *, *, #24, .T. ) ;
#346 = AXIS2_PLACEMENT_3D ( 'NONE', #322, #321, #267 ) ;
#347 = APPROVAL_STATUS ( 'not_yet_approved' ) ;
#348 = CARTESIAN_POINT ( 'NONE',  ( -2.000000000000000000, 0.000000000000000000, 355.0000000000000000 ) ) ;
#349 = AXIS2_PLACEMENT_3D ( 'NONE', #359, #50, #324 ) ;
#350 = AXIS2_PLACEMENT_3D ( 'NONE', #161, #45, #76 ) ;
#351 = CARTESIAN_POINT ( 'NONE',  ( 3.500000000000000444, 0.000000000000000000, 5.500000000000005329 ) ) ;
#352 = EDGE_CURVE ( 'NONE', #246, #185, #2, .T. ) ;
#353 = DESIGN_CONTEXT ( 'detailed design', #331, 'design' ) ;
#354 = DIRECTION ( 'NONE',  ( 1.000000000000000000, 0.000000000000000000, 0.000000000000000000 ) ) ;
#355 = APPROVAL_DATE_TIME ( #317, #211 ) ;
#356 = PLANE ( 'NONE',  #260 ) ;
#357 = AXIS2_PLACEMENT_3D ( 'NONE', #323, #303, #242 ) ;
#358 = FACE_OUTER_BOUND ( 'NONE', #166, .T. ) ;
#359 = CARTESIAN_POINT ( 'NONE',  ( 0.000000000000000000, 0.000000000000000000, 5.500000000000005329 ) ) ;
#360 = CARTESIAN_POINT ( 'NONE',  ( -6.000000000000000888, 0.000000000000000000, 0.000000000000000000 ) ) ;
#361 = CARTESIAN_POINT ( 'NONE',  ( 0.000000000000000000, 0.000000000000000000, 5.000000000000000000 ) ) ;
#362 = EDGE_LOOP ( 'NONE', ( #251, #345 ) ) ;
#363 = VECTOR ( 'NONE', #177, 1000.000000000000000 ) ;
#364 = CARTESIAN_POINT ( 'NONE',  ( -6.000000000000000888, 0.000000000000000000, 5.000000000000000000 ) ) ;
#365 = VERTEX_POINT ( 'NONE', #15 ) ;
#366 = DIRECTION ( 'NONE',  ( 1.000000000000000000, 0.000000000000000000, 0.000000000000000000 ) ) ;
#367 = ADVANCED_FACE ( 'NONE', ( #158 ), #11, .T. ) ;
#368 = DATE_AND_TIME ( #374, #306 ) ;
#369 = ORIENTED_EDGE ( 'NONE', *, *, #156, .F. ) ;
#370 = AXIS2_PLACEMENT_3D ( 'NONE', #70, #184, #244 ) ;
#371 = EDGE_LOOP ( 'NONE', ( #46, #115 ) ) ;
#372 = APPROVAL_ROLE ( '' ) ;
#373 = CARTESIAN_POINT ( 'NONE',  ( 0.000000000000000000, 0.000000000000000000, 355.0000000000000000 ) ) ;
#374 = CALENDAR_DATE ( 2022, 8, 7 ) ;
#375 = EDGE_LOOP ( 'NONE', ( #73, #77, #343, #23 ) ) ;
#376 = CC_DESIGN_PERSON_AND_ORGANIZATION_ASSIGNMENT ( #33, #281, ( #191 ) ) ;
#377 = AXIS2_PLACEMENT_3D ( 'NONE', #109, #129, #164 ) ;
#378 = AXIS2_PLACEMENT_3D ( 'NONE', #64, #381, #120 ) ;
#379 = DIRECTION ( 'NONE',  ( 0.000000000000000000, 0.000000000000000000, 1.000000000000000000 ) ) ;
#380 = ORIENTED_EDGE ( 'NONE', *, *, #146, .T. ) ;
#381 = DIRECTION ( 'NONE',  ( 0.000000000000000000, 0.000000000000000000, -1.000000000000000000 ) ) ;
ENDSEC;
END-ISO-10303-21;
