ISO-10303-21;
HEADER;
FILE_DESCRIPTION (( 'STEP AP203' ),
    '1' );
FILE_NAME ('853b.STEP',
    '2022-07-08T14:17:49',
    ( '' ),
    ( '' ),
    'SwSTEP 2.0',
    'SolidWorks 2019',
    '' );
FILE_SCHEMA (( 'CONFIG_CONTROL_DESIGN' ));
ENDSEC;

DATA;
#1 = ORIENTED_EDGE ( 'NONE', *, *, #4, .T. ) ;
#2 = APPROVAL_STATUS ( 'not_yet_approved' ) ;
#3 = VECTOR ( 'NONE', #96, 1000.000000000000000 ) ;
#4 = EDGE_CURVE ( 'NONE', #198, #7, #38, .T. ) ;
#5 = CARTESIAN_POINT ( 'NONE',  ( 8.000000000000000000, 9.797174393178825657E-16, 707.0000000000000000 ) ) ;
#6 = DIRECTION ( 'NONE',  ( -1.000000000000000000, 0.000000000000000000, 0.000000000000000000 ) ) ;
#7 = VERTEX_POINT ( 'NONE', #201 ) ;
#8 = EDGE_CURVE ( 'NONE', #171, #135, #40, .T. ) ;
#9 = DIRECTION ( 'NONE',  ( 0.000000000000000000, 0.000000000000000000, 1.000000000000000000 ) ) ;
#10 = LOCAL_TIME ( 16, 17, 49.00000000000000000, #283 ) ;
#11 = VERTEX_POINT ( 'NONE', #5 ) ;
#12 = CARTESIAN_POINT ( 'NONE',  ( 0.000000000000000000, 0.000000000000000000, 7.700000000000040146 ) ) ;
#13 = CARTESIAN_POINT ( 'NONE',  ( 11.00000000000000000, 1.347111479062088405E-15, 0.000000000000000000 ) ) ;
#14 = LINE ( 'NONE', #124, #125 ) ;
#15 = AXIS2_PLACEMENT_3D ( 'NONE', #368, #97, #213 ) ;
#16 = ADVANCED_FACE ( 'NONE', ( #326, #262 ), #88, .T. ) ;
#17 = EDGE_LOOP ( 'NONE', ( #287, #277 ) ) ;
#18 = DIRECTION ( 'NONE',  ( -0.000000000000000000, -0.000000000000000000, -1.000000000000000000 ) ) ;
#19 = EDGE_LOOP ( 'NONE', ( #349, #1 ) ) ;
#20 =( LENGTH_UNIT ( ) NAMED_UNIT ( * ) SI_UNIT ( .MILLI., .METRE. ) );
#21 = DIRECTION ( 'NONE',  ( -1.000000000000000000, 0.000000000000000000, 0.000000000000000000 ) ) ;
#22 = CARTESIAN_POINT ( 'NONE',  ( 0.000000000000000000, 0.000000000000000000, 7.000000000000000000 ) ) ;
#23 = CIRCLE ( 'NONE', #115, 11.00000000000000000 ) ;
#24 = PRODUCT ( '853b', '853b', '', ( #291 ) ) ;
#25 = SECURITY_CLASSIFICATION_LEVEL ( 'unclassified' ) ;
#26 = CYLINDRICAL_SURFACE ( 'NONE', #366, 8.000000000000000000 ) ;
#27 = ORIENTED_EDGE ( 'NONE', *, *, #303, .T. ) ;
#28 = PERSON_AND_ORGANIZATION ( #362, #339 ) ;
#29 = DIRECTION ( 'NONE',  ( 0.000000000000000000, 0.000000000000000000, 1.000000000000000000 ) ) ;
#30 = DIRECTION ( 'NONE',  ( 0.000000000000000000, 0.000000000000000000, 1.000000000000000000 ) ) ;
#31 = VERTEX_POINT ( 'NONE', #328 ) ;
#32 = APPROVAL_DATE_TIME ( #50, #377 ) ;
#33 =( GEOMETRIC_REPRESENTATION_CONTEXT ( 3 ) GLOBAL_UNCERTAINTY_ASSIGNED_CONTEXT ( ( #152 ) ) GLOBAL_UNIT_ASSIGNED_CONTEXT ( ( #20, #374, #77 ) ) REPRESENTATION_CONTEXT ( 'NONE', 'WORKASPACE' ) );
#34 = FACE_OUTER_BOUND ( 'NONE', #44, .T. ) ;
#35 = ADVANCED_FACE ( 'NONE', ( #34 ), #178, .T. ) ;
#36 = DIRECTION ( 'NONE',  ( 0.000000000000000000, 0.000000000000000000, 1.000000000000000000 ) ) ;
#37 = EDGE_CURVE ( 'NONE', #198, #224, #298, .T. ) ;
#38 = CIRCLE ( 'NONE', #217, 11.00000000000000000 ) ;
#39 = DIRECTION ( 'NONE',  ( 1.000000000000000000, 0.000000000000000000, -0.000000000000000000 ) ) ;
#40 = CIRCLE ( 'NONE', #145, 8.000000000000000000 ) ;
#41 = CARTESIAN_POINT ( 'NONE',  ( -8.000000000000000000, 0.000000000000000000, 7.700000000000040146 ) ) ;
#42 = EDGE_LOOP ( 'NONE', ( #93, #336, #48, #264 ) ) ;
#43 = DIRECTION ( 'NONE',  ( 0.000000000000000000, 0.000000000000000000, 1.000000000000000000 ) ) ;
#44 = EDGE_LOOP ( 'NONE', ( #57, #190, #71, #225 ) ) ;
#45 = DIRECTION ( 'NONE',  ( 0.000000000000000000, 0.000000000000000000, 1.000000000000000000 ) ) ;
#46 = EDGE_CURVE ( 'NONE', #216, #56, #338, .T. ) ;
#47 = CIRCLE ( 'NONE', #367, 6.000000000000000888 ) ;
#48 = ORIENTED_EDGE ( 'NONE', *, *, #337, .T. ) ;
#49 = PRODUCT_DEFINITION_FORMATION_WITH_SPECIFIED_SOURCE ( 'LIBOVOLNÝ', '', #24, .NOT_KNOWN. ) ;
#50 = DATE_AND_TIME ( #61, #297 ) ;
#51 = DIRECTION ( 'NONE',  ( -0.000000000000000000, -0.000000000000000000, -1.000000000000000000 ) ) ;
#52 = TOROIDAL_SURFACE ( 'NONE', #265, 8.699999999999999289, 0.6999999999999999556 ) ;
#53 = APPROVAL_STATUS ( 'not_yet_approved' ) ;
#54 = CARTESIAN_POINT ( 'NONE',  ( -11.00000000000000000, 0.000000000000000000, 7.000000000000000000 ) ) ;
#55 = DIRECTION ( 'NONE',  ( 0.000000000000000000, 0.000000000000000000, 1.000000000000000000 ) ) ;
#56 = VERTEX_POINT ( 'NONE', #290 ) ;
#57 = ORIENTED_EDGE ( 'NONE', *, *, #281, .F. ) ;
#58 = CALENDAR_DATE ( 2022, 8, 7 ) ;
#59 = CARTESIAN_POINT ( 'NONE',  ( 0.000000000000000000, 0.000000000000000000, 707.0000000000000000 ) ) ;
#60 = CARTESIAN_POINT ( 'NONE',  ( 11.00000000000000000, 1.347111479062088405E-15, 7.000000000000000000 ) ) ;
#61 = CALENDAR_DATE ( 2022, 8, 7 ) ;
#62 = DIRECTION ( 'NONE',  ( 0.000000000000000000, 0.000000000000000000, 1.000000000000000000 ) ) ;
#63 = AXIS2_PLACEMENT_3D ( 'NONE', #162, #284, #185 ) ;
#64 = ADVANCED_FACE ( 'NONE', ( #219 ), #26, .T. ) ;
#65 = DIRECTION ( 'NONE',  ( 0.000000000000000000, -1.000000000000000000, 0.000000000000000000 ) ) ;
#66 = DIRECTION ( 'NONE',  ( 0.000000000000000000, 0.000000000000000000, 1.000000000000000000 ) ) ;
#67 = FACE_BOUND ( 'NONE', #229, .T. ) ;
#68 = EDGE_CURVE ( 'NONE', #7, #72, #376, .T. ) ;
#69 = CARTESIAN_POINT ( 'NONE',  ( 0.000000000000000000, 0.000000000000000000, 7.700000000000040146 ) ) ;
#70 = EDGE_CURVE ( 'NONE', #11, #155, #91, .T. ) ;
#71 = ORIENTED_EDGE ( 'NONE', *, *, #148, .T. ) ;
#72 = VERTEX_POINT ( 'NONE', #222 ) ;
#73 = DIRECTION ( 'NONE',  ( 1.000000000000000000, 0.000000000000000000, 0.000000000000000000 ) ) ;
#74 = COORDINATED_UNIVERSAL_TIME_OFFSET ( 1, 0, .AHEAD. ) ;
#75 = CARTESIAN_POINT ( 'NONE',  ( 0.000000000000000000, 0.000000000000000000, 707.0000000000000000 ) ) ;
#76 = CC_DESIGN_PERSON_AND_ORGANIZATION_ASSIGNMENT ( #375, #104, ( #49 ) ) ;
#77 =( NAMED_UNIT ( * ) SI_UNIT ( $, .STERADIAN. ) SOLID_ANGLE_UNIT ( ) );
#78 = ORIENTED_EDGE ( 'NONE', *, *, #207, .T. ) ;
#79 = AXIS2_PLACEMENT_3D ( 'NONE', #309, #65, #304 ) ;
#80 = APPLICATION_CONTEXT ( 'configuration controlled 3d designs of mechanical parts and assemblies' ) ;
#81 = VECTOR ( 'NONE', #84, 1000.000000000000000 ) ;
#82 = DATE_AND_TIME ( #58, #323 ) ;
#83 = ADVANCED_FACE ( 'NONE', ( #129 ), #133, .F. ) ;
#84 = DIRECTION ( 'NONE',  ( 0.000000000000000000, 0.000000000000000000, -1.000000000000000000 ) ) ;
#85 = ORIENTED_EDGE ( 'NONE', *, *, #292, .T. ) ;
#86 = DATE_AND_TIME ( #381, #212 ) ;
#87 = PERSON_AND_ORGANIZATION ( #362, #339 ) ;
#88 = PLANE ( 'NONE',  #351 ) ;
#89 = AXIS2_PLACEMENT_3D ( 'NONE', #101, #51, #254 ) ;
#90 = DIRECTION ( 'NONE',  ( 1.000000000000000000, 0.000000000000000000, 0.000000000000000000 ) ) ;
#91 = CIRCLE ( 'NONE', #150, 8.000000000000000000 ) ;
#92 = CARTESIAN_POINT ( 'NONE',  ( -6.000000000000000888, 0.000000000000000000, 0.000000000000000000 ) ) ;
#93 = ORIENTED_EDGE ( 'NONE', *, *, #303, .F. ) ;
#94 = CARTESIAN_POINT ( 'NONE',  ( 8.000000000000000000, 9.797174393178825657E-16, 7.700000000000040146 ) ) ;
#95 = EDGE_CURVE ( 'NONE', #208, #315, #244, .T. ) ;
#96 = DIRECTION ( 'NONE',  ( -0.000000000000000000, -0.000000000000000000, -1.000000000000000000 ) ) ;
#97 = DIRECTION ( 'NONE',  ( 0.000000000000000000, 0.000000000000000000, 1.000000000000000000 ) ) ;
#98 = EDGE_LOOP ( 'NONE', ( #126, #288, #139, #364 ) ) ;
#99 = CARTESIAN_POINT ( 'NONE',  ( 0.000000000000000000, 0.000000000000000000, 7.700000000000040146 ) ) ;
#100 = AXIS2_PLACEMENT_3D ( 'NONE', #183, #45, #39 ) ;
#101 = CARTESIAN_POINT ( 'NONE',  ( 0.000000000000000000, 0.000000000000000000, 7.000000000000000000 ) ) ;
#102 = CYLINDRICAL_SURFACE ( 'NONE', #146, 6.000000000000000888 ) ;
#103 = PRODUCT_DEFINITION ( 'NEZNÁMÝ', '', #49, #310 ) ;
#104 = PERSON_AND_ORGANIZATION_ROLE ( 'creator' ) ;
#105 = DIRECTION ( 'NONE',  ( -0.000000000000000000, -0.000000000000000000, -1.000000000000000000 ) ) ;
#106 = DIRECTION ( 'NONE',  ( 0.000000000000000000, 0.000000000000000000, -1.000000000000000000 ) ) ;
#107 = ORIENTED_EDGE ( 'NONE', *, *, #337, .F. ) ;
#108 = ORIENTED_EDGE ( 'NONE', *, *, #148, .F. ) ;
#109 = COORDINATED_UNIVERSAL_TIME_OFFSET ( 1, 0, .AHEAD. ) ;
#110 = DIRECTION ( 'NONE',  ( 1.000000000000000000, 0.000000000000000000, 0.000000000000000000 ) ) ;
#111 = APPROVAL_ROLE ( '' ) ;
#112 = CARTESIAN_POINT ( 'NONE',  ( 0.000000000000000000, 0.000000000000000000, 7.000000000000000000 ) ) ;
#113 = DIRECTION ( 'NONE',  ( -0.000000000000000000, -0.000000000000000000, -1.000000000000000000 ) ) ;
#114 = VERTEX_POINT ( 'NONE', #169 ) ;
#115 = AXIS2_PLACEMENT_3D ( 'NONE', #335, #160, #110 ) ;
#116 = ADVANCED_FACE ( 'NONE', ( #191 ), #316, .T. ) ;
#117 = AXIS2_PLACEMENT_3D ( 'NONE', #209, #211, #123 ) ;
#118 = CARTESIAN_POINT ( 'NONE',  ( -8.000000000000000000, 0.000000000000000000, 707.0000000000000000 ) ) ;
#119 = CC_DESIGN_PERSON_AND_ORGANIZATION_ASSIGNMENT ( #194, #253, ( #103 ) ) ;
#120 = AXIS2_PLACEMENT_3D ( 'NONE', #378, #55, #170 ) ;
#121 = FACE_OUTER_BOUND ( 'NONE', #322, .T. ) ;
#122 = EDGE_LOOP ( 'NONE', ( #340, #271, #299, #313 ) ) ;
#123 = DIRECTION ( 'NONE',  ( 1.000000000000000000, 0.000000000000000000, 0.000000000000000000 ) ) ;
#124 = CARTESIAN_POINT ( 'NONE',  ( 8.000000000000000000, 9.797174393178825657E-16, 707.0000000000000000 ) ) ;
#125 = VECTOR ( 'NONE', #363, 1000.000000000000000 ) ;
#126 = ORIENTED_EDGE ( 'NONE', *, *, #186, .F. ) ;
#127 = LINE ( 'NONE', #118, #3 ) ;
#128 = EDGE_LOOP ( 'NONE', ( #166, #235 ) ) ;
#129 = FACE_OUTER_BOUND ( 'NONE', #311, .T. ) ;
#130 = DIRECTION ( 'NONE',  ( -1.000000000000000000, 0.000000000000000000, 0.000000000000000000 ) ) ;
#131 = AXIS2_PLACEMENT_3D ( 'NONE', #69, #43, #312 ) ;
#132 = APPROVAL_DATE_TIME ( #161, #144 ) ;
#133 = CYLINDRICAL_SURFACE ( 'NONE', #358, 6.000000000000000888 ) ;
#134 = EDGE_CURVE ( 'NONE', #7, #198, #157, .T. ) ;
#135 = VERTEX_POINT ( 'NONE', #41 ) ;
#136 = SHAPE_DEFINITION_REPRESENTATION ( #245, #174 ) ;
#137 = CARTESIAN_POINT ( 'NONE',  ( 0.000000000000000000, 0.000000000000000000, 0.000000000000000000 ) ) ;
#138 = ORIENTED_EDGE ( 'NONE', *, *, #236, .F. ) ;
#139 = ORIENTED_EDGE ( 'NONE', *, *, #214, .F. ) ;
#140 = APPROVAL_ROLE ( '' ) ;
#141 = DIRECTION ( 'NONE',  ( 1.000000000000000000, 0.000000000000000000, 0.000000000000000000 ) ) ;
#142 = CARTESIAN_POINT ( 'NONE',  ( 0.000000000000000000, 0.000000000000000000, 7.700000000000040146 ) ) ;
#143 = CARTESIAN_POINT ( 'NONE',  ( 0.000000000000000000, 0.000000000000000000, 707.0000000000000000 ) ) ;
#144 = APPROVAL ( #53, 'NEURÈENÝ' ) ;
#145 = AXIS2_PLACEMENT_3D ( 'NONE', #142, #36, #233 ) ;
#146 = AXIS2_PLACEMENT_3D ( 'NONE', #199, #220, #223 ) ;
#147 = APPROVAL_PERSON_ORGANIZATION ( #168, #377, #140 ) ;
#148 = EDGE_CURVE ( 'NONE', #155, #135, #127, .T. ) ;
#149 = FACE_BOUND ( 'NONE', #17, .T. ) ;
#150 = AXIS2_PLACEMENT_3D ( 'NONE', #347, #29, #73 ) ;
#151 = PLANE ( 'NONE',  #300 ) ;
#152 = UNCERTAINTY_MEASURE_WITH_UNIT (LENGTH_MEASURE( 1.000000000000000082E-05 ), #20, 'distance_accuracy_value', 'NONE');
#153 = CARTESIAN_POINT ( 'NONE',  ( 0.000000000000000000, 0.000000000000000000, 0.000000000000000000 ) ) ;
#154 = DIRECTION ( 'NONE',  ( 0.000000000000000000, 0.000000000000000000, 1.000000000000000000 ) ) ;
#155 = VERTEX_POINT ( 'NONE', #274 ) ;
#156 = DIRECTION ( 'NONE',  ( 1.000000000000000000, 0.000000000000000000, 0.000000000000000000 ) ) ;
#157 = CIRCLE ( 'NONE', #164, 11.00000000000000000 ) ;
#158 = ORIENTED_EDGE ( 'NONE', *, *, #214, .T. ) ;
#159 = CC_DESIGN_APPROVAL ( #377, ( #266 ) ) ;
#160 = DIRECTION ( 'NONE',  ( 0.000000000000000000, 0.000000000000000000, 1.000000000000000000 ) ) ;
#161 = DATE_AND_TIME ( #324, #239 ) ;
#162 = CARTESIAN_POINT ( 'NONE',  ( 0.000000000000000000, 0.000000000000000000, 7.000000000000000000 ) ) ;
#163 = DIRECTION ( 'NONE',  ( 1.000000000000000000, 0.000000000000000000, 0.000000000000000000 ) ) ;
#164 = AXIS2_PLACEMENT_3D ( 'NONE', #278, #238, #269 ) ;
#165 = AXIS2_PLACEMENT_3D ( 'NONE', #59, #30, #141 ) ;
#166 = ORIENTED_EDGE ( 'NONE', *, *, #207, .F. ) ;
#167 = ORIENTED_EDGE ( 'NONE', *, *, #37, .F. ) ;
#168 = PERSON_AND_ORGANIZATION ( #362, #339 ) ;
#169 = CARTESIAN_POINT ( 'NONE',  ( -6.000000000000000888, 0.000000000000000000, 707.0000000000000000 ) ) ;
#170 = DIRECTION ( 'NONE',  ( 1.000000000000000000, 0.000000000000000000, 0.000000000000000000 ) ) ;
#171 = VERTEX_POINT ( 'NONE', #94 ) ;
#172 = APPROVAL_DATE_TIME ( #232, #360 ) ;
#173 = PERSON_AND_ORGANIZATION_ROLE ( 'design_owner' ) ;
#174 = ADVANCED_BREP_SHAPE_REPRESENTATION ( '853b', ( #187, #120 ), #33 ) ;
#175 = CARTESIAN_POINT ( 'NONE',  ( 0.000000000000000000, 0.000000000000000000, 0.000000000000000000 ) ) ;
#176 = CIRCLE ( 'NONE', #305, 11.00000000000000000 ) ;
#177 = APPROVAL_PERSON_ORGANIZATION ( #87, #360, #111 ) ;
#178 = CYLINDRICAL_SURFACE ( 'NONE', #252, 8.000000000000000000 ) ;
#179 = ORIENTED_EDGE ( 'NONE', *, *, #357, .T. ) ;
#180 = CIRCLE ( 'NONE', #15, 6.000000000000000888 ) ;
#181 = PLANE ( 'NONE',  #100 ) ;
#182 = PRODUCT_RELATED_PRODUCT_CATEGORY ( 'detail', '', ( #24 ) ) ;
#183 = CARTESIAN_POINT ( 'NONE',  ( 0.000000000000000000, 0.000000000000000000, 707.0000000000000000 ) ) ;
#184 = FACE_OUTER_BOUND ( 'NONE', #128, .T. ) ;
#185 = DIRECTION ( 'NONE',  ( -1.000000000000000000, 0.000000000000000000, 0.000000000000000000 ) ) ;
#186 = EDGE_CURVE ( 'NONE', #135, #171, #270, .T. ) ;
#187 = MANIFOLD_SOLID_BREP ( 'Odebrat vysunutím3', #333 ) ;
#188 = EDGE_LOOP ( 'NONE', ( #167, #353, #206, #78 ) ) ;
#189 = ADVANCED_FACE ( 'NONE', ( #149, #121 ), #181, .T. ) ;
#190 = ORIENTED_EDGE ( 'NONE', *, *, #342, .F. ) ;
#191 = FACE_OUTER_BOUND ( 'NONE', #122, .T. ) ;
#192 = CYLINDRICAL_SURFACE ( 'NONE', #314, 11.00000000000000000 ) ;
#193 = CC_DESIGN_DATE_AND_TIME_ASSIGNMENT ( #82, #221, ( #266 ) ) ;
#194 = PERSON_AND_ORGANIZATION ( #362, #339 ) ;
#195 = DIRECTION ( 'NONE',  ( -1.000000000000000000, 0.000000000000000000, 0.000000000000000000 ) ) ;
#196 = FACE_OUTER_BOUND ( 'NONE', #98, .T. ) ;
#197 = AXIS2_PLACEMENT_3D ( 'NONE', #330, #365, #334 ) ;
#198 = VERTEX_POINT ( 'NONE', #306 ) ;
#199 = CARTESIAN_POINT ( 'NONE',  ( 0.000000000000000000, 0.000000000000000000, 707.0000000000000000 ) ) ;
#200 = PERSON_AND_ORGANIZATION ( #362, #339 ) ;
#201 = CARTESIAN_POINT ( 'NONE',  ( -11.00000000000000000, 0.000000000000000000, 7.000000000000000000 ) ) ;
#202 = EDGE_CURVE ( 'NONE', #31, #114, #294, .T. ) ;
#203 = APPROVAL_ROLE ( '' ) ;
#204 = DIRECTION ( 'NONE',  ( 1.000000000000000000, 0.000000000000000000, -0.000000000000000000 ) ) ;
#205 = DIRECTION ( 'NONE',  ( 0.000000000000000000, 0.000000000000000000, 1.000000000000000000 ) ) ;
#206 = ORIENTED_EDGE ( 'NONE', *, *, #68, .T. ) ;
#207 = EDGE_CURVE ( 'NONE', #72, #224, #176, .T. ) ;
#208 = VERTEX_POINT ( 'NONE', #272 ) ;
#209 = CARTESIAN_POINT ( 'NONE',  ( 0.000000000000000000, 0.000000000000000000, 707.0000000000000000 ) ) ;
#210 = AXIS2_PLACEMENT_3D ( 'NONE', #246, #18, #361 ) ;
#211 = DIRECTION ( 'NONE',  ( 0.000000000000000000, 0.000000000000000000, 1.000000000000000000 ) ) ;
#212 = LOCAL_TIME ( 16, 17, 49.00000000000000000, #230 ) ;
#213 = DIRECTION ( 'NONE',  ( 1.000000000000000000, 0.000000000000000000, 0.000000000000000000 ) ) ;
#214 = EDGE_CURVE ( 'NONE', #315, #208, #285, .T. ) ;
#215 = ORIENTED_EDGE ( 'NONE', *, *, #8, .F. ) ;
#216 = VERTEX_POINT ( 'NONE', #92 ) ;
#217 = AXIS2_PLACEMENT_3D ( 'NONE', #356, #62, #90 ) ;
#218 = DIRECTION ( 'NONE',  ( 1.000000000000000000, 0.000000000000000000, 0.000000000000000000 ) ) ;
#219 = FACE_OUTER_BOUND ( 'NONE', #293, .T. ) ;
#220 = DIRECTION ( 'NONE',  ( 0.000000000000000000, 0.000000000000000000, -1.000000000000000000 ) ) ;
#221 = DATE_TIME_ROLE ( 'classification_date' ) ;
#222 = CARTESIAN_POINT ( 'NONE',  ( -11.00000000000000000, 0.000000000000000000, 0.000000000000000000 ) ) ;
#223 = DIRECTION ( 'NONE',  ( -1.000000000000000000, 0.000000000000000000, 0.000000000000000000 ) ) ;
#224 = VERTEX_POINT ( 'NONE', #13 ) ;
#225 = ORIENTED_EDGE ( 'NONE', *, *, #186, .T. ) ;
#226 = APPLICATION_PROTOCOL_DEFINITION ( 'international standard', 'config_control_design', 1994, #308 ) ;
#227 = VECTOR ( 'NONE', #113, 1000.000000000000000 ) ;
#228 = CIRCLE ( 'NONE', #165, 8.000000000000000000 ) ;
#229 = EDGE_LOOP ( 'NONE', ( #307, #240 ) ) ;
#230 = COORDINATED_UNIVERSAL_TIME_OFFSET ( 1, 0, .AHEAD. ) ;
#231 = ADVANCED_FACE ( 'NONE', ( #243 ), #52, .F. ) ;
#232 = DATE_AND_TIME ( #256, #10 ) ;
#233 = DIRECTION ( 'NONE',  ( 1.000000000000000000, 0.000000000000000000, 0.000000000000000000 ) ) ;
#234 = CC_DESIGN_DATE_AND_TIME_ASSIGNMENT ( #86, #317, ( #103 ) ) ;
#235 = ORIENTED_EDGE ( 'NONE', *, *, #302, .F. ) ;
#236 = EDGE_CURVE ( 'NONE', #135, #208, #319, .T. ) ;
#237 = ORIENTED_EDGE ( 'NONE', *, *, #8, .T. ) ;
#238 = DIRECTION ( 'NONE',  ( 0.000000000000000000, 0.000000000000000000, 1.000000000000000000 ) ) ;
#239 = LOCAL_TIME ( 16, 17, 49.00000000000000000, #109 ) ;
#240 = ORIENTED_EDGE ( 'NONE', *, *, #357, .F. ) ;
#241 = CARTESIAN_POINT ( 'NONE',  ( 0.000000000000000000, 0.000000000000000000, 0.000000000000000000 ) ) ;
#242 = CC_DESIGN_PERSON_AND_ORGANIZATION_ASSIGNMENT ( #352, #173, ( #24 ) ) ;
#243 = FACE_OUTER_BOUND ( 'NONE', #247, .T. ) ;
#244 = CIRCLE ( 'NONE', #89, 8.699999999999999289 ) ;
#245 = PRODUCT_DEFINITION_SHAPE ( 'NONE', 'NONE',  #103 ) ;
#246 = CARTESIAN_POINT ( 'NONE',  ( 0.000000000000000000, 0.000000000000000000, 7.000000000000000000 ) ) ;
#247 = EDGE_LOOP ( 'NONE', ( #138, #215, #248, #379 ) ) ;
#248 = ORIENTED_EDGE ( 'NONE', *, *, #258, .T. ) ;
#249 = CARTESIAN_POINT ( 'NONE',  ( 6.000000000000000888, 7.347880794884119736E-16, 707.0000000000000000 ) ) ;
#250 = CC_DESIGN_PERSON_AND_ORGANIZATION_ASSIGNMENT ( #200, #355, ( #266 ) ) ;
#251 = DIRECTION ( 'NONE',  ( 0.000000000000000000, 0.000000000000000000, -1.000000000000000000 ) ) ;
#252 = AXIS2_PLACEMENT_3D ( 'NONE', #143, #263, #6 ) ;
#253 = PERSON_AND_ORGANIZATION_ROLE ( 'creator' ) ;
#254 = DIRECTION ( 'NONE',  ( 1.000000000000000000, 0.000000000000000000, 0.000000000000000000 ) ) ;
#255 = FACE_OUTER_BOUND ( 'NONE', #188, .T. ) ;
#256 = CALENDAR_DATE ( 2022, 8, 7 ) ;
#257 = EDGE_LOOP ( 'NONE', ( #158, #370 ) ) ;
#258 = EDGE_CURVE ( 'NONE', #171, #315, #276, .T. ) ;
#259 = VECTOR ( 'NONE', #343, 1000.000000000000000 ) ;
#260 = VECTOR ( 'NONE', #106, 1000.000000000000000 ) ;
#261 = PERSON_AND_ORGANIZATION_ROLE ( 'design_supplier' ) ;
#262 = FACE_OUTER_BOUND ( 'NONE', #19, .T. ) ;
#263 = DIRECTION ( 'NONE',  ( -0.000000000000000000, -0.000000000000000000, -1.000000000000000000 ) ) ;
#264 = ORIENTED_EDGE ( 'NONE', *, *, #46, .T. ) ;
#265 = AXIS2_PLACEMENT_3D ( 'NONE', #12, #66, #156 ) ;
#266 = SECURITY_CLASSIFICATION ( '', '', #25 ) ;
#267 = CC_DESIGN_PERSON_AND_ORGANIZATION_ASSIGNMENT ( #28, #261, ( #49 ) ) ;
#268 = ADVANCED_FACE ( 'NONE', ( #67, #184 ), #151, .F. ) ;
#269 = DIRECTION ( 'NONE',  ( 1.000000000000000000, 0.000000000000000000, 0.000000000000000000 ) ) ;
#270 = CIRCLE ( 'NONE', #131, 8.000000000000000000 ) ;
#271 = ORIENTED_EDGE ( 'NONE', *, *, #37, .T. ) ;
#272 = CARTESIAN_POINT ( 'NONE',  ( -8.699999999999999289, 1.065442715258197248E-15, 7.000000000000020428 ) ) ;
#273 = CC_DESIGN_SECURITY_CLASSIFICATION ( #266, ( #49 ) ) ;
#274 = CARTESIAN_POINT ( 'NONE',  ( -8.000000000000000000, 0.000000000000000000, 707.0000000000000000 ) ) ;
#275 = DIRECTION ( 'NONE',  ( 1.000000000000000000, 0.000000000000000000, -0.000000000000000000 ) ) ;
#276 = CIRCLE ( 'NONE', #79, 0.7000000000000000666 ) ;
#277 = ORIENTED_EDGE ( 'NONE', *, *, #202, .F. ) ;
#278 = CARTESIAN_POINT ( 'NONE',  ( 0.000000000000000000, 0.000000000000000000, 7.000000000000000000 ) ) ;
#279 = ORIENTED_EDGE ( 'NONE', *, *, #281, .T. ) ;
#280 = LINE ( 'NONE', #249, #260 ) ;
#281 = EDGE_CURVE ( 'NONE', #11, #171, #14, .T. ) ;
#282 = DIRECTION ( 'NONE',  ( 0.000000000000000000, 0.000000000000000000, 1.000000000000000000 ) ) ;
#283 = COORDINATED_UNIVERSAL_TIME_OFFSET ( 1, 0, .AHEAD. ) ;
#284 = DIRECTION ( 'NONE',  ( -0.000000000000000000, -0.000000000000000000, -1.000000000000000000 ) ) ;
#285 = CIRCLE ( 'NONE', #210, 8.699999999999999289 ) ;
#286 = DIRECTION ( 'NONE',  ( -0.000000000000000000, -0.000000000000000000, -1.000000000000000000 ) ) ;
#287 = ORIENTED_EDGE ( 'NONE', *, *, #292, .F. ) ;
#288 = ORIENTED_EDGE ( 'NONE', *, *, #236, .T. ) ;
#289 = APPLICATION_PROTOCOL_DEFINITION ( 'international standard', 'config_control_design', 1994, #80 ) ;
#290 = CARTESIAN_POINT ( 'NONE',  ( 6.000000000000000888, 7.347880794884119736E-16, 0.000000000000000000 ) ) ;
#291 = MECHANICAL_CONTEXT ( 'NONE', #308, 'mechanical' ) ;
#292 = EDGE_CURVE ( 'NONE', #114, #31, #180, .T. ) ;
#293 = EDGE_LOOP ( 'NONE', ( #380, #279, #237, #108 ) ) ;
#294 = CIRCLE ( 'NONE', #117, 6.000000000000000888 ) ;
#295 = DIRECTION ( 'NONE',  ( -0.000000000000000000, -0.000000000000000000, -1.000000000000000000 ) ) ;
#296 = TOROIDAL_SURFACE ( 'NONE', #301, 8.699999999999999289, 0.6999999999999999556 ) ;
#297 = LOCAL_TIME ( 16, 17, 49.00000000000000000, #74 ) ;
#298 = LINE ( 'NONE', #60, #227 ) ;
#299 = ORIENTED_EDGE ( 'NONE', *, *, #302, .T. ) ;
#300 = AXIS2_PLACEMENT_3D ( 'NONE', #241, #154, #275 ) ;
#301 = AXIS2_PLACEMENT_3D ( 'NONE', #99, #282, #218 ) ;
#302 = EDGE_CURVE ( 'NONE', #224, #72, #23, .T. ) ;
#303 = EDGE_CURVE ( 'NONE', #31, #56, #280, .T. ) ;
#304 = DIRECTION ( 'NONE',  ( 0.000000000000000000, 0.000000000000000000, -1.000000000000000000 ) ) ;
#305 = AXIS2_PLACEMENT_3D ( 'NONE', #153, #9, #332 ) ;
#306 = CARTESIAN_POINT ( 'NONE',  ( 11.00000000000000000, 1.347111479062088405E-15, 7.000000000000000000 ) ) ;
#307 = ORIENTED_EDGE ( 'NONE', *, *, #46, .F. ) ;
#308 = APPLICATION_CONTEXT ( 'configuration controlled 3d designs of mechanical parts and assemblies' ) ;
#309 = CARTESIAN_POINT ( 'NONE',  ( 8.699999999999999289, 0.000000000000000000, 7.700000000000040146 ) ) ;
#310 = DESIGN_CONTEXT ( 'detailed design', #80, 'design' ) ;
#311 = EDGE_LOOP ( 'NONE', ( #85, #27, #179, #107 ) ) ;
#312 = DIRECTION ( 'NONE',  ( 1.000000000000000000, 0.000000000000000000, 0.000000000000000000 ) ) ;
#313 = ORIENTED_EDGE ( 'NONE', *, *, #68, .F. ) ;
#314 = AXIS2_PLACEMENT_3D ( 'NONE', #22, #286, #130 ) ;
#315 = VERTEX_POINT ( 'NONE', #325 ) ;
#316 = CYLINDRICAL_SURFACE ( 'NONE', #63, 11.00000000000000000 ) ;
#317 = DATE_TIME_ROLE ( 'creation_date' ) ;
#318 = DIRECTION ( 'NONE',  ( 1.000000000000000000, 0.000000000000000000, 0.000000000000000000 ) ) ;
#319 = CIRCLE ( 'NONE', #197, 0.6999999999999992895 ) ;
#320 = ADVANCED_FACE ( 'NONE', ( #344 ), #102, .F. ) ;
#321 = DIRECTION ( 'NONE',  ( -0.000000000000000000, -0.000000000000000000, -1.000000000000000000 ) ) ;
#322 = EDGE_LOOP ( 'NONE', ( #359, #331 ) ) ;
#323 = LOCAL_TIME ( 16, 17, 49.00000000000000000, #350 ) ;
#324 = CALENDAR_DATE ( 2022, 8, 7 ) ;
#325 = CARTESIAN_POINT ( 'NONE',  ( 8.699999999999999289, 0.000000000000000000, 7.000000000000020428 ) ) ;
#326 = FACE_BOUND ( 'NONE', #257, .T. ) ;
#327 = AXIS2_PLACEMENT_3D ( 'NONE', #175, #295, #318 ) ;
#328 = CARTESIAN_POINT ( 'NONE',  ( 6.000000000000000888, 7.347880794884119736E-16, 707.0000000000000000 ) ) ;
#329 = APPROVAL_PERSON_ORGANIZATION ( #346, #144, #203 ) ;
#330 = CARTESIAN_POINT ( 'NONE',  ( -8.699999999999999289, 1.065442715258197248E-15, 7.700000000000040146 ) ) ;
#331 = ORIENTED_EDGE ( 'NONE', *, *, #70, .T. ) ;
#332 = DIRECTION ( 'NONE',  ( 1.000000000000000000, 0.000000000000000000, 0.000000000000000000 ) ) ;
#333 = CLOSED_SHELL ( 'NONE', ( #83, #345, #64, #116, #369, #16, #268, #35, #189, #231, #320 ) ) ;
#334 = DIRECTION ( 'NONE',  ( -1.000000000000000000, 1.224646799147353207E-16, 0.000000000000000000 ) ) ;
#335 = CARTESIAN_POINT ( 'NONE',  ( 0.000000000000000000, 0.000000000000000000, 0.000000000000000000 ) ) ;
#336 = ORIENTED_EDGE ( 'NONE', *, *, #202, .T. ) ;
#337 = EDGE_CURVE ( 'NONE', #114, #216, #371, .T. ) ;
#338 = CIRCLE ( 'NONE', #327, 6.000000000000000888 ) ;
#339 = ORGANIZATION ( 'NEURÈENÝ', 'NEURÈENÝ', '' ) ;
#340 = ORIENTED_EDGE ( 'NONE', *, *, #4, .F. ) ;
#341 = CC_DESIGN_APPROVAL ( #144, ( #49 ) ) ;
#342 = EDGE_CURVE ( 'NONE', #155, #11, #228, .T. ) ;
#343 = DIRECTION ( 'NONE',  ( -0.000000000000000000, -0.000000000000000000, -1.000000000000000000 ) ) ;
#344 = FACE_OUTER_BOUND ( 'NONE', #42, .T. ) ;
#345 = ADVANCED_FACE ( 'NONE', ( #196 ), #296, .F. ) ;
#346 = PERSON_AND_ORGANIZATION ( #362, #339 ) ;
#347 = CARTESIAN_POINT ( 'NONE',  ( 0.000000000000000000, 0.000000000000000000, 707.0000000000000000 ) ) ;
#348 = CARTESIAN_POINT ( 'NONE',  ( -6.000000000000000888, 0.000000000000000000, 707.0000000000000000 ) ) ;
#349 = ORIENTED_EDGE ( 'NONE', *, *, #134, .T. ) ;
#350 = COORDINATED_UNIVERSAL_TIME_OFFSET ( 1, 0, .AHEAD. ) ;
#351 = AXIS2_PLACEMENT_3D ( 'NONE', #112, #205, #204 ) ;
#352 = PERSON_AND_ORGANIZATION ( #362, #339 ) ;
#353 = ORIENTED_EDGE ( 'NONE', *, *, #134, .F. ) ;
#354 = APPROVAL_STATUS ( 'not_yet_approved' ) ;
#355 = PERSON_AND_ORGANIZATION_ROLE ( 'classification_officer' ) ;
#356 = CARTESIAN_POINT ( 'NONE',  ( 0.000000000000000000, 0.000000000000000000, 7.000000000000000000 ) ) ;
#357 = EDGE_CURVE ( 'NONE', #56, #216, #47, .T. ) ;
#358 = AXIS2_PLACEMENT_3D ( 'NONE', #75, #251, #195 ) ;
#359 = ORIENTED_EDGE ( 'NONE', *, *, #342, .T. ) ;
#360 = APPROVAL ( #354, 'NEURÈENÝ' ) ;
#361 = DIRECTION ( 'NONE',  ( 1.000000000000000000, 0.000000000000000000, 0.000000000000000000 ) ) ;
#362 = PERSON ( 'NEURÈENÝ', 'NEURÈENÝ', 'NEURÈENÝ', ('NEURÈENÝ'), ('NEURÈENÝ'), ('NEURÈENÝ') ) ;
#363 = DIRECTION ( 'NONE',  ( -0.000000000000000000, -0.000000000000000000, -1.000000000000000000 ) ) ;
#364 = ORIENTED_EDGE ( 'NONE', *, *, #258, .F. ) ;
#365 = DIRECTION ( 'NONE',  ( 1.224646799147353207E-16, 1.000000000000000000, -0.000000000000000000 ) ) ;
#366 = AXIS2_PLACEMENT_3D ( 'NONE', #373, #105, #21 ) ;
#367 = AXIS2_PLACEMENT_3D ( 'NONE', #137, #321, #163 ) ;
#368 = CARTESIAN_POINT ( 'NONE',  ( 0.000000000000000000, 0.000000000000000000, 707.0000000000000000 ) ) ;
#369 = ADVANCED_FACE ( 'NONE', ( #255 ), #192, .T. ) ;
#370 = ORIENTED_EDGE ( 'NONE', *, *, #95, .T. ) ;
#371 = LINE ( 'NONE', #348, #81 ) ;
#372 = CC_DESIGN_APPROVAL ( #360, ( #103 ) ) ;
#373 = CARTESIAN_POINT ( 'NONE',  ( 0.000000000000000000, 0.000000000000000000, 707.0000000000000000 ) ) ;
#374 =( NAMED_UNIT ( * ) PLANE_ANGLE_UNIT ( ) SI_UNIT ( $, .RADIAN. ) );
#375 = PERSON_AND_ORGANIZATION ( #362, #339 ) ;
#376 = LINE ( 'NONE', #54, #259 ) ;
#377 = APPROVAL ( #2, 'NEURÈENÝ' ) ;
#378 = CARTESIAN_POINT ( 'NONE',  ( 0.000000000000000000, 0.000000000000000000, 0.000000000000000000 ) ) ;
#379 = ORIENTED_EDGE ( 'NONE', *, *, #95, .F. ) ;
#380 = ORIENTED_EDGE ( 'NONE', *, *, #70, .F. ) ;
#381 = CALENDAR_DATE ( 2022, 8, 7 ) ;
ENDSEC;
END-ISO-10303-21;
