ISO-10303-21;
HEADER;
FILE_DESCRIPTION (( 'STEP AP203' ),
    '1' );
FILE_NAME ('51e1.STEP',
    '2022-07-08T14:53:11',
    ( '' ),
    ( '' ),
    'SwSTEP 2.0',
    'SolidWorks 2019',
    '' );
FILE_SCHEMA (( 'CONFIG_CONTROL_DESIGN' ));
ENDSEC;

DATA;
#1 = DIRECTION ( 'NONE',  ( 1.000000000000000000, 0.000000000000000000, 0.000000000000000000 ) ) ;
#2 = DIRECTION ( 'NONE',  ( -1.000000000000000000, 0.000000000000000000, 0.000000000000000000 ) ) ;
#3 = CARTESIAN_POINT ( 'NONE',  ( -6.500000000000000888, 7.960204194457796463E-16, 7.000000000000002665 ) ) ;
#4 = AXIS2_PLACEMENT_3D ( 'NONE', #323, #114, #179 ) ;
#5 = PERSON_AND_ORGANIZATION ( #358, #340 ) ;
#6 = DIRECTION ( 'NONE',  ( 0.000000000000000000, 0.000000000000000000, 1.000000000000000000 ) ) ;
#7 = FACE_OUTER_BOUND ( 'NONE', #298, .T. ) ;
#8 = APPROVAL_PERSON_ORGANIZATION ( #13, #189, #260 ) ;
#9 = ADVANCED_FACE ( 'NONE', ( #244 ), #264, .T. ) ;
#10 = EDGE_LOOP ( 'NONE', ( #60, #75 ) ) ;
#11 = ORIENTED_EDGE ( 'NONE', *, *, #77, .T. ) ;
#12 = AXIS2_PLACEMENT_3D ( 'NONE', #240, #174, #296 ) ;
#13 = PERSON_AND_ORGANIZATION ( #358, #340 ) ;
#14 = UNCERTAINTY_MEASURE_WITH_UNIT (LENGTH_MEASURE( 1.000000000000000082E-05 ), #337, 'distance_accuracy_value', 'NONE');
#15 = ORIENTED_EDGE ( 'NONE', *, *, #213, .F. ) ;
#16 = ADVANCED_FACE ( 'NONE', ( #143, #374 ), #242, .F. ) ;
#17 = DATE_AND_TIME ( #166, #183 ) ;
#18 = CIRCLE ( 'NONE', #130, 6.500000000000000888 ) ;
#19 = SECURITY_CLASSIFICATION ( '', '', #136 ) ;
#20 = VERTEX_POINT ( 'NONE', #87 ) ;
#21 = DATE_TIME_ROLE ( 'creation_date' ) ;
#22 = EDGE_CURVE ( 'NONE', #290, #31, #345, .T. ) ;
#23 = ORIENTED_EDGE ( 'NONE', *, *, #299, .T. ) ;
#24 = APPROVAL_STATUS ( 'not_yet_approved' ) ;
#25 = DIRECTION ( 'NONE',  ( -1.000000000000000000, 0.000000000000000000, 0.000000000000000000 ) ) ;
#26 = CALENDAR_DATE ( 2022, 8, 7 ) ;
#27 = CIRCLE ( 'NONE', #254, 6.000000000000000888 ) ;
#28 = CC_DESIGN_APPROVAL ( #279, ( #221 ) ) ;
#29 = ORIENTED_EDGE ( 'NONE', *, *, #329, .T. ) ;
#30 = CARTESIAN_POINT ( 'NONE',  ( 0.000000000000000000, 0.000000000000000000, 7.000000000000000000 ) ) ;
#31 = VERTEX_POINT ( 'NONE', #117 ) ;
#32 = DIRECTION ( 'NONE',  ( -0.000000000000000000, -0.000000000000000000, -1.000000000000000000 ) ) ;
#33 = CARTESIAN_POINT ( 'NONE',  ( -10.00000000000000000, 0.000000000000000000, 7.000000000000000000 ) ) ;
#34 = DIRECTION ( 'NONE',  ( -0.000000000000000000, -0.000000000000000000, -1.000000000000000000 ) ) ;
#35 = CARTESIAN_POINT ( 'NONE',  ( 3.000000000000000444, 3.673940397442060361E-16, 0.000000000000000000 ) ) ;
#36 = SHAPE_DEFINITION_REPRESENTATION ( #175, #93 ) ;
#37 = LINE ( 'NONE', #126, #150 ) ;
#38 = TOROIDAL_SURFACE ( 'NONE', #362, 6.500000000000000888, 0.5000000000000000000 ) ;
#39 = EDGE_CURVE ( 'NONE', #272, #202, #360, .T. ) ;
#40 = AXIS2_PLACEMENT_3D ( 'NONE', #352, #89, #255 ) ;
#41 = PRODUCT_DEFINITION ( 'NEZNÁMÝ', '', #221, #164 ) ;
#42 = CARTESIAN_POINT ( 'NONE',  ( 3.000000000000000444, 3.673940397442060361E-16, 407.0000000000000000 ) ) ;
#43 = ORIENTED_EDGE ( 'NONE', *, *, #59, .F. ) ;
#44 = VERTEX_POINT ( 'NONE', #355 ) ;
#45 = CIRCLE ( 'NONE', #4, 10.00000000000000000 ) ;
#46 = APPROVAL_ROLE ( '' ) ;
#47 = ORIENTED_EDGE ( 'NONE', *, *, #329, .F. ) ;
#48 = EDGE_CURVE ( 'NONE', #372, #202, #203, .T. ) ;
#49 = PERSON_AND_ORGANIZATION ( #358, #340 ) ;
#50 = AXIS2_PLACEMENT_3D ( 'NONE', #74, #72, #225 ) ;
#51 = EDGE_LOOP ( 'NONE', ( #343, #163, #151, #105 ) ) ;
#52 = PERSON_AND_ORGANIZATION_ROLE ( 'creator' ) ;
#53 = CARTESIAN_POINT ( 'NONE',  ( 0.000000000000000000, 0.000000000000000000, 7.000000000000000000 ) ) ;
#54 = CC_DESIGN_DATE_AND_TIME_ASSIGNMENT ( #139, #21, ( #41 ) ) ;
#55 = CYLINDRICAL_SURFACE ( 'NONE', #12, 6.000000000000000888 ) ;
#56 = PRODUCT ( '51e1', '51e1', '', ( #309 ) ) ;
#57 = ORIENTED_EDGE ( 'NONE', *, *, #146, .F. ) ;
#58 = LINE ( 'NONE', #152, #354 ) ;
#59 = EDGE_CURVE ( 'NONE', #20, #138, #45, .T. ) ;
#60 = ORIENTED_EDGE ( 'NONE', *, *, #142, .T. ) ;
#61 = CIRCLE ( 'NONE', #95, 10.00000000000000000 ) ;
#62 = APPROVAL_DATE_TIME ( #270, #189 ) ;
#63 = DIRECTION ( 'NONE',  ( 0.000000000000000000, 0.000000000000000000, 1.000000000000000000 ) ) ;
#64 = AXIS2_PLACEMENT_3D ( 'NONE', #30, #338, #141 ) ;
#65 = DIRECTION ( 'NONE',  ( 0.000000000000000000, 0.000000000000000000, 1.000000000000000000 ) ) ;
#66 = CC_DESIGN_APPROVAL ( #331, ( #41 ) ) ;
#67 = ADVANCED_FACE ( 'NONE', ( #94 ), #55, .T. ) ;
#68 = DIRECTION ( 'NONE',  ( -1.000000000000000000, 0.000000000000000000, 0.000000000000000000 ) ) ;
#69 = CARTESIAN_POINT ( 'NONE',  ( 0.000000000000000000, 0.000000000000000000, 407.0000000000000000 ) ) ;
#70 =( NAMED_UNIT ( * ) SI_UNIT ( $, .STERADIAN. ) SOLID_ANGLE_UNIT ( ) );
#71 = CARTESIAN_POINT ( 'NONE',  ( 0.000000000000000000, 0.000000000000000000, 7.000000000000000000 ) ) ;
#72 = DIRECTION ( 'NONE',  ( -0.000000000000000000, -0.000000000000000000, -1.000000000000000000 ) ) ;
#73 = DIRECTION ( 'NONE',  ( 0.000000000000000000, 0.000000000000000000, 1.000000000000000000 ) ) ;
#74 = CARTESIAN_POINT ( 'NONE',  ( 0.000000000000000000, 0.000000000000000000, 0.000000000000000000 ) ) ;
#75 = ORIENTED_EDGE ( 'NONE', *, *, #335, .T. ) ;
#76 = CIRCLE ( 'NONE', #306, 6.000000000000000888 ) ;
#77 = EDGE_CURVE ( 'NONE', #31, #290, #61, .T. ) ;
#78 = EDGE_LOOP ( 'NONE', ( #57, #85, #134, #257 ) ) ;
#79 = PERSON_AND_ORGANIZATION_ROLE ( 'design_owner' ) ;
#80 = EDGE_CURVE ( 'NONE', #369, #133, #173, .T. ) ;
#81 = EDGE_LOOP ( 'NONE', ( #364, #11 ) ) ;
#82 = PERSON_AND_ORGANIZATION ( #358, #340 ) ;
#83 = ORIENTED_EDGE ( 'NONE', *, *, #77, .F. ) ;
#84 = CIRCLE ( 'NONE', #200, 3.000000000000000444 ) ;
#85 = ORIENTED_EDGE ( 'NONE', *, *, #80, .T. ) ;
#86 = ADVANCED_FACE ( 'NONE', ( #359 ), #155, .F. ) ;
#87 = CARTESIAN_POINT ( 'NONE',  ( -10.00000000000000000, 0.000000000000000000, 0.000000000000000000 ) ) ;
#88 = AXIS2_PLACEMENT_3D ( 'NONE', #325, #268, #144 ) ;
#89 = DIRECTION ( 'NONE',  ( 1.224646799147353207E-16, 1.000000000000000000, -0.000000000000000000 ) ) ;
#90 = AXIS2_PLACEMENT_3D ( 'NONE', #353, #248, #181 ) ;
#91 = EDGE_CURVE ( 'NONE', #339, #372, #277, .T. ) ;
#92 = CARTESIAN_POINT ( 'NONE',  ( 3.000000000000000444, 3.673940397442060361E-16, 407.0000000000000000 ) ) ;
#93 = ADVANCED_BREP_SHAPE_REPRESENTATION ( '51e1', ( #131, #297 ), #273 ) ;
#94 = FACE_OUTER_BOUND ( 'NONE', #287, .T. ) ;
#95 = AXIS2_PLACEMENT_3D ( 'NONE', #208, #300, #275 ) ;
#96 = CARTESIAN_POINT ( 'NONE',  ( 6.000000000000000888, 7.347880794884120722E-16, 407.0000000000000000 ) ) ;
#97 = DIRECTION ( 'NONE',  ( 1.000000000000000000, 0.000000000000000000, 0.000000000000000000 ) ) ;
#98 = LINE ( 'NONE', #185, #168 ) ;
#99 = APPLICATION_PROTOCOL_DEFINITION ( 'international standard', 'config_control_design', 1994, #216 ) ;
#100 = DIRECTION ( 'NONE',  ( 0.000000000000000000, 0.000000000000000000, -1.000000000000000000 ) ) ;
#101 = DIRECTION ( 'NONE',  ( 0.000000000000000000, 0.000000000000000000, 1.000000000000000000 ) ) ;
#102 = DIRECTION ( 'NONE',  ( -0.000000000000000000, -0.000000000000000000, -1.000000000000000000 ) ) ;
#103 = CARTESIAN_POINT ( 'NONE',  ( 6.000000000000000888, 7.347880794884120722E-16, 7.500000000000007105 ) ) ;
#104 = ORIENTED_EDGE ( 'NONE', *, *, #381, .F. ) ;
#105 = ORIENTED_EDGE ( 'NONE', *, *, #333, .F. ) ;
#106 = CALENDAR_DATE ( 2022, 8, 7 ) ;
#107 = ORIENTED_EDGE ( 'NONE', *, *, #320, .F. ) ;
#108 = PERSON_AND_ORGANIZATION ( #358, #340 ) ;
#109 = EDGE_CURVE ( 'NONE', #324, #369, #282, .T. ) ;
#110 = ORIENTED_EDGE ( 'NONE', *, *, #91, .F. ) ;
#111 = AXIS2_PLACEMENT_3D ( 'NONE', #206, #274, #380 ) ;
#112 = DIRECTION ( 'NONE',  ( 1.000000000000000000, 0.000000000000000000, 0.000000000000000000 ) ) ;
#113 = PERSON_AND_ORGANIZATION_ROLE ( 'design_supplier' ) ;
#114 = DIRECTION ( 'NONE',  ( 0.000000000000000000, 0.000000000000000000, 1.000000000000000000 ) ) ;
#115 = AXIS2_PLACEMENT_3D ( 'NONE', #376, #377, #112 ) ;
#116 = CARTESIAN_POINT ( 'NONE',  ( 6.500000000000000888, 0.000000000000000000, 7.500000000000007105 ) ) ;
#117 = CARTESIAN_POINT ( 'NONE',  ( 10.00000000000000000, 1.224646799147353256E-15, 7.000000000000000000 ) ) ;
#118 = ORIENTED_EDGE ( 'NONE', *, *, #333, .T. ) ;
#119 = CARTESIAN_POINT ( 'NONE',  ( -3.000000000000000444, 0.000000000000000000, 0.000000000000000000 ) ) ;
#120 = DIRECTION ( 'NONE',  ( 1.000000000000000000, 0.000000000000000000, 0.000000000000000000 ) ) ;
#121 = DIRECTION ( 'NONE',  ( 1.000000000000000000, 0.000000000000000000, 0.000000000000000000 ) ) ;
#122 = ADVANCED_FACE ( 'NONE', ( #308 ), #334, .F. ) ;
#123 = PLANE ( 'NONE',  #90 ) ;
#124 = CIRCLE ( 'NONE', #111, 6.000000000000000888 ) ;
#125 = CIRCLE ( 'NONE', #317, 6.500000000000000888 ) ;
#126 = CARTESIAN_POINT ( 'NONE',  ( -10.00000000000000000, 0.000000000000000000, 7.000000000000000000 ) ) ;
#127 = LOCAL_TIME ( 16, 53, 11.00000000000000000, #198 ) ;
#128 = DIRECTION ( 'NONE',  ( 0.000000000000000000, 0.000000000000000000, 1.000000000000000000 ) ) ;
#129 = CARTESIAN_POINT ( 'NONE',  ( 0.000000000000000000, 0.000000000000000000, 7.500000000000007105 ) ) ;
#130 = AXIS2_PLACEMENT_3D ( 'NONE', #252, #102, #223 ) ;
#131 = MANIFOLD_SOLID_BREP ( 'Odebrat vysunutím3', #365 ) ;
#132 = EDGE_LOOP ( 'NONE', ( #312, #47, #197, #161 ) ) ;
#133 = VERTEX_POINT ( 'NONE', #3 ) ;
#134 = ORIENTED_EDGE ( 'NONE', *, *, #142, .F. ) ;
#135 = AXIS2_PLACEMENT_3D ( 'NONE', #116, #147, #271 ) ;
#136 = SECURITY_CLASSIFICATION_LEVEL ( 'unclassified' ) ;
#137 = APPLICATION_PROTOCOL_DEFINITION ( 'international standard', 'config_control_design', 1994, #316 ) ;
#138 = VERTEX_POINT ( 'NONE', #184 ) ;
#139 = DATE_AND_TIME ( #235, #201 ) ;
#140 = PERSON_AND_ORGANIZATION_ROLE ( 'creator' ) ;
#141 = DIRECTION ( 'NONE',  ( -1.000000000000000000, 0.000000000000000000, 0.000000000000000000 ) ) ;
#142 = EDGE_CURVE ( 'NONE', #44, #133, #125, .T. ) ;
#143 = FACE_BOUND ( 'NONE', #351, .T. ) ;
#144 = DIRECTION ( 'NONE',  ( 1.000000000000000000, 0.000000000000000000, -0.000000000000000000 ) ) ;
#145 = PRODUCT_RELATED_PRODUCT_CATEGORY ( 'detail', '', ( #56 ) ) ;
#146 = EDGE_CURVE ( 'NONE', #369, #230, #27, .T. ) ;
#147 = DIRECTION ( 'NONE',  ( 0.000000000000000000, -1.000000000000000000, 0.000000000000000000 ) ) ;
#148 = ORIENTED_EDGE ( 'NONE', *, *, #288, .F. ) ;
#149 = CARTESIAN_POINT ( 'NONE',  ( -6.000000000000000888, 0.000000000000000000, 407.0000000000000000 ) ) ;
#150 = VECTOR ( 'NONE', #283, 1000.000000000000000 ) ;
#151 = ORIENTED_EDGE ( 'NONE', *, *, #381, .T. ) ;
#152 = CARTESIAN_POINT ( 'NONE',  ( -3.000000000000000444, 0.000000000000000000, 407.0000000000000000 ) ) ;
#153 = ADVANCED_FACE ( 'NONE', ( #212, #278 ), #253, .T. ) ;
#154 = CARTESIAN_POINT ( 'NONE',  ( 6.000000000000000888, 7.347880794884120722E-16, 407.0000000000000000 ) ) ;
#155 = TOROIDAL_SURFACE ( 'NONE', #311, 6.500000000000000888, 0.5000000000000000000 ) ;
#156 = CARTESIAN_POINT ( 'NONE',  ( 0.000000000000000000, 0.000000000000000000, 407.0000000000000000 ) ) ;
#157 = DIRECTION ( 'NONE',  ( 1.000000000000000000, 0.000000000000000000, 0.000000000000000000 ) ) ;
#158 = DIRECTION ( 'NONE',  ( 0.000000000000000000, 0.000000000000000000, -1.000000000000000000 ) ) ;
#159 = DIRECTION ( 'NONE',  ( 0.000000000000000000, 0.000000000000000000, -1.000000000000000000 ) ) ;
#160 = CARTESIAN_POINT ( 'NONE',  ( 0.000000000000000000, 0.000000000000000000, 407.0000000000000000 ) ) ;
#161 = ORIENTED_EDGE ( 'NONE', *, *, #146, .T. ) ;
#162 =( NAMED_UNIT ( * ) PLANE_ANGLE_UNIT ( ) SI_UNIT ( $, .RADIAN. ) );
#163 = ORIENTED_EDGE ( 'NONE', *, *, #48, .T. ) ;
#164 = DESIGN_CONTEXT ( 'detailed design', #316, 'design' ) ;
#165 = ORIENTED_EDGE ( 'NONE', *, *, #256, .T. ) ;
#166 = CALENDAR_DATE ( 2022, 8, 7 ) ;
#167 = EDGE_LOOP ( 'NONE', ( #83, #165, #314, #261 ) ) ;
#168 = VECTOR ( 'NONE', #356, 1000.000000000000000 ) ;
#169 = LOCAL_TIME ( 16, 53, 11.00000000000000000, #344 ) ;
#170 = APPROVAL_STATUS ( 'not_yet_approved' ) ;
#171 = EDGE_LOOP ( 'NONE', ( #349, #232, #178, #315 ) ) ;
#172 = FACE_OUTER_BOUND ( 'NONE', #379, .T. ) ;
#173 = CIRCLE ( 'NONE', #40, 0.5000000000000004441 ) ;
#174 = DIRECTION ( 'NONE',  ( -0.000000000000000000, -0.000000000000000000, -1.000000000000000000 ) ) ;
#175 = PRODUCT_DEFINITION_SHAPE ( 'NONE', 'NONE',  #41 ) ;
#176 = LOCAL_TIME ( 16, 53, 11.00000000000000000, #370 ) ;
#177 = CC_DESIGN_PERSON_AND_ORGANIZATION_ASSIGNMENT ( #373, #113, ( #221 ) ) ;
#178 = ORIENTED_EDGE ( 'NONE', *, *, #196, .T. ) ;
#179 = DIRECTION ( 'NONE',  ( 1.000000000000000000, 0.000000000000000000, 0.000000000000000000 ) ) ;
#180 = VECTOR ( 'NONE', #326, 1000.000000000000000 ) ;
#181 = DIRECTION ( 'NONE',  ( 1.000000000000000000, 0.000000000000000000, -0.000000000000000000 ) ) ;
#182 = EDGE_LOOP ( 'NONE', ( #110, #263 ) ) ;
#183 = LOCAL_TIME ( 16, 53, 11.00000000000000000, #350 ) ;
#184 = CARTESIAN_POINT ( 'NONE',  ( 10.00000000000000000, 1.224646799147353256E-15, 0.000000000000000000 ) ) ;
#185 = CARTESIAN_POINT ( 'NONE',  ( 10.00000000000000000, 1.224646799147353256E-15, 7.000000000000000000 ) ) ;
#186 = LINE ( 'NONE', #154, #233 ) ;
#187 = CARTESIAN_POINT ( 'NONE',  ( 0.000000000000000000, 0.000000000000000000, 0.000000000000000000 ) ) ;
#188 = CARTESIAN_POINT ( 'NONE',  ( 0.000000000000000000, 0.000000000000000000, 7.500000000000007105 ) ) ;
#189 = APPROVAL ( #231, 'NEURÈENÝ' ) ;
#190 = DIRECTION ( 'NONE',  ( 0.000000000000000000, 0.000000000000000000, 1.000000000000000000 ) ) ;
#191 = AXIS2_PLACEMENT_3D ( 'NONE', #160, #100, #68 ) ;
#192 = ORIENTED_EDGE ( 'NONE', *, *, #285, .T. ) ;
#193 = CC_DESIGN_SECURITY_CLASSIFICATION ( #19, ( #221 ) ) ;
#194 = CARTESIAN_POINT ( 'NONE',  ( -3.000000000000000444, 0.000000000000000000, 407.0000000000000000 ) ) ;
#195 = EDGE_LOOP ( 'NONE', ( #318, #15, #23, #199 ) ) ;
#196 = EDGE_CURVE ( 'NONE', #290, #20, #37, .T. ) ;
#197 = ORIENTED_EDGE ( 'NONE', *, *, #109, .T. ) ;
#198 = COORDINATED_UNIVERSAL_TIME_OFFSET ( 1, 0, .AHEAD. ) ;
#199 = ORIENTED_EDGE ( 'NONE', *, *, #335, .F. ) ;
#200 = AXIS2_PLACEMENT_3D ( 'NONE', #330, #280, #207 ) ;
#201 = LOCAL_TIME ( 16, 53, 11.00000000000000000, #294 ) ;
#202 = VERTEX_POINT ( 'NONE', #35 ) ;
#203 = LINE ( 'NONE', #92, #180 ) ;
#204 = PERSON_AND_ORGANIZATION ( #358, #340 ) ;
#205 = ADVANCED_FACE ( 'NONE', ( #222 ), #363, .T. ) ;
#206 = CARTESIAN_POINT ( 'NONE',  ( 0.000000000000000000, 0.000000000000000000, 407.0000000000000000 ) ) ;
#207 = DIRECTION ( 'NONE',  ( 1.000000000000000000, 0.000000000000000000, 0.000000000000000000 ) ) ;
#208 = CARTESIAN_POINT ( 'NONE',  ( 0.000000000000000000, 0.000000000000000000, 7.000000000000000000 ) ) ;
#209 = AXIS2_PLACEMENT_3D ( 'NONE', #236, #32, #120 ) ;
#210 = CARTESIAN_POINT ( 'NONE',  ( 0.000000000000000000, 0.000000000000000000, 407.0000000000000000 ) ) ;
#211 = VECTOR ( 'NONE', #247, 1000.000000000000000 ) ;
#212 = FACE_BOUND ( 'NONE', #10, .T. ) ;
#213 = EDGE_CURVE ( 'NONE', #230, #369, #243, .T. ) ;
#214 = CARTESIAN_POINT ( 'NONE',  ( 0.000000000000000000, 0.000000000000000000, 0.000000000000000000 ) ) ;
#215 = CARTESIAN_POINT ( 'NONE',  ( 0.000000000000000000, 0.000000000000000000, 7.000000000000000000 ) ) ;
#216 = APPLICATION_CONTEXT ( 'configuration controlled 3d designs of mechanical parts and assemblies' ) ;
#217 = CC_DESIGN_DATE_AND_TIME_ASSIGNMENT ( #375, #238, ( #19 ) ) ;
#218 = EDGE_CURVE ( 'NONE', #259, #230, #186, .T. ) ;
#219 = CYLINDRICAL_SURFACE ( 'NONE', #64, 10.00000000000000000 ) ;
#220 = AXIS2_PLACEMENT_3D ( 'NONE', #227, #159, #2 ) ;
#221 = PRODUCT_DEFINITION_FORMATION_WITH_SPECIFIED_SOURCE ( 'LIBOVOLNÝ', '', #56, .NOT_KNOWN. ) ;
#222 = FACE_OUTER_BOUND ( 'NONE', #132, .T. ) ;
#223 = DIRECTION ( 'NONE',  ( 1.000000000000000000, 0.000000000000000000, 0.000000000000000000 ) ) ;
#224 = CARTESIAN_POINT ( 'NONE',  ( 0.000000000000000000, 0.000000000000000000, 7.500000000000007105 ) ) ;
#225 = DIRECTION ( 'NONE',  ( 1.000000000000000000, 0.000000000000000000, 0.000000000000000000 ) ) ;
#226 = ORIENTED_EDGE ( 'NONE', *, *, #218, .T. ) ;
#227 = CARTESIAN_POINT ( 'NONE',  ( 0.000000000000000000, 0.000000000000000000, 407.0000000000000000 ) ) ;
#228 = APPROVAL_PERSON_ORGANIZATION ( #108, #331, #258 ) ;
#229 = ORIENTED_EDGE ( 'NONE', *, *, #288, .T. ) ;
#230 = VERTEX_POINT ( 'NONE', #103 ) ;
#231 = APPROVAL_STATUS ( 'not_yet_approved' ) ;
#232 = ORIENTED_EDGE ( 'NONE', *, *, #22, .F. ) ;
#233 = VECTOR ( 'NONE', #310, 1000.000000000000000 ) ;
#234 = CC_DESIGN_APPROVAL ( #189, ( #19 ) ) ;
#235 = CALENDAR_DATE ( 2022, 8, 7 ) ;
#236 = CARTESIAN_POINT ( 'NONE',  ( 0.000000000000000000, 0.000000000000000000, 0.000000000000000000 ) ) ;
#237 = ADVANCED_FACE ( 'NONE', ( #305 ), #219, .T. ) ;
#238 = DATE_TIME_ROLE ( 'classification_date' ) ;
#239 = CC_DESIGN_PERSON_AND_ORGANIZATION_ASSIGNMENT ( #5, #79, ( #56 ) ) ;
#240 = CARTESIAN_POINT ( 'NONE',  ( 0.000000000000000000, 0.000000000000000000, 407.0000000000000000 ) ) ;
#241 = DIRECTION ( 'NONE',  ( 1.000000000000000000, 0.000000000000000000, 0.000000000000000000 ) ) ;
#242 = PLANE ( 'NONE',  #88 ) ;
#243 = CIRCLE ( 'NONE', #295, 6.000000000000000888 ) ;
#244 = FACE_OUTER_BOUND ( 'NONE', #171, .T. ) ;
#245 = ADVANCED_FACE ( 'NONE', ( #267 ), #38, .F. ) ;
#246 = AXIS2_PLACEMENT_3D ( 'NONE', #53, #34, #25 ) ;
#247 = DIRECTION ( 'NONE',  ( -0.000000000000000000, -0.000000000000000000, -1.000000000000000000 ) ) ;
#248 = DIRECTION ( 'NONE',  ( 0.000000000000000000, 0.000000000000000000, 1.000000000000000000 ) ) ;
#249 = DIRECTION ( 'NONE',  ( -0.000000000000000000, -0.000000000000000000, -1.000000000000000000 ) ) ;
#250 = CC_DESIGN_PERSON_AND_ORGANIZATION_ASSIGNMENT ( #49, #52, ( #41 ) ) ;
#251 = ADVANCED_FACE ( 'NONE', ( #367, #172 ), #123, .T. ) ;
#252 = CARTESIAN_POINT ( 'NONE',  ( 0.000000000000000000, 0.000000000000000000, 7.000000000000000000 ) ) ;
#253 = PLANE ( 'NONE',  #284 ) ;
#254 = AXIS2_PLACEMENT_3D ( 'NONE', #188, #6, #97 ) ;
#255 = DIRECTION ( 'NONE',  ( -1.000000000000000000, 1.224646799147351482E-16, 0.000000000000000000 ) ) ;
#256 = EDGE_CURVE ( 'NONE', #31, #138, #98, .T. ) ;
#257 = ORIENTED_EDGE ( 'NONE', *, *, #299, .F. ) ;
#258 = APPROVAL_ROLE ( '' ) ;
#259 = VERTEX_POINT ( 'NONE', #96 ) ;
#260 = APPROVAL_ROLE ( '' ) ;
#261 = ORIENTED_EDGE ( 'NONE', *, *, #196, .F. ) ;
#262 = PERSON_AND_ORGANIZATION ( #358, #340 ) ;
#263 = ORIENTED_EDGE ( 'NONE', *, *, #285, .F. ) ;
#264 = CYLINDRICAL_SURFACE ( 'NONE', #246, 10.00000000000000000 ) ;
#265 = CIRCLE ( 'NONE', #301, 10.00000000000000000 ) ;
#266 = DATE_AND_TIME ( #319, #169 ) ;
#267 = FACE_OUTER_BOUND ( 'NONE', #78, .T. ) ;
#268 = DIRECTION ( 'NONE',  ( 0.000000000000000000, 0.000000000000000000, 1.000000000000000000 ) ) ;
#269 = ORIENTED_EDGE ( 'NONE', *, *, #39, .F. ) ;
#270 = DATE_AND_TIME ( #106, #176 ) ;
#271 = DIRECTION ( 'NONE',  ( 0.000000000000000000, 0.000000000000000000, -1.000000000000000000 ) ) ;
#272 = VERTEX_POINT ( 'NONE', #119 ) ;
#273 =( GEOMETRIC_REPRESENTATION_CONTEXT ( 3 ) GLOBAL_UNCERTAINTY_ASSIGNED_CONTEXT ( ( #14 ) ) GLOBAL_UNIT_ASSIGNED_CONTEXT ( ( #337, #162, #70 ) ) REPRESENTATION_CONTEXT ( 'NONE', 'WORKASPACE' ) );
#274 = DIRECTION ( 'NONE',  ( 0.000000000000000000, 0.000000000000000000, 1.000000000000000000 ) ) ;
#275 = DIRECTION ( 'NONE',  ( 1.000000000000000000, 0.000000000000000000, 0.000000000000000000 ) ) ;
#276 = DIRECTION ( 'NONE',  ( 1.000000000000000000, 0.000000000000000000, 0.000000000000000000 ) ) ;
#277 = CIRCLE ( 'NONE', #378, 3.000000000000000444 ) ;
#278 = FACE_OUTER_BOUND ( 'NONE', #81, .T. ) ;
#279 = APPROVAL ( #24, 'NEURÈENÝ' ) ;
#280 = DIRECTION ( 'NONE',  ( 0.000000000000000000, 0.000000000000000000, 1.000000000000000000 ) ) ;
#281 = DIRECTION ( 'NONE',  ( 1.000000000000000000, 0.000000000000000000, 0.000000000000000000 ) ) ;
#282 = LINE ( 'NONE', #361, #211 ) ;
#283 = DIRECTION ( 'NONE',  ( -0.000000000000000000, -0.000000000000000000, -1.000000000000000000 ) ) ;
#284 = AXIS2_PLACEMENT_3D ( 'NONE', #71, #101, #327 ) ;
#285 = EDGE_CURVE ( 'NONE', #372, #339, #84, .T. ) ;
#286 = APPROVAL_PERSON_ORGANIZATION ( #262, #279, #46 ) ;
#287 = EDGE_LOOP ( 'NONE', ( #148, #226, #371, #347 ) ) ;
#288 = EDGE_CURVE ( 'NONE', #259, #324, #76, .T. ) ;
#289 = ORIENTED_EDGE ( 'NONE', *, *, #39, .T. ) ;
#290 = VERTEX_POINT ( 'NONE', #33 ) ;
#291 = CC_DESIGN_PERSON_AND_ORGANIZATION_ASSIGNMENT ( #82, #342, ( #19 ) ) ;
#292 = CIRCLE ( 'NONE', #50, 3.000000000000000444 ) ;
#293 = EDGE_LOOP ( 'NONE', ( #43, #107 ) ) ;
#294 = COORDINATED_UNIVERSAL_TIME_OFFSET ( 1, 0, .AHEAD. ) ;
#295 = AXIS2_PLACEMENT_3D ( 'NONE', #129, #190, #332 ) ;
#296 = DIRECTION ( 'NONE',  ( -1.000000000000000000, 0.000000000000000000, 0.000000000000000000 ) ) ;
#297 = AXIS2_PLACEMENT_3D ( 'NONE', #187, #307, #281 ) ;
#298 = EDGE_LOOP ( 'NONE', ( #341, #192, #118, #289 ) ) ;
#299 = EDGE_CURVE ( 'NONE', #230, #44, #348, .T. ) ;
#300 = DIRECTION ( 'NONE',  ( 0.000000000000000000, 0.000000000000000000, 1.000000000000000000 ) ) ;
#301 = AXIS2_PLACEMENT_3D ( 'NONE', #214, #303, #241 ) ;
#302 = DIRECTION ( 'NONE',  ( -0.000000000000000000, -0.000000000000000000, -1.000000000000000000 ) ) ;
#303 = DIRECTION ( 'NONE',  ( 0.000000000000000000, 0.000000000000000000, 1.000000000000000000 ) ) ;
#304 = CARTESIAN_POINT ( 'NONE',  ( 0.000000000000000000, 0.000000000000000000, 7.500000000000007105 ) ) ;
#305 = FACE_OUTER_BOUND ( 'NONE', #167, .T. ) ;
#306 = AXIS2_PLACEMENT_3D ( 'NONE', #210, #63, #157 ) ;
#307 = DIRECTION ( 'NONE',  ( 0.000000000000000000, 0.000000000000000000, 1.000000000000000000 ) ) ;
#308 = FACE_OUTER_BOUND ( 'NONE', #51, .T. ) ;
#309 = MECHANICAL_CONTEXT ( 'NONE', #216, 'mechanical' ) ;
#310 = DIRECTION ( 'NONE',  ( -0.000000000000000000, -0.000000000000000000, -1.000000000000000000 ) ) ;
#311 = AXIS2_PLACEMENT_3D ( 'NONE', #304, #65, #276 ) ;
#312 = ORIENTED_EDGE ( 'NONE', *, *, #218, .F. ) ;
#313 = CC_DESIGN_PERSON_AND_ORGANIZATION_ASSIGNMENT ( #204, #140, ( #221 ) ) ;
#314 = ORIENTED_EDGE ( 'NONE', *, *, #320, .T. ) ;
#315 = ORIENTED_EDGE ( 'NONE', *, *, #59, .T. ) ;
#316 = APPLICATION_CONTEXT ( 'configuration controlled 3d designs of mechanical parts and assemblies' ) ;
#317 = AXIS2_PLACEMENT_3D ( 'NONE', #215, #302, #1 ) ;
#318 = ORIENTED_EDGE ( 'NONE', *, *, #80, .F. ) ;
#319 = CALENDAR_DATE ( 2022, 8, 7 ) ;
#320 = EDGE_CURVE ( 'NONE', #138, #20, #265, .T. ) ;
#321 = DIRECTION ( 'NONE',  ( 1.000000000000000000, 0.000000000000000000, 0.000000000000000000 ) ) ;
#322 = APPROVAL_DATE_TIME ( #266, #331 ) ;
#323 = CARTESIAN_POINT ( 'NONE',  ( 0.000000000000000000, 0.000000000000000000, 0.000000000000000000 ) ) ;
#324 = VERTEX_POINT ( 'NONE', #149 ) ;
#325 = CARTESIAN_POINT ( 'NONE',  ( 0.000000000000000000, 0.000000000000000000, 0.000000000000000000 ) ) ;
#326 = DIRECTION ( 'NONE',  ( 0.000000000000000000, 0.000000000000000000, -1.000000000000000000 ) ) ;
#327 = DIRECTION ( 'NONE',  ( 1.000000000000000000, 0.000000000000000000, -0.000000000000000000 ) ) ;
#328 = AXIS2_PLACEMENT_3D ( 'NONE', #69, #249, #357 ) ;
#329 = EDGE_CURVE ( 'NONE', #324, #259, #124, .T. ) ;
#330 = CARTESIAN_POINT ( 'NONE',  ( 0.000000000000000000, 0.000000000000000000, 407.0000000000000000 ) ) ;
#331 = APPROVAL ( #170, 'NEURÈENÝ' ) ;
#332 = DIRECTION ( 'NONE',  ( 1.000000000000000000, 0.000000000000000000, 0.000000000000000000 ) ) ;
#333 = EDGE_CURVE ( 'NONE', #339, #272, #58, .T. ) ;
#334 = CYLINDRICAL_SURFACE ( 'NONE', #191, 3.000000000000000444 ) ;
#335 = EDGE_CURVE ( 'NONE', #133, #44, #18, .T. ) ;
#336 = CYLINDRICAL_SURFACE ( 'NONE', #220, 3.000000000000000444 ) ;
#337 =( LENGTH_UNIT ( ) NAMED_UNIT ( * ) SI_UNIT ( .MILLI., .METRE. ) );
#338 = DIRECTION ( 'NONE',  ( -0.000000000000000000, -0.000000000000000000, -1.000000000000000000 ) ) ;
#339 = VERTEX_POINT ( 'NONE', #194 ) ;
#340 = ORGANIZATION ( 'NEURÈENÝ', 'NEURÈENÝ', '' ) ;
#341 = ORIENTED_EDGE ( 'NONE', *, *, #48, .F. ) ;
#342 = PERSON_AND_ORGANIZATION_ROLE ( 'classification_officer' ) ;
#343 = ORIENTED_EDGE ( 'NONE', *, *, #91, .T. ) ;
#344 = COORDINATED_UNIVERSAL_TIME_OFFSET ( 1, 0, .AHEAD. ) ;
#345 = CIRCLE ( 'NONE', #115, 10.00000000000000000 ) ;
#346 = ADVANCED_FACE ( 'NONE', ( #7 ), #336, .F. ) ;
#347 = ORIENTED_EDGE ( 'NONE', *, *, #109, .F. ) ;
#348 = CIRCLE ( 'NONE', #135, 0.5000000000000004441 ) ;
#349 = ORIENTED_EDGE ( 'NONE', *, *, #256, .F. ) ;
#350 = COORDINATED_UNIVERSAL_TIME_OFFSET ( 1, 0, .AHEAD. ) ;
#351 = EDGE_LOOP ( 'NONE', ( #269, #104 ) ) ;
#352 = CARTESIAN_POINT ( 'NONE',  ( -6.500000000000000888, 7.960204194457796463E-16, 7.500000000000007105 ) ) ;
#353 = CARTESIAN_POINT ( 'NONE',  ( 0.000000000000000000, 0.000000000000000000, 407.0000000000000000 ) ) ;
#354 = VECTOR ( 'NONE', #158, 1000.000000000000000 ) ;
#355 = CARTESIAN_POINT ( 'NONE',  ( 6.500000000000000888, 0.000000000000000000, 7.000000000000002665 ) ) ;
#356 = DIRECTION ( 'NONE',  ( -0.000000000000000000, -0.000000000000000000, -1.000000000000000000 ) ) ;
#357 = DIRECTION ( 'NONE',  ( -1.000000000000000000, 0.000000000000000000, 0.000000000000000000 ) ) ;
#358 = PERSON ( 'NEURÈENÝ', 'NEURÈENÝ', 'NEURÈENÝ', ('NEURÈENÝ'), ('NEURÈENÝ'), ('NEURÈENÝ') ) ;
#359 = FACE_OUTER_BOUND ( 'NONE', #195, .T. ) ;
#360 = CIRCLE ( 'NONE', #209, 3.000000000000000444 ) ;
#361 = CARTESIAN_POINT ( 'NONE',  ( -6.000000000000000888, 0.000000000000000000, 407.0000000000000000 ) ) ;
#362 = AXIS2_PLACEMENT_3D ( 'NONE', #224, #73, #321 ) ;
#363 = CYLINDRICAL_SURFACE ( 'NONE', #328, 6.000000000000000888 ) ;
#364 = ORIENTED_EDGE ( 'NONE', *, *, #22, .T. ) ;
#365 = CLOSED_SHELL ( 'NONE', ( #122, #245, #67, #237, #9, #153, #16, #205, #251, #86, #346 ) ) ;
#366 = CARTESIAN_POINT ( 'NONE',  ( -6.000000000000000888, 0.000000000000000000, 7.500000000000007105 ) ) ;
#367 = FACE_BOUND ( 'NONE', #182, .T. ) ;
#368 = APPROVAL_DATE_TIME ( #17, #279 ) ;
#369 = VERTEX_POINT ( 'NONE', #366 ) ;
#370 = COORDINATED_UNIVERSAL_TIME_OFFSET ( 1, 0, .AHEAD. ) ;
#371 = ORIENTED_EDGE ( 'NONE', *, *, #213, .T. ) ;
#372 = VERTEX_POINT ( 'NONE', #42 ) ;
#373 = PERSON_AND_ORGANIZATION ( #358, #340 ) ;
#374 = FACE_OUTER_BOUND ( 'NONE', #293, .T. ) ;
#375 = DATE_AND_TIME ( #26, #127 ) ;
#376 = CARTESIAN_POINT ( 'NONE',  ( 0.000000000000000000, 0.000000000000000000, 7.000000000000000000 ) ) ;
#377 = DIRECTION ( 'NONE',  ( 0.000000000000000000, 0.000000000000000000, 1.000000000000000000 ) ) ;
#378 = AXIS2_PLACEMENT_3D ( 'NONE', #156, #128, #121 ) ;
#379 = EDGE_LOOP ( 'NONE', ( #29, #229 ) ) ;
#380 = DIRECTION ( 'NONE',  ( 1.000000000000000000, 0.000000000000000000, 0.000000000000000000 ) ) ;
#381 = EDGE_CURVE ( 'NONE', #202, #272, #292, .T. ) ;
ENDSEC;
END-ISO-10303-21;
