ISO-10303-21;
HEADER;
FILE_DESCRIPTION (( 'STEP AP203' ),
    '1' );
FILE_NAME ('0b00.STEP',
    '2022-07-08T15:30:28',
    ( '' ),
    ( '' ),
    'SwSTEP 2.0',
    'SolidWorks 2019',
    '' );
FILE_SCHEMA (( 'CONFIG_CONTROL_DESIGN' ));
ENDSEC;

DATA;
#1 = FACE_OUTER_BOUND ( 'NONE', #141, .T. ) ;
#2 = ADVANCED_FACE ( 'NONE', ( #108 ), #41, .F. ) ;
#3 = DIRECTION ( 'NONE',  ( 1.000000000000000000, 0.000000000000000000, 0.000000000000000000 ) ) ;
#4 = DIRECTION ( 'NONE',  ( -1.000000000000000000, 0.000000000000000000, 0.000000000000000000 ) ) ;
#5 = ADVANCED_FACE ( 'NONE', ( #293 ), #203, .F. ) ;
#6 = APPLICATION_CONTEXT ( 'configuration controlled 3d designs of mechanical parts and assemblies' ) ;
#7 = DIRECTION ( 'NONE',  ( 1.224646799147353207E-16, 1.000000000000000000, -0.000000000000000000 ) ) ;
#8 = DIRECTION ( 'NONE',  ( 0.000000000000000000, 0.000000000000000000, 1.000000000000000000 ) ) ;
#9 = DIRECTION ( 'NONE',  ( 1.000000000000000000, 0.000000000000000000, 0.000000000000000000 ) ) ;
#10 = CC_DESIGN_PERSON_AND_ORGANIZATION_ASSIGNMENT ( #343, #165, ( #351 ) ) ;
#11 = CYLINDRICAL_SURFACE ( 'NONE', #233, 4.000000000000000000 ) ;
#12 = CARTESIAN_POINT ( 'NONE',  ( -4.000000000000000000, 0.000000000000000000, 505.0000000000000000 ) ) ;
#13 = AXIS2_PLACEMENT_3D ( 'NONE', #85, #324, #207 ) ;
#14 = ORIENTED_EDGE ( 'NONE', *, *, #266, .F. ) ;
#15 = ORIENTED_EDGE ( 'NONE', *, *, #316, .T. ) ;
#16 = CARTESIAN_POINT ( 'NONE',  ( 0.000000000000000000, 0.000000000000000000, 5.000000000000000000 ) ) ;
#17 = VERTEX_POINT ( 'NONE', #178 ) ;
#18 = ADVANCED_FACE ( 'NONE', ( #323 ), #118, .T. ) ;
#19 = ORIENTED_EDGE ( 'NONE', *, *, #238, .F. ) ;
#20 = ORIENTED_EDGE ( 'NONE', *, *, #321, .T. ) ;
#21 = APPLICATION_CONTEXT ( 'configuration controlled 3d designs of mechanical parts and assemblies' ) ;
#22 = DIRECTION ( 'NONE',  ( 0.000000000000000000, 0.000000000000000000, 1.000000000000000000 ) ) ;
#23 = CARTESIAN_POINT ( 'NONE',  ( 0.000000000000000000, 0.000000000000000000, 505.0000000000000000 ) ) ;
#24 = PRODUCT_RELATED_PRODUCT_CATEGORY ( 'detail', '', ( #131 ) ) ;
#25 = FACE_BOUND ( 'NONE', #228, .T. ) ;
#26 = PERSON_AND_ORGANIZATION ( #78, #170 ) ;
#27 = DIRECTION ( 'NONE',  ( 1.000000000000000000, 0.000000000000000000, 0.000000000000000000 ) ) ;
#28 = CC_DESIGN_DATE_AND_TIME_ASSIGNMENT ( #355, #114, ( #351 ) ) ;
#29 = DIRECTION ( 'NONE',  ( -1.000000000000000000, 0.000000000000000000, 0.000000000000000000 ) ) ;
#30 = AXIS2_PLACEMENT_3D ( 'NONE', #99, #101, #340 ) ;
#31 = DIRECTION ( 'NONE',  ( -0.000000000000000000, -0.000000000000000000, -1.000000000000000000 ) ) ;
#32 = DIRECTION ( 'NONE',  ( -0.000000000000000000, -0.000000000000000000, -1.000000000000000000 ) ) ;
#33 = ORIENTED_EDGE ( 'NONE', *, *, #197, .F. ) ;
#34 = CLOSED_SHELL ( 'NONE', ( #5, #125, #287, #18, #364, #121, #89, #336, #149, #2, #37 ) ) ;
#35 = DIRECTION ( 'NONE',  ( 1.000000000000000000, 0.000000000000000000, 0.000000000000000000 ) ) ;
#36 = CIRCLE ( 'NONE', #65, 7.000000000000000000 ) ;
#37 = ADVANCED_FACE ( 'NONE', ( #237 ), #359, .F. ) ;
#38 = CARTESIAN_POINT ( 'NONE',  ( 0.000000000000000000, 0.000000000000000000, 0.000000000000000000 ) ) ;
#39 = DIRECTION ( 'NONE',  ( -0.000000000000000000, -0.000000000000000000, -1.000000000000000000 ) ) ;
#40 = ORIENTED_EDGE ( 'NONE', *, *, #205, .F. ) ;
#41 = TOROIDAL_SURFACE ( 'NONE', #87, 4.500000000000000888, 0.5000000000000000000 ) ;
#42 = CARTESIAN_POINT ( 'NONE',  ( -2.000000000000000000, 0.000000000000000000, 0.000000000000000000 ) ) ;
#43 = EDGE_CURVE ( 'NONE', #173, #77, #225, .T. ) ;
#44 = VERTEX_POINT ( 'NONE', #204 ) ;
#45 = CC_DESIGN_APPROVAL ( #308, ( #262 ) ) ;
#46 = EDGE_LOOP ( 'NONE', ( #350, #33, #342, #369 ) ) ;
#47 = COORDINATED_UNIVERSAL_TIME_OFFSET ( 1, 0, .AHEAD. ) ;
#48 = ORIENTED_EDGE ( 'NONE', *, *, #222, .T. ) ;
#49 = APPLICATION_PROTOCOL_DEFINITION ( 'international standard', 'config_control_design', 1994, #21 ) ;
#50 = AXIS2_PLACEMENT_3D ( 'NONE', #59, #360, #295 ) ;
#51 = EDGE_LOOP ( 'NONE', ( #255, #156 ) ) ;
#52 = ORIENTED_EDGE ( 'NONE', *, *, #218, .T. ) ;
#53 = PLANE ( 'NONE',  #50 ) ;
#54 = DESIGN_CONTEXT ( 'detailed design', #21, 'design' ) ;
#55 = DIRECTION ( 'NONE',  ( -0.000000000000000000, -0.000000000000000000, -1.000000000000000000 ) ) ;
#56 = CIRCLE ( 'NONE', #102, 7.000000000000000000 ) ;
#57 = DATE_AND_TIME ( #174, #75 ) ;
#58 = CIRCLE ( 'NONE', #193, 0.5000000000000004441 ) ;
#59 = CARTESIAN_POINT ( 'NONE',  ( 0.000000000000000000, 0.000000000000000000, 0.000000000000000000 ) ) ;
#60 = CARTESIAN_POINT ( 'NONE',  ( 7.000000000000000000, 8.572527594031473190E-16, 5.000000000000000000 ) ) ;
#61 = EDGE_CURVE ( 'NONE', #224, #251, #198, .T. ) ;
#62 = APPROVAL_ROLE ( '' ) ;
#63 = DIRECTION ( 'NONE',  ( 1.000000000000000000, 0.000000000000000000, -0.000000000000000000 ) ) ;
#64 = CARTESIAN_POINT ( 'NONE',  ( 0.000000000000000000, 0.000000000000000000, 5.000000000000000000 ) ) ;
#65 = AXIS2_PLACEMENT_3D ( 'NONE', #16, #375, #290 ) ;
#66 = CARTESIAN_POINT ( 'NONE',  ( 4.000000000000000000, 4.898587196589412829E-16, 505.0000000000000000 ) ) ;
#67 = DIRECTION ( 'NONE',  ( -0.000000000000000000, -0.000000000000000000, -1.000000000000000000 ) ) ;
#68 = APPROVAL ( #288, 'NEURÈENÝ' ) ;
#69 = CARTESIAN_POINT ( 'NONE',  ( -7.000000000000000000, 0.000000000000000000, 5.000000000000000000 ) ) ;
#70 = DIRECTION ( 'NONE',  ( 1.000000000000000000, 0.000000000000000000, 0.000000000000000000 ) ) ;
#71 = CC_DESIGN_PERSON_AND_ORGANIZATION_ASSIGNMENT ( #346, #250, ( #262 ) ) ;
#72 = FACE_OUTER_BOUND ( 'NONE', #46, .T. ) ;
#73 = PERSON_AND_ORGANIZATION_ROLE ( 'design_supplier' ) ;
#74 = ORIENTED_EDGE ( 'NONE', *, *, #344, .F. ) ;
#75 = LOCAL_TIME ( 17, 30, 28.00000000000000000, #90 ) ;
#76 = DATE_AND_TIME ( #129, #213 ) ;
#77 = VERTEX_POINT ( 'NONE', #119 ) ;
#78 = PERSON ( 'NEURÈENÝ', 'NEURÈENÝ', 'NEURÈENÝ', ('NEURÈENÝ'), ('NEURÈENÝ'), ('NEURÈENÝ') ) ;
#79 = DIRECTION ( 'NONE',  ( -0.000000000000000000, -0.000000000000000000, -1.000000000000000000 ) ) ;
#80 = EDGE_LOOP ( 'NONE', ( #284, #315, #48, #186 ) ) ;
#81 = ORIENTED_EDGE ( 'NONE', *, *, #278, .T. ) ;
#82 = LOCAL_TIME ( 17, 30, 28.00000000000000000, #221 ) ;
#83 = ORIENTED_EDGE ( 'NONE', *, *, #231, .F. ) ;
#84 = CC_DESIGN_PERSON_AND_ORGANIZATION_ASSIGNMENT ( #159, #279, ( #154 ) ) ;
#85 = CARTESIAN_POINT ( 'NONE',  ( 0.000000000000000000, 0.000000000000000000, 505.0000000000000000 ) ) ;
#86 = CARTESIAN_POINT ( 'NONE',  ( 0.000000000000000000, 0.000000000000000000, 5.500000000000005329 ) ) ;
#87 = AXIS2_PLACEMENT_3D ( 'NONE', #86, #146, #3 ) ;
#88 = DIRECTION ( 'NONE',  ( -1.000000000000000000, 0.000000000000000000, 0.000000000000000000 ) ) ;
#89 = ADVANCED_FACE ( 'NONE', ( #239, #1 ), #53, .F. ) ;
#90 = COORDINATED_UNIVERSAL_TIME_OFFSET ( 1, 0, .AHEAD. ) ;
#91 = CARTESIAN_POINT ( 'NONE',  ( 0.000000000000000000, 0.000000000000000000, 5.500000000000005329 ) ) ;
#92 = CARTESIAN_POINT ( 'NONE',  ( 0.000000000000000000, 0.000000000000000000, 505.0000000000000000 ) ) ;
#93 = DIRECTION ( 'NONE',  ( 1.000000000000000000, 0.000000000000000000, 0.000000000000000000 ) ) ;
#94 = APPROVAL_PERSON_ORGANIZATION ( #26, #357, #62 ) ;
#95 = EDGE_CURVE ( 'NONE', #163, #44, #265, .T. ) ;
#96 = CARTESIAN_POINT ( 'NONE',  ( 4.500000000000000888, 0.000000000000000000, 5.000000000000002665 ) ) ;
#97 = CARTESIAN_POINT ( 'NONE',  ( -2.000000000000000000, 0.000000000000000000, 505.0000000000000000 ) ) ;
#98 = CARTESIAN_POINT ( 'NONE',  ( 0.000000000000000000, 0.000000000000000000, 0.000000000000000000 ) ) ;
#99 = CARTESIAN_POINT ( 'NONE',  ( 0.000000000000000000, 0.000000000000000000, 0.000000000000000000 ) ) ;
#100 = ORIENTED_EDGE ( 'NONE', *, *, #278, .F. ) ;
#101 = DIRECTION ( 'NONE',  ( 0.000000000000000000, 0.000000000000000000, 1.000000000000000000 ) ) ;
#102 = AXIS2_PLACEMENT_3D ( 'NONE', #175, #208, #235 ) ;
#103 = EDGE_LOOP ( 'NONE', ( #74, #379, #107, #83 ) ) ;
#104 = VECTOR ( 'NONE', #31, 1000.000000000000000 ) ;
#105 = DATE_TIME_ROLE ( 'creation_date' ) ;
#106 = EDGE_CURVE ( 'NONE', #253, #202, #56, .T. ) ;
#107 = ORIENTED_EDGE ( 'NONE', *, *, #106, .T. ) ;
#108 = FACE_OUTER_BOUND ( 'NONE', #232, .T. ) ;
#109 = ORIENTED_EDGE ( 'NONE', *, *, #205, .T. ) ;
#110 = CIRCLE ( 'NONE', #117, 7.000000000000000000 ) ;
#111 = CIRCLE ( 'NONE', #366, 4.500000000000000888 ) ;
#112 = LOCAL_TIME ( 17, 30, 28.00000000000000000, #47 ) ;
#113 = CARTESIAN_POINT ( 'NONE',  ( 7.000000000000000000, 8.572527594031473190E-16, 5.000000000000000000 ) ) ;
#114 = DATE_TIME_ROLE ( 'classification_date' ) ;
#115 = DIRECTION ( 'NONE',  ( 1.000000000000000000, 0.000000000000000000, 0.000000000000000000 ) ) ;
#116 = DIRECTION ( 'NONE',  ( 0.000000000000000000, 0.000000000000000000, 1.000000000000000000 ) ) ;
#117 = AXIS2_PLACEMENT_3D ( 'NONE', #64, #220, #70 ) ;
#118 = CYLINDRICAL_SURFACE ( 'NONE', #252, 7.000000000000000000 ) ;
#119 = CARTESIAN_POINT ( 'NONE',  ( 4.000000000000000000, 4.898587196589412829E-16, 505.0000000000000000 ) ) ;
#120 = DIRECTION ( 'NONE',  ( -1.000000000000000000, 0.000000000000000000, 0.000000000000000000 ) ) ;
#121 = ADVANCED_FACE ( 'NONE', ( #25, #298 ), #356, .T. ) ;
#122 = DIRECTION ( 'NONE',  ( -0.000000000000000000, -0.000000000000000000, -1.000000000000000000 ) ) ;
#123 = CARTESIAN_POINT ( 'NONE',  ( 0.000000000000000000, 0.000000000000000000, 505.0000000000000000 ) ) ;
#124 = CARTESIAN_POINT ( 'NONE',  ( 0.000000000000000000, 0.000000000000000000, 505.0000000000000000 ) ) ;
#125 = ADVANCED_FACE ( 'NONE', ( #145 ), #210, .F. ) ;
#126 = VERTEX_POINT ( 'NONE', #60 ) ;
#127 = DIRECTION ( 'NONE',  ( 0.000000000000000000, 0.000000000000000000, 1.000000000000000000 ) ) ;
#128 = VECTOR ( 'NONE', #277, 1000.000000000000000 ) ;
#129 = CALENDAR_DATE ( 2022, 8, 7 ) ;
#130 = ORIENTED_EDGE ( 'NONE', *, *, #273, .F. ) ;
#131 = PRODUCT ( '0b00', '0b00', '', ( #317 ) ) ;
#132 = DATE_AND_TIME ( #162, #82 ) ;
#133 = EDGE_LOOP ( 'NONE', ( #249, #361 ) ) ;
#134 = EDGE_CURVE ( 'NONE', #126, #253, #380, .T. ) ;
#135 = APPLICATION_PROTOCOL_DEFINITION ( 'international standard', 'config_control_design', 1994, #6 ) ;
#136 = ORIENTED_EDGE ( 'NONE', *, *, #95, .F. ) ;
#137 = CIRCLE ( 'NONE', #311, 2.000000000000000000 ) ;
#138 = PERSON_AND_ORGANIZATION ( #78, #170 ) ;
#139 = ORIENTED_EDGE ( 'NONE', *, *, #222, .F. ) ;
#140 =( NAMED_UNIT ( * ) SI_UNIT ( $, .STERADIAN. ) SOLID_ANGLE_UNIT ( ) );
#141 = EDGE_LOOP ( 'NONE', ( #130, #347 ) ) ;
#142 = CARTESIAN_POINT ( 'NONE',  ( 0.000000000000000000, 0.000000000000000000, 5.500000000000005329 ) ) ;
#143 = CIRCLE ( 'NONE', #337, 4.000000000000000000 ) ;
#144 = DIRECTION ( 'NONE',  ( 0.000000000000000000, 0.000000000000000000, 1.000000000000000000 ) ) ;
#145 = FACE_OUTER_BOUND ( 'NONE', #289, .T. ) ;
#146 = DIRECTION ( 'NONE',  ( 0.000000000000000000, 0.000000000000000000, 1.000000000000000000 ) ) ;
#147 = AXIS2_PLACEMENT_3D ( 'NONE', #283, #79, #312 ) ;
#148 = DIRECTION ( 'NONE',  ( 0.000000000000000000, 0.000000000000000000, -1.000000000000000000 ) ) ;
#149 = ADVANCED_FACE ( 'NONE', ( #234, #352 ), #236, .T. ) ;
#150 = CARTESIAN_POINT ( 'NONE',  ( -7.000000000000000000, 0.000000000000000000, 5.000000000000000000 ) ) ;
#151 = CARTESIAN_POINT ( 'NONE',  ( 2.000000000000000000, 2.449293598294706414E-16, 505.0000000000000000 ) ) ;
#152 = VECTOR ( 'NONE', #157, 1000.000000000000000 ) ;
#153 = CC_DESIGN_APPROVAL ( #68, ( #154 ) ) ;
#154 = PRODUCT_DEFINITION ( 'NEZNÁMÝ', '', #262, #54 ) ;
#155 = DIRECTION ( 'NONE',  ( 0.000000000000000000, 0.000000000000000000, 1.000000000000000000 ) ) ;
#156 = ORIENTED_EDGE ( 'NONE', *, *, #344, .T. ) ;
#157 = DIRECTION ( 'NONE',  ( -0.000000000000000000, -0.000000000000000000, -1.000000000000000000 ) ) ;
#158 = EDGE_LOOP ( 'NONE', ( #304, #52, #160, #15 ) ) ;
#159 = PERSON_AND_ORGANIZATION ( #78, #170 ) ;
#160 = ORIENTED_EDGE ( 'NONE', *, *, #332, .T. ) ;
#161 = CIRCLE ( 'NONE', #268, 2.000000000000000000 ) ;
#162 = CALENDAR_DATE ( 2022, 8, 7 ) ;
#163 = VERTEX_POINT ( 'NONE', #326 ) ;
#164 = EDGE_CURVE ( 'NONE', #319, #282, #181, .T. ) ;
#165 = PERSON_AND_ORGANIZATION_ROLE ( 'classification_officer' ) ;
#166 = ORIENTED_EDGE ( 'NONE', *, *, #209, .F. ) ;
#167 =( LENGTH_UNIT ( ) NAMED_UNIT ( * ) SI_UNIT ( .MILLI., .METRE. ) );
#168 = ORIENTED_EDGE ( 'NONE', *, *, #321, .F. ) ;
#169 = AXIS2_PLACEMENT_3D ( 'NONE', #270, #215, #120 ) ;
#170 = ORGANIZATION ( 'NEURÈENÝ', 'NEURÈENÝ', '' ) ;
#171 = CC_DESIGN_PERSON_AND_ORGANIZATION_ASSIGNMENT ( #370, #73, ( #262 ) ) ;
#172 =( NAMED_UNIT ( * ) PLANE_ANGLE_UNIT ( ) SI_UNIT ( $, .RADIAN. ) );
#173 = VERTEX_POINT ( 'NONE', #211 ) ;
#174 = CALENDAR_DATE ( 2022, 8, 7 ) ;
#175 = CARTESIAN_POINT ( 'NONE',  ( 0.000000000000000000, 0.000000000000000000, 0.000000000000000000 ) ) ;
#176 = CARTESIAN_POINT ( 'NONE',  ( 0.000000000000000000, 0.000000000000000000, 505.0000000000000000 ) ) ;
#177 = SHAPE_DEFINITION_REPRESENTATION ( #353, #339 ) ;
#178 = CARTESIAN_POINT ( 'NONE',  ( -2.000000000000000000, 0.000000000000000000, 505.0000000000000000 ) ) ;
#179 = EDGE_CURVE ( 'NONE', #173, #163, #338, .T. ) ;
#180 = COORDINATED_UNIVERSAL_TIME_OFFSET ( 1, 0, .AHEAD. ) ;
#181 = LINE ( 'NONE', #297, #128 ) ;
#182 = DIRECTION ( 'NONE',  ( 0.000000000000000000, 0.000000000000000000, 1.000000000000000000 ) ) ;
#183 = CARTESIAN_POINT ( 'NONE',  ( 0.000000000000000000, 0.000000000000000000, 5.500000000000005329 ) ) ;
#184 = CC_DESIGN_SECURITY_CLASSIFICATION ( #351, ( #262 ) ) ;
#185 = FACE_OUTER_BOUND ( 'NONE', #257, .T. ) ;
#186 = ORIENTED_EDGE ( 'NONE', *, *, #332, .F. ) ;
#187 = DIRECTION ( 'NONE',  ( -1.000000000000000000, 1.224646799147351482E-16, 0.000000000000000000 ) ) ;
#188 = CARTESIAN_POINT ( 'NONE',  ( 0.000000000000000000, 0.000000000000000000, 505.0000000000000000 ) ) ;
#189 = CARTESIAN_POINT ( 'NONE',  ( 0.000000000000000000, 0.000000000000000000, 5.000000000000000000 ) ) ;
#190 = CYLINDRICAL_SURFACE ( 'NONE', #147, 7.000000000000000000 ) ;
#191 = AXIS2_PLACEMENT_3D ( 'NONE', #176, #144, #322 ) ;
#192 = ORIENTED_EDGE ( 'NONE', *, *, #179, .T. ) ;
#193 = AXIS2_PLACEMENT_3D ( 'NONE', #335, #7, #187 ) ;
#194 = APPROVAL_STATUS ( 'not_yet_approved' ) ;
#195 = ORIENTED_EDGE ( 'NONE', *, *, #43, .T. ) ;
#196 = VERTEX_POINT ( 'NONE', #69 ) ;
#197 = EDGE_CURVE ( 'NONE', #196, #126, #110, .T. ) ;
#198 = CIRCLE ( 'NONE', #217, 4.500000000000000888 ) ;
#199 = DIRECTION ( 'NONE',  ( -1.000000000000000000, 0.000000000000000000, 0.000000000000000000 ) ) ;
#200 = EDGE_LOOP ( 'NONE', ( #195, #20 ) ) ;
#201 = AXIS2_PLACEMENT_3D ( 'NONE', #123, #242, #93 ) ;
#202 = VERTEX_POINT ( 'NONE', #309 ) ;
#203 = CYLINDRICAL_SURFACE ( 'NONE', #272, 2.000000000000000000 ) ;
#204 = CARTESIAN_POINT ( 'NONE',  ( 4.000000000000000000, 4.898587196589412829E-16, 5.500000000000005329 ) ) ;
#205 = EDGE_CURVE ( 'NONE', #44, #251, #261, .T. ) ;
#206 = AXIS2_PLACEMENT_3D ( 'NONE', #240, #8, #334 ) ;
#207 = DIRECTION ( 'NONE',  ( 1.000000000000000000, 0.000000000000000000, -0.000000000000000000 ) ) ;
#208 = DIRECTION ( 'NONE',  ( 0.000000000000000000, 0.000000000000000000, 1.000000000000000000 ) ) ;
#209 = EDGE_CURVE ( 'NONE', #251, #224, #111, .T. ) ;
#210 = TOROIDAL_SURFACE ( 'NONE', #306, 4.500000000000000888, 0.5000000000000000000 ) ;
#211 = CARTESIAN_POINT ( 'NONE',  ( -4.000000000000000000, 0.000000000000000000, 505.0000000000000000 ) ) ;
#212 = CIRCLE ( 'NONE', #201, 2.000000000000000000 ) ;
#213 = LOCAL_TIME ( 17, 30, 28.00000000000000000, #373 ) ;
#214 = LINE ( 'NONE', #66, #104 ) ;
#215 = DIRECTION ( 'NONE',  ( -0.000000000000000000, -0.000000000000000000, -1.000000000000000000 ) ) ;
#216 = DIRECTION ( 'NONE',  ( 0.000000000000000000, 0.000000000000000000, -1.000000000000000000 ) ) ;
#217 = AXIS2_PLACEMENT_3D ( 'NONE', #267, #263, #27 ) ;
#218 = EDGE_CURVE ( 'NONE', #319, #17, #212, .T. ) ;
#219 = ORIENTED_EDGE ( 'NONE', *, *, #316, .F. ) ;
#220 = DIRECTION ( 'NONE',  ( 0.000000000000000000, 0.000000000000000000, 1.000000000000000000 ) ) ;
#221 = COORDINATED_UNIVERSAL_TIME_OFFSET ( 1, 0, .AHEAD. ) ;
#222 = EDGE_CURVE ( 'NONE', #282, #345, #137, .T. ) ;
#223 = DATE_AND_TIME ( #368, #112 ) ;
#224 = VERTEX_POINT ( 'NONE', #329 ) ;
#225 = CIRCLE ( 'NONE', #191, 4.000000000000000000 ) ;
#226 = AXIS2_PLACEMENT_3D ( 'NONE', #91, #22, #115 ) ;
#227 = SECURITY_CLASSIFICATION_LEVEL ( 'unclassified' ) ;
#228 = EDGE_LOOP ( 'NONE', ( #371, #314 ) ) ;
#229 = PERSON_AND_ORGANIZATION ( #78, #170 ) ;
#230 = ORIENTED_EDGE ( 'NONE', *, *, #95, .T. ) ;
#231 = EDGE_CURVE ( 'NONE', #196, #202, #333, .T. ) ;
#232 = EDGE_LOOP ( 'NONE', ( #14, #19, #109, #374 ) ) ;
#233 = AXIS2_PLACEMENT_3D ( 'NONE', #124, #365, #199 ) ;
#234 = FACE_BOUND ( 'NONE', #133, .T. ) ;
#235 = DIRECTION ( 'NONE',  ( 1.000000000000000000, 0.000000000000000000, 0.000000000000000000 ) ) ;
#236 = PLANE ( 'NONE',  #13 ) ;
#237 = FACE_OUTER_BOUND ( 'NONE', #158, .T. ) ;
#238 = EDGE_CURVE ( 'NONE', #44, #163, #143, .T. ) ;
#239 = FACE_BOUND ( 'NONE', #376, .T. ) ;
#240 = CARTESIAN_POINT ( 'NONE',  ( 0.000000000000000000, 0.000000000000000000, 505.0000000000000000 ) ) ;
#241 = CIRCLE ( 'NONE', #294, 7.000000000000000000 ) ;
#242 = DIRECTION ( 'NONE',  ( 0.000000000000000000, 0.000000000000000000, 1.000000000000000000 ) ) ;
#243 = CC_DESIGN_PERSON_AND_ORGANIZATION_ASSIGNMENT ( #138, #254, ( #131 ) ) ;
#244 = DIRECTION ( 'NONE',  ( 0.000000000000000000, -1.000000000000000000, 0.000000000000000000 ) ) ;
#245 = CARTESIAN_POINT ( 'NONE',  ( 2.000000000000000000, 2.449293598294706414E-16, 0.000000000000000000 ) ) ;
#246 = ORIENTED_EDGE ( 'NONE', *, *, #43, .F. ) ;
#247 = DIRECTION ( 'NONE',  ( 1.000000000000000000, 0.000000000000000000, 0.000000000000000000 ) ) ;
#248 = APPROVAL_ROLE ( '' ) ;
#249 = ORIENTED_EDGE ( 'NONE', *, *, #296, .F. ) ;
#250 = PERSON_AND_ORGANIZATION_ROLE ( 'creator' ) ;
#251 = VERTEX_POINT ( 'NONE', #96 ) ;
#252 = AXIS2_PLACEMENT_3D ( 'NONE', #292, #55, #29 ) ;
#253 = VERTEX_POINT ( 'NONE', #367 ) ;
#254 = PERSON_AND_ORGANIZATION_ROLE ( 'design_owner' ) ;
#255 = ORIENTED_EDGE ( 'NONE', *, *, #197, .T. ) ;
#256 = APPROVAL_ROLE ( '' ) ;
#257 = EDGE_LOOP ( 'NONE', ( #168, #81, #318, #285 ) ) ;
#258 = UNCERTAINTY_MEASURE_WITH_UNIT (LENGTH_MEASURE( 1.000000000000000082E-05 ), #167, 'distance_accuracy_value', 'NONE');
#259 = APPROVAL_STATUS ( 'not_yet_approved' ) ;
#260 = DIRECTION ( 'NONE',  ( 1.000000000000000000, 0.000000000000000000, 0.000000000000000000 ) ) ;
#261 = CIRCLE ( 'NONE', #280, 0.5000000000000004441 ) ;
#262 = PRODUCT_DEFINITION_FORMATION_WITH_SPECIFIED_SOURCE ( 'LIBOVOLNÝ', '', #131, .NOT_KNOWN. ) ;
#263 = DIRECTION ( 'NONE',  ( -0.000000000000000000, -0.000000000000000000, -1.000000000000000000 ) ) ;
#264 = CARTESIAN_POINT ( 'NONE',  ( 0.000000000000000000, 0.000000000000000000, 5.000000000000000000 ) ) ;
#265 = CIRCLE ( 'NONE', #226, 4.000000000000000000 ) ;
#266 = EDGE_CURVE ( 'NONE', #163, #224, #58, .T. ) ;
#267 = CARTESIAN_POINT ( 'NONE',  ( 0.000000000000000000, 0.000000000000000000, 5.000000000000000000 ) ) ;
#268 = AXIS2_PLACEMENT_3D ( 'NONE', #305, #122, #35 ) ;
#269 = DIRECTION ( 'NONE',  ( 0.000000000000000000, 0.000000000000000000, -1.000000000000000000 ) ) ;
#270 = CARTESIAN_POINT ( 'NONE',  ( 0.000000000000000000, 0.000000000000000000, 505.0000000000000000 ) ) ;
#271 = CYLINDRICAL_SURFACE ( 'NONE', #169, 4.000000000000000000 ) ;
#272 = AXIS2_PLACEMENT_3D ( 'NONE', #92, #328, #88 ) ;
#273 = EDGE_CURVE ( 'NONE', #202, #253, #241, .T. ) ;
#274 = CIRCLE ( 'NONE', #331, 4.000000000000000000 ) ;
#275 = DIRECTION ( 'NONE',  ( 0.000000000000000000, 0.000000000000000000, 1.000000000000000000 ) ) ;
#276 = FACE_OUTER_BOUND ( 'NONE', #349, .T. ) ;
#277 = DIRECTION ( 'NONE',  ( 0.000000000000000000, 0.000000000000000000, -1.000000000000000000 ) ) ;
#278 = EDGE_CURVE ( 'NONE', #77, #44, #214, .T. ) ;
#279 = PERSON_AND_ORGANIZATION_ROLE ( 'creator' ) ;
#280 = AXIS2_PLACEMENT_3D ( 'NONE', #303, #244, #148 ) ;
#281 = APPROVAL_PERSON_ORGANIZATION ( #229, #308, #248 ) ;
#282 = VERTEX_POINT ( 'NONE', #245 ) ;
#283 = CARTESIAN_POINT ( 'NONE',  ( 0.000000000000000000, 0.000000000000000000, 5.000000000000000000 ) ) ;
#284 = ORIENTED_EDGE ( 'NONE', *, *, #296, .T. ) ;
#285 = ORIENTED_EDGE ( 'NONE', *, *, #179, .F. ) ;
#286 = AXIS2_PLACEMENT_3D ( 'NONE', #23, #269, #4 ) ;
#287 = ADVANCED_FACE ( 'NONE', ( #185 ), #271, .T. ) ;
#288 = APPROVAL_STATUS ( 'not_yet_approved' ) ;
#289 = EDGE_LOOP ( 'NONE', ( #136, #291, #166, #40 ) ) ;
#290 = DIRECTION ( 'NONE',  ( 1.000000000000000000, 0.000000000000000000, 0.000000000000000000 ) ) ;
#291 = ORIENTED_EDGE ( 'NONE', *, *, #266, .T. ) ;
#292 = CARTESIAN_POINT ( 'NONE',  ( 0.000000000000000000, 0.000000000000000000, 5.000000000000000000 ) ) ;
#293 = FACE_OUTER_BOUND ( 'NONE', #80, .T. ) ;
#294 = AXIS2_PLACEMENT_3D ( 'NONE', #98, #155, #302 ) ;
#295 = DIRECTION ( 'NONE',  ( 1.000000000000000000, 0.000000000000000000, -0.000000000000000000 ) ) ;
#296 = EDGE_CURVE ( 'NONE', #17, #319, #358, .T. ) ;
#297 = CARTESIAN_POINT ( 'NONE',  ( 2.000000000000000000, 2.449293598294706414E-16, 505.0000000000000000 ) ) ;
#298 = FACE_OUTER_BOUND ( 'NONE', #51, .T. ) ;
#299 = VECTOR ( 'NONE', #354, 1000.000000000000000 ) ;
#300 = APPROVAL_PERSON_ORGANIZATION ( #348, #68, #256 ) ;
#301 = MANIFOLD_SOLID_BREP ( 'Odebrat vysunutím3', #34 ) ;
#302 = DIRECTION ( 'NONE',  ( 1.000000000000000000, 0.000000000000000000, 0.000000000000000000 ) ) ;
#303 = CARTESIAN_POINT ( 'NONE',  ( 4.500000000000000888, 0.000000000000000000, 5.500000000000005329 ) ) ;
#304 = ORIENTED_EDGE ( 'NONE', *, *, #164, .F. ) ;
#305 = CARTESIAN_POINT ( 'NONE',  ( 0.000000000000000000, 0.000000000000000000, 0.000000000000000000 ) ) ;
#306 = AXIS2_PLACEMENT_3D ( 'NONE', #142, #182, #260 ) ;
#307 = DIRECTION ( 'NONE',  ( 1.000000000000000000, 0.000000000000000000, 0.000000000000000000 ) ) ;
#308 = APPROVAL ( #194, 'NEURÈENÝ' ) ;
#309 = CARTESIAN_POINT ( 'NONE',  ( -7.000000000000000000, 0.000000000000000000, 0.000000000000000000 ) ) ;
#310 = APPROVAL_DATE_TIME ( #132, #68 ) ;
#311 = AXIS2_PLACEMENT_3D ( 'NONE', #38, #39, #307 ) ;
#312 = DIRECTION ( 'NONE',  ( -1.000000000000000000, 0.000000000000000000, 0.000000000000000000 ) ) ;
#313 = CC_DESIGN_APPROVAL ( #357, ( #351 ) ) ;
#314 = ORIENTED_EDGE ( 'NONE', *, *, #61, .T. ) ;
#315 = ORIENTED_EDGE ( 'NONE', *, *, #164, .T. ) ;
#316 = EDGE_CURVE ( 'NONE', #345, #282, #161, .T. ) ;
#317 = MECHANICAL_CONTEXT ( 'NONE', #6, 'mechanical' ) ;
#318 = ORIENTED_EDGE ( 'NONE', *, *, #238, .T. ) ;
#319 = VERTEX_POINT ( 'NONE', #151 ) ;
#320 =( GEOMETRIC_REPRESENTATION_CONTEXT ( 3 ) GLOBAL_UNCERTAINTY_ASSIGNED_CONTEXT ( ( #258 ) ) GLOBAL_UNIT_ASSIGNED_CONTEXT ( ( #167, #172, #140 ) ) REPRESENTATION_CONTEXT ( 'NONE', 'WORKASPACE' ) );
#321 = EDGE_CURVE ( 'NONE', #77, #173, #274, .T. ) ;
#322 = DIRECTION ( 'NONE',  ( 1.000000000000000000, 0.000000000000000000, 0.000000000000000000 ) ) ;
#323 = FACE_OUTER_BOUND ( 'NONE', #103, .T. ) ;
#324 = DIRECTION ( 'NONE',  ( 0.000000000000000000, 0.000000000000000000, 1.000000000000000000 ) ) ;
#325 = LOCAL_TIME ( 17, 30, 28.00000000000000000, #180 ) ;
#326 = CARTESIAN_POINT ( 'NONE',  ( -4.000000000000000000, 0.000000000000000000, 5.500000000000005329 ) ) ;
#327 = APPROVAL_DATE_TIME ( #57, #357 ) ;
#328 = DIRECTION ( 'NONE',  ( 0.000000000000000000, 0.000000000000000000, -1.000000000000000000 ) ) ;
#329 = CARTESIAN_POINT ( 'NONE',  ( -4.500000000000000888, 5.510910596163088569E-16, 5.000000000000002665 ) ) ;
#330 = VECTOR ( 'NONE', #67, 1000.000000000000000 ) ;
#331 = AXIS2_PLACEMENT_3D ( 'NONE', #188, #275, #9 ) ;
#332 = EDGE_CURVE ( 'NONE', #17, #345, #363, .T. ) ;
#333 = LINE ( 'NONE', #150, #152 ) ;
#334 = DIRECTION ( 'NONE',  ( 1.000000000000000000, 0.000000000000000000, 0.000000000000000000 ) ) ;
#335 = CARTESIAN_POINT ( 'NONE',  ( -4.500000000000000888, 5.510910596163089556E-16, 5.500000000000005329 ) ) ;
#336 = ADVANCED_FACE ( 'NONE', ( #276 ), #11, .T. ) ;
#337 = AXIS2_PLACEMENT_3D ( 'NONE', #183, #127, #247 ) ;
#338 = LINE ( 'NONE', #12, #330 ) ;
#339 = ADVANCED_BREP_SHAPE_REPRESENTATION ( '0b00', ( #301, #30 ), #320 ) ;
#340 = DIRECTION ( 'NONE',  ( 1.000000000000000000, 0.000000000000000000, 0.000000000000000000 ) ) ;
#341 = APPROVAL_DATE_TIME ( #223, #308 ) ;
#342 = ORIENTED_EDGE ( 'NONE', *, *, #231, .T. ) ;
#343 = PERSON_AND_ORGANIZATION ( #78, #170 ) ;
#344 = EDGE_CURVE ( 'NONE', #126, #196, #36, .T. ) ;
#345 = VERTEX_POINT ( 'NONE', #42 ) ;
#346 = PERSON_AND_ORGANIZATION ( #78, #170 ) ;
#347 = ORIENTED_EDGE ( 'NONE', *, *, #106, .F. ) ;
#348 = PERSON_AND_ORGANIZATION ( #78, #170 ) ;
#349 = EDGE_LOOP ( 'NONE', ( #100, #246, #192, #230 ) ) ;
#350 = ORIENTED_EDGE ( 'NONE', *, *, #134, .F. ) ;
#351 = SECURITY_CLASSIFICATION ( '', '', #227 ) ;
#352 = FACE_OUTER_BOUND ( 'NONE', #200, .T. ) ;
#353 = PRODUCT_DEFINITION_SHAPE ( 'NONE', 'NONE',  #154 ) ;
#354 = DIRECTION ( 'NONE',  ( -0.000000000000000000, -0.000000000000000000, -1.000000000000000000 ) ) ;
#355 = DATE_AND_TIME ( #378, #325 ) ;
#356 = PLANE ( 'NONE',  #372 ) ;
#357 = APPROVAL ( #259, 'NEURÈENÝ' ) ;
#358 = CIRCLE ( 'NONE', #206, 2.000000000000000000 ) ;
#359 = CYLINDRICAL_SURFACE ( 'NONE', #286, 2.000000000000000000 ) ;
#360 = DIRECTION ( 'NONE',  ( 0.000000000000000000, 0.000000000000000000, 1.000000000000000000 ) ) ;
#361 = ORIENTED_EDGE ( 'NONE', *, *, #218, .F. ) ;
#362 = DIRECTION ( 'NONE',  ( 1.000000000000000000, 0.000000000000000000, 0.000000000000000000 ) ) ;
#363 = LINE ( 'NONE', #97, #381 ) ;
#364 = ADVANCED_FACE ( 'NONE', ( #72 ), #190, .T. ) ;
#365 = DIRECTION ( 'NONE',  ( -0.000000000000000000, -0.000000000000000000, -1.000000000000000000 ) ) ;
#366 = AXIS2_PLACEMENT_3D ( 'NONE', #189, #32, #362 ) ;
#367 = CARTESIAN_POINT ( 'NONE',  ( 7.000000000000000000, 8.572527594031473190E-16, 0.000000000000000000 ) ) ;
#368 = CALENDAR_DATE ( 2022, 8, 7 ) ;
#369 = ORIENTED_EDGE ( 'NONE', *, *, #273, .T. ) ;
#370 = PERSON_AND_ORGANIZATION ( #78, #170 ) ;
#371 = ORIENTED_EDGE ( 'NONE', *, *, #209, .T. ) ;
#372 = AXIS2_PLACEMENT_3D ( 'NONE', #264, #116, #63 ) ;
#373 = COORDINATED_UNIVERSAL_TIME_OFFSET ( 1, 0, .AHEAD. ) ;
#374 = ORIENTED_EDGE ( 'NONE', *, *, #61, .F. ) ;
#375 = DIRECTION ( 'NONE',  ( 0.000000000000000000, 0.000000000000000000, 1.000000000000000000 ) ) ;
#376 = EDGE_LOOP ( 'NONE', ( #219, #139 ) ) ;
#377 = CC_DESIGN_DATE_AND_TIME_ASSIGNMENT ( #76, #105, ( #154 ) ) ;
#378 = CALENDAR_DATE ( 2022, 8, 7 ) ;
#379 = ORIENTED_EDGE ( 'NONE', *, *, #134, .T. ) ;
#380 = LINE ( 'NONE', #113, #299 ) ;
#381 = VECTOR ( 'NONE', #216, 1000.000000000000000 ) ;
ENDSEC;
END-ISO-10303-21;
