ISO-10303-21;
HEADER;
FILE_DESCRIPTION (( 'STEP AP203' ),
    '1' );
FILE_NAME ('33fa.STEP',
    '2022-07-08T15:48:15',
    ( '' ),
    ( '' ),
    'SwSTEP 2.0',
    'SolidWorks 2019',
    '' );
FILE_SCHEMA (( 'CONFIG_CONTROL_DESIGN' ));
ENDSEC;

DATA;
#1 = LOCAL_TIME ( 17, 48, 15.00000000000000000, #22 ) ;
#2 = EDGE_LOOP ( 'NONE', ( #325, #268, #262, #348 ) ) ;
#3 = EDGE_LOOP ( 'NONE', ( #7, #215 ) ) ;
#4 = AXIS2_PLACEMENT_3D ( 'NONE', #164, #78, #338 ) ;
#5 = PERSON_AND_ORGANIZATION ( #344, #206 ) ;
#6 = ORIENTED_EDGE ( 'NONE', *, *, #257, .T. ) ;
#7 = ORIENTED_EDGE ( 'NONE', *, *, #146, .F. ) ;
#8 = LINE ( 'NONE', #168, #270 ) ;
#9 = ORIENTED_EDGE ( 'NONE', *, *, #31, .F. ) ;
#10 = CARTESIAN_POINT ( 'NONE',  ( 2.500000000000000000, 3.061616997868383141E-16, 153.0000000000000000 ) ) ;
#11 = DIRECTION ( 'NONE',  ( 0.000000000000000000, 0.000000000000000000, -1.000000000000000000 ) ) ;
#12 = VERTEX_POINT ( 'NONE', #331 ) ;
#13 = SECURITY_CLASSIFICATION ( '', '', #263 ) ;
#14 = FACE_OUTER_BOUND ( 'NONE', #333, .T. ) ;
#15 = CARTESIAN_POINT ( 'NONE',  ( 0.000000000000000000, 0.000000000000000000, 153.0000000000000000 ) ) ;
#16 = CARTESIAN_POINT ( 'NONE',  ( 0.000000000000000000, 0.000000000000000000, 0.000000000000000000 ) ) ;
#17 = APPROVAL ( #343, 'NEURÈENÝ' ) ;
#18 = CARTESIAN_POINT ( 'NONE',  ( -2.500000000000000000, 0.000000000000000000, 153.0000000000000000 ) ) ;
#19 = EDGE_CURVE ( 'NONE', #120, #275, #76, .T. ) ;
#20 = TOROIDAL_SURFACE ( 'NONE', #4, 2.799999999999999822, 0.2999999999999999889 ) ;
#21 = AXIS2_PLACEMENT_3D ( 'NONE', #216, #163, #61 ) ;
#22 = COORDINATED_UNIVERSAL_TIME_OFFSET ( 1, 0, .AHEAD. ) ;
#23 = VERTEX_POINT ( 'NONE', #363 ) ;
#24 = APPROVAL ( #177, 'NEURÈENÝ' ) ;
#25 = ORIENTED_EDGE ( 'NONE', *, *, #292, .T. ) ;
#26 = PERSON_AND_ORGANIZATION ( #344, #206 ) ;
#27 = LOCAL_TIME ( 17, 48, 15.00000000000000000, #214 ) ;
#28 = VERTEX_POINT ( 'NONE', #336 ) ;
#29 = PERSON_AND_ORGANIZATION_ROLE ( 'creator' ) ;
#30 = ADVANCED_FACE ( 'NONE', ( #59 ), #272, .T. ) ;
#31 = EDGE_CURVE ( 'NONE', #264, #28, #302, .T. ) ;
#32 = VERTEX_POINT ( 'NONE', #247 ) ;
#33 = FACE_OUTER_BOUND ( 'NONE', #37, .T. ) ;
#34 = LOCAL_TIME ( 17, 48, 15.00000000000000000, #115 ) ;
#35 = DIRECTION ( 'NONE',  ( -0.000000000000000000, -0.000000000000000000, -1.000000000000000000 ) ) ;
#36 = FACE_OUTER_BOUND ( 'NONE', #100, .T. ) ;
#37 = EDGE_LOOP ( 'NONE', ( #368, #291 ) ) ;
#38 = VECTOR ( 'NONE', #250, 1000.000000000000000 ) ;
#39 = CARTESIAN_POINT ( 'NONE',  ( 2.799999999999999822, 0.000000000000000000, 3.299999999999997158 ) ) ;
#40 = CARTESIAN_POINT ( 'NONE',  ( 0.000000000000000000, 0.000000000000000000, 153.0000000000000000 ) ) ;
#41 = CC_DESIGN_PERSON_AND_ORGANIZATION_ASSIGNMENT ( #297, #232, ( #289 ) ) ;
#42 = DIRECTION ( 'NONE',  ( -0.000000000000000000, -0.000000000000000000, -1.000000000000000000 ) ) ;
#43 = DIRECTION ( 'NONE',  ( -0.000000000000000000, -0.000000000000000000, -1.000000000000000000 ) ) ;
#44 = DESIGN_CONTEXT ( 'detailed design', #217, 'design' ) ;
#45 = PLANE ( 'NONE',  #130 ) ;
#46 = CARTESIAN_POINT ( 'NONE',  ( 5.000000000000000000, 6.123233995736766282E-16, 3.000000000000000000 ) ) ;
#47 = LOCAL_TIME ( 17, 48, 15.00000000000000000, #178 ) ;
#48 = DIRECTION ( 'NONE',  ( 1.000000000000000000, 0.000000000000000000, 0.000000000000000000 ) ) ;
#49 = EDGE_CURVE ( 'NONE', #275, #279, #193, .T. ) ;
#50 = CIRCLE ( 'NONE', #356, 5.000000000000000000 ) ;
#51 = CC_DESIGN_SECURITY_CLASSIFICATION ( #13, ( #201 ) ) ;
#52 = DATE_TIME_ROLE ( 'classification_date' ) ;
#53 = PRODUCT_RELATED_PRODUCT_CATEGORY ( 'detail', '', ( #113 ) ) ;
#54 = ORIENTED_EDGE ( 'NONE', *, *, #31, .T. ) ;
#55 = EDGE_LOOP ( 'NONE', ( #167, #88 ) ) ;
#56 = AXIS2_PLACEMENT_3D ( 'NONE', #192, #274, #332 ) ;
#57 = DATE_AND_TIME ( #118, #47 ) ;
#58 = APPROVAL_ROLE ( '' ) ;
#59 = FACE_OUTER_BOUND ( 'NONE', #295, .T. ) ;
#60 = EDGE_CURVE ( 'NONE', #23, #94, #353, .T. ) ;
#61 = DIRECTION ( 'NONE',  ( 1.000000000000000000, 0.000000000000000000, 0.000000000000000000 ) ) ;
#62 = DIRECTION ( 'NONE',  ( -0.000000000000000000, -0.000000000000000000, -1.000000000000000000 ) ) ;
#63 = DIRECTION ( 'NONE',  ( 0.000000000000000000, 0.000000000000000000, -1.000000000000000000 ) ) ;
#64 = CIRCLE ( 'NONE', #135, 5.000000000000000000 ) ;
#65 = CARTESIAN_POINT ( 'NONE',  ( -5.000000000000000000, 0.000000000000000000, 0.000000000000000000 ) ) ;
#66 = DIRECTION ( 'NONE',  ( 0.000000000000000000, 0.000000000000000000, 1.000000000000000000 ) ) ;
#67 = AXIS2_PLACEMENT_3D ( 'NONE', #105, #197, #287 ) ;
#68 = DIRECTION ( 'NONE',  ( -1.000000000000000000, 0.000000000000000000, 0.000000000000000000 ) ) ;
#69 = CARTESIAN_POINT ( 'NONE',  ( 1.250000000000000000, 1.530808498934191571E-16, 153.0000000000000000 ) ) ;
#70 = LINE ( 'NONE', #10, #242 ) ;
#71 = AXIS2_PLACEMENT_3D ( 'NONE', #39, #131, #219 ) ;
#72 = ADVANCED_FACE ( 'NONE', ( #309 ), #159, .T. ) ;
#73 =( NAMED_UNIT ( * ) SI_UNIT ( $, .STERADIAN. ) SOLID_ANGLE_UNIT ( ) );
#74 = DIRECTION ( 'NONE',  ( 0.000000000000000000, 0.000000000000000000, 1.000000000000000000 ) ) ;
#75 = FACE_BOUND ( 'NONE', #207, .T. ) ;
#76 = CIRCLE ( 'NONE', #209, 5.000000000000000000 ) ;
#77 = ADVANCED_FACE ( 'NONE', ( #218 ), #20, .F. ) ;
#78 = DIRECTION ( 'NONE',  ( 0.000000000000000000, 0.000000000000000000, 1.000000000000000000 ) ) ;
#79 = APPROVAL_ROLE ( '' ) ;
#80 = CARTESIAN_POINT ( 'NONE',  ( -2.500000000000000000, 0.000000000000000000, 153.0000000000000000 ) ) ;
#81 = VECTOR ( 'NONE', #286, 1000.000000000000000 ) ;
#82 = APPROVAL_PERSON_ORGANIZATION ( #5, #84, #58 ) ;
#83 = DIRECTION ( 'NONE',  ( 1.000000000000000000, 0.000000000000000000, 0.000000000000000000 ) ) ;
#84 = APPROVAL ( #328, 'NEURÈENÝ' ) ;
#85 = CALENDAR_DATE ( 2022, 8, 7 ) ;
#86 = ORIENTED_EDGE ( 'NONE', *, *, #321, .F. ) ;
#87 = PERSON_AND_ORGANIZATION_ROLE ( 'design_supplier' ) ;
#88 = ORIENTED_EDGE ( 'NONE', *, *, #252, .T. ) ;
#89 = ORIENTED_EDGE ( 'NONE', *, *, #314, .F. ) ;
#90 = CALENDAR_DATE ( 2022, 8, 7 ) ;
#91 = VERTEX_POINT ( 'NONE', #127 ) ;
#92 = AXIS2_PLACEMENT_3D ( 'NONE', #172, #107, #109 ) ;
#93 = PERSON_AND_ORGANIZATION ( #344, #206 ) ;
#94 = VERTEX_POINT ( 'NONE', #199 ) ;
#95 = CARTESIAN_POINT ( 'NONE',  ( 0.000000000000000000, 0.000000000000000000, 3.000000000000000000 ) ) ;
#96 = CIRCLE ( 'NONE', #67, 2.500000000000000000 ) ;
#97 = DIRECTION ( 'NONE',  ( 0.000000000000000000, 0.000000000000000000, 1.000000000000000000 ) ) ;
#98 = ORIENTED_EDGE ( 'NONE', *, *, #378, .T. ) ;
#99 = CARTESIAN_POINT ( 'NONE',  ( 0.000000000000000000, 0.000000000000000000, 3.000000000000000000 ) ) ;
#100 = EDGE_LOOP ( 'NONE', ( #366, #54, #221, #379 ) ) ;
#101 = CARTESIAN_POINT ( 'NONE',  ( 0.000000000000000000, 0.000000000000000000, 153.0000000000000000 ) ) ;
#102 = ADVANCED_FACE ( 'NONE', ( #111 ), #237, .F. ) ;
#103 = EDGE_LOOP ( 'NONE', ( #9, #381, #117, #239 ) ) ;
#104 = DIRECTION ( 'NONE',  ( 0.000000000000000000, 0.000000000000000000, 1.000000000000000000 ) ) ;
#105 = CARTESIAN_POINT ( 'NONE',  ( 0.000000000000000000, 0.000000000000000000, 153.0000000000000000 ) ) ;
#106 = EDGE_CURVE ( 'NONE', #150, #122, #96, .T. ) ;
#107 = DIRECTION ( 'NONE',  ( 0.000000000000000000, 0.000000000000000000, -1.000000000000000000 ) ) ;
#108 = CALENDAR_DATE ( 2022, 8, 7 ) ;
#109 = DIRECTION ( 'NONE',  ( -1.000000000000000000, 0.000000000000000000, 0.000000000000000000 ) ) ;
#110 = MECHANICAL_CONTEXT ( 'NONE', #165, 'mechanical' ) ;
#111 = FACE_OUTER_BOUND ( 'NONE', #290, .T. ) ;
#112 = AXIS2_PLACEMENT_3D ( 'NONE', #377, #171, #256 ) ;
#113 = PRODUCT ( '33fa', '33fa', '', ( #110 ) ) ;
#114 = CARTESIAN_POINT ( 'NONE',  ( 0.000000000000000000, 0.000000000000000000, 0.000000000000000000 ) ) ;
#115 = COORDINATED_UNIVERSAL_TIME_OFFSET ( 1, 0, .AHEAD. ) ;
#116 = ORIENTED_EDGE ( 'NONE', *, *, #340, .T. ) ;
#117 = ORIENTED_EDGE ( 'NONE', *, *, #222, .T. ) ;
#118 = CALENDAR_DATE ( 2022, 8, 7 ) ;
#119 = AXIS2_PLACEMENT_3D ( 'NONE', #282, #243, #361 ) ;
#120 = VERTEX_POINT ( 'NONE', #46 ) ;
#121 = ORIENTED_EDGE ( 'NONE', *, *, #49, .T. ) ;
#122 = VERTEX_POINT ( 'NONE', #254 ) ;
#123 = CC_DESIGN_PERSON_AND_ORGANIZATION_ASSIGNMENT ( #299, #293, ( #13 ) ) ;
#124 = CARTESIAN_POINT ( 'NONE',  ( 0.000000000000000000, 0.000000000000000000, 3.299999999999997158 ) ) ;
#125 = DIRECTION ( 'NONE',  ( -1.000000000000000000, 0.000000000000000000, 0.000000000000000000 ) ) ;
#126 = LINE ( 'NONE', #365, #185 ) ;
#127 = CARTESIAN_POINT ( 'NONE',  ( -2.799999999999999822, 3.429011037612589276E-16, 2.999999999999998668 ) ) ;
#128 = CIRCLE ( 'NONE', #228, 2.799999999999999822 ) ;
#129 = CARTESIAN_POINT ( 'NONE',  ( 2.799999999999999822, 0.000000000000000000, 2.999999999999998668 ) ) ;
#130 = AXIS2_PLACEMENT_3D ( 'NONE', #114, #261, #175 ) ;
#131 = DIRECTION ( 'NONE',  ( 0.000000000000000000, -1.000000000000000000, 0.000000000000000000 ) ) ;
#132 = DIRECTION ( 'NONE',  ( 0.000000000000000000, 0.000000000000000000, 1.000000000000000000 ) ) ;
#133 = PLANE ( 'NONE',  #345 ) ;
#134 = DIRECTION ( 'NONE',  ( 1.000000000000000000, 0.000000000000000000, 0.000000000000000000 ) ) ;
#135 = AXIS2_PLACEMENT_3D ( 'NONE', #313, #229, #83 ) ;
#136 = CARTESIAN_POINT ( 'NONE',  ( 0.000000000000000000, 0.000000000000000000, 3.000000000000000000 ) ) ;
#137 = CC_DESIGN_DATE_AND_TIME_ASSIGNMENT ( #380, #52, ( #13 ) ) ;
#138 = DIRECTION ( 'NONE',  ( 1.000000000000000000, 0.000000000000000000, 0.000000000000000000 ) ) ;
#139 = AXIS2_PLACEMENT_3D ( 'NONE', #95, #62, #241 ) ;
#140 = CARTESIAN_POINT ( 'NONE',  ( 0.000000000000000000, 0.000000000000000000, 3.000000000000000000 ) ) ;
#141 = APPROVAL_DATE_TIME ( #347, #17 ) ;
#142 = EDGE_CURVE ( 'NONE', #28, #32, #320, .T. ) ;
#143 = ORIENTED_EDGE ( 'NONE', *, *, #280, .F. ) ;
#144 = APPROVAL_ROLE ( '' ) ;
#145 = ORIENTED_EDGE ( 'NONE', *, *, #106, .T. ) ;
#146 = EDGE_CURVE ( 'NONE', #184, #264, #370, .T. ) ;
#147 = MANIFOLD_SOLID_BREP ( 'Odebrat vysunutím3', #307 ) ;
#148 = APPROVAL_DATE_TIME ( #210, #24 ) ;
#149 = APPROVAL_PERSON_ORGANIZATION ( #284, #17, #79 ) ;
#150 = VERTEX_POINT ( 'NONE', #80 ) ;
#151 = CALENDAR_DATE ( 2022, 8, 7 ) ;
#152 = ADVANCED_FACE ( 'NONE', ( #169 ), #374, .T. ) ;
#153 = AXIS2_PLACEMENT_3D ( 'NONE', #227, #42, #48 ) ;
#154 = ORIENTED_EDGE ( 'NONE', *, *, #321, .T. ) ;
#155 = EDGE_CURVE ( 'NONE', #264, #184, #301, .T. ) ;
#156 = ORIENTED_EDGE ( 'NONE', *, *, #292, .F. ) ;
#157 = AXIS2_PLACEMENT_3D ( 'NONE', #101, #11, #68 ) ;
#158 = CARTESIAN_POINT ( 'NONE',  ( -5.000000000000000000, 0.000000000000000000, 3.000000000000000000 ) ) ;
#159 = CYLINDRICAL_SURFACE ( 'NONE', #191, 2.500000000000000000 ) ;
#160 = DIRECTION ( 'NONE',  ( -0.000000000000000000, -0.000000000000000000, -1.000000000000000000 ) ) ;
#161 = ORIENTED_EDGE ( 'NONE', *, *, #203, .F. ) ;
#162 = EDGE_CURVE ( 'NONE', #150, #23, #196, .T. ) ;
#163 = DIRECTION ( 'NONE',  ( -0.000000000000000000, -0.000000000000000000, -1.000000000000000000 ) ) ;
#164 = CARTESIAN_POINT ( 'NONE',  ( 0.000000000000000000, 0.000000000000000000, 3.299999999999997158 ) ) ;
#165 = APPLICATION_CONTEXT ( 'configuration controlled 3d designs of mechanical parts and assemblies' ) ;
#166 = FACE_BOUND ( 'NONE', #3, .T. ) ;
#167 = ORIENTED_EDGE ( 'NONE', *, *, #213, .T. ) ;
#168 = CARTESIAN_POINT ( 'NONE',  ( 5.000000000000000000, 6.123233995736766282E-16, 3.000000000000000000 ) ) ;
#169 = FACE_OUTER_BOUND ( 'NONE', #354, .T. ) ;
#170 = CARTESIAN_POINT ( 'NONE',  ( 0.000000000000000000, 0.000000000000000000, 0.000000000000000000 ) ) ;
#171 = DIRECTION ( 'NONE',  ( 0.000000000000000000, 0.000000000000000000, 1.000000000000000000 ) ) ;
#172 = CARTESIAN_POINT ( 'NONE',  ( 0.000000000000000000, 0.000000000000000000, 153.0000000000000000 ) ) ;
#173 = ADVANCED_FACE ( 'NONE', ( #283 ), #317, .F. ) ;
#174 = PERSON_AND_ORGANIZATION_ROLE ( 'design_owner' ) ;
#175 = DIRECTION ( 'NONE',  ( 1.000000000000000000, 0.000000000000000000, -0.000000000000000000 ) ) ;
#176 = EDGE_LOOP ( 'NONE', ( #182, #116, #154, #350 ) ) ;
#177 = APPROVAL_STATUS ( 'not_yet_approved' ) ;
#178 = COORDINATED_UNIVERSAL_TIME_OFFSET ( 1, 0, .AHEAD. ) ;
#179 = ORIENTED_EDGE ( 'NONE', *, *, #244, .F. ) ;
#180 = DATE_AND_TIME ( #85, #248 ) ;
#181 = ADVANCED_FACE ( 'NONE', ( #224 ), #341, .T. ) ;
#182 = ORIENTED_EDGE ( 'NONE', *, *, #364, .F. ) ;
#183 = CARTESIAN_POINT ( 'NONE',  ( 1.250000000000000000, 1.530808498934191571E-16, 153.0000000000000000 ) ) ;
#184 = VERTEX_POINT ( 'NONE', #285 ) ;
#185 = VECTOR ( 'NONE', #63, 1000.000000000000000 ) ;
#186 = DIRECTION ( 'NONE',  ( 0.000000000000000000, 0.000000000000000000, 1.000000000000000000 ) ) ;
#187 = EDGE_LOOP ( 'NONE', ( #212, #179 ) ) ;
#188 = DIRECTION ( 'NONE',  ( 1.000000000000000000, 0.000000000000000000, 0.000000000000000000 ) ) ;
#189 = CARTESIAN_POINT ( 'NONE',  ( -5.000000000000000000, 0.000000000000000000, 3.000000000000000000 ) ) ;
#190 = CC_DESIGN_PERSON_AND_ORGANIZATION_ASSIGNMENT ( #26, #29, ( #201 ) ) ;
#191 = AXIS2_PLACEMENT_3D ( 'NONE', #40, #35, #125 ) ;
#192 = CARTESIAN_POINT ( 'NONE',  ( -2.799999999999999822, 3.429011037612588783E-16, 3.299999999999997158 ) ) ;
#193 = LINE ( 'NONE', #189, #236 ) ;
#194 = AXIS2_PLACEMENT_3D ( 'NONE', #170, #204, #138 ) ;
#195 = DIRECTION ( 'NONE',  ( 1.000000000000000000, 0.000000000000000000, -0.000000000000000000 ) ) ;
#196 = LINE ( 'NONE', #18, #81 ) ;
#197 = DIRECTION ( 'NONE',  ( 0.000000000000000000, 0.000000000000000000, 1.000000000000000000 ) ) ;
#198 = UNCERTAINTY_MEASURE_WITH_UNIT (LENGTH_MEASURE( 1.000000000000000082E-05 ), #260, 'distance_accuracy_value', 'NONE');
#199 = CARTESIAN_POINT ( 'NONE',  ( 2.500000000000000000, 3.061616997868383141E-16, 3.299999999999997158 ) ) ;
#200 = AXIS2_PLACEMENT_3D ( 'NONE', #140, #253, #202 ) ;
#201 = PRODUCT_DEFINITION_FORMATION_WITH_SPECIFIED_SOURCE ( 'LIBOVOLNÝ', '', #113, .NOT_KNOWN. ) ;
#202 = DIRECTION ( 'NONE',  ( -1.000000000000000000, 0.000000000000000000, 0.000000000000000000 ) ) ;
#203 = EDGE_CURVE ( 'NONE', #275, #120, #310, .T. ) ;
#204 = DIRECTION ( 'NONE',  ( 0.000000000000000000, 0.000000000000000000, 1.000000000000000000 ) ) ;
#205 =( NAMED_UNIT ( * ) PLANE_ANGLE_UNIT ( ) SI_UNIT ( $, .RADIAN. ) );
#206 = ORGANIZATION ( 'NEURÈENÝ', 'NEURÈENÝ', '' ) ;
#207 = EDGE_LOOP ( 'NONE', ( #89, #230 ) ) ;
#208 = ORIENTED_EDGE ( 'NONE', *, *, #340, .F. ) ;
#209 = AXIS2_PLACEMENT_3D ( 'NONE', #246, #66, #308 ) ;
#210 = DATE_AND_TIME ( #90, #27 ) ;
#211 = AXIS2_PLACEMENT_3D ( 'NONE', #136, #342, #337 ) ;
#212 = ORIENTED_EDGE ( 'NONE', *, *, #378, .F. ) ;
#213 = EDGE_CURVE ( 'NONE', #298, #91, #294, .T. ) ;
#214 = COORDINATED_UNIVERSAL_TIME_OFFSET ( 1, 0, .AHEAD. ) ;
#215 = ORIENTED_EDGE ( 'NONE', *, *, #155, .F. ) ;
#216 = CARTESIAN_POINT ( 'NONE',  ( 0.000000000000000000, 0.000000000000000000, 3.000000000000000000 ) ) ;
#217 = APPLICATION_CONTEXT ( 'configuration controlled 3d designs of mechanical parts and assemblies' ) ;
#218 = FACE_OUTER_BOUND ( 'NONE', #2, .T. ) ;
#219 = DIRECTION ( 'NONE',  ( 0.000000000000000000, 0.000000000000000000, -1.000000000000000000 ) ) ;
#220 = DIRECTION ( 'NONE',  ( -0.000000000000000000, -0.000000000000000000, -1.000000000000000000 ) ) ;
#221 = ORIENTED_EDGE ( 'NONE', *, *, #142, .T. ) ;
#222 = EDGE_CURVE ( 'NONE', #184, #32, #126, .T. ) ;
#223 = AXIS2_PLACEMENT_3D ( 'NONE', #315, #43, #225 ) ;
#224 = FACE_OUTER_BOUND ( 'NONE', #335, .T. ) ;
#225 = DIRECTION ( 'NONE',  ( -1.000000000000000000, 0.000000000000000000, 0.000000000000000000 ) ) ;
#226 = APPLICATION_PROTOCOL_DEFINITION ( 'international standard', 'config_control_design', 1994, #217 ) ;
#227 = CARTESIAN_POINT ( 'NONE',  ( 0.000000000000000000, 0.000000000000000000, 0.000000000000000000 ) ) ;
#228 = AXIS2_PLACEMENT_3D ( 'NONE', #99, #304, #306 ) ;
#229 = DIRECTION ( 'NONE',  ( 0.000000000000000000, 0.000000000000000000, 1.000000000000000000 ) ) ;
#230 = ORIENTED_EDGE ( 'NONE', *, *, #142, .F. ) ;
#231 = ORIENTED_EDGE ( 'NONE', *, *, #162, .T. ) ;
#232 = PERSON_AND_ORGANIZATION_ROLE ( 'creator' ) ;
#233 = CIRCLE ( 'NONE', #56, 0.2999999999999999334 ) ;
#234 = ORIENTED_EDGE ( 'NONE', *, *, #49, .F. ) ;
#235 = SHAPE_DEFINITION_REPRESENTATION ( #376, #326 ) ;
#236 = VECTOR ( 'NONE', #277, 1000.000000000000000 ) ;
#237 = TOROIDAL_SURFACE ( 'NONE', #330, 2.799999999999999822, 0.2999999999999999889 ) ;
#238 = ADVANCED_FACE ( 'NONE', ( #36 ), #360, .F. ) ;
#239 = ORIENTED_EDGE ( 'NONE', *, *, #314, .T. ) ;
#240 = CIRCLE ( 'NONE', #71, 0.2999999999999999334 ) ;
#241 = DIRECTION ( 'NONE',  ( -1.000000000000000000, 0.000000000000000000, 0.000000000000000000 ) ) ;
#242 = VECTOR ( 'NONE', #220, 1000.000000000000000 ) ;
#243 = DIRECTION ( 'NONE',  ( 0.000000000000000000, 0.000000000000000000, 1.000000000000000000 ) ) ;
#244 = EDGE_CURVE ( 'NONE', #12, #279, #50, .T. ) ;
#245 = CARTESIAN_POINT ( 'NONE',  ( 0.000000000000000000, 0.000000000000000000, 3.000000000000000000 ) ) ;
#246 = CARTESIAN_POINT ( 'NONE',  ( 0.000000000000000000, 0.000000000000000000, 3.000000000000000000 ) ) ;
#247 = CARTESIAN_POINT ( 'NONE',  ( -1.250000000000000000, 0.000000000000000000, 0.000000000000000000 ) ) ;
#248 = LOCAL_TIME ( 17, 48, 15.00000000000000000, #265 ) ;
#249 = DIRECTION ( 'NONE',  ( 1.000000000000000000, 0.000000000000000000, 0.000000000000000000 ) ) ;
#250 = DIRECTION ( 'NONE',  ( 0.000000000000000000, 0.000000000000000000, -1.000000000000000000 ) ) ;
#251 = PLANE ( 'NONE',  #357 ) ;
#252 = EDGE_CURVE ( 'NONE', #91, #298, #128, .T. ) ;
#253 = DIRECTION ( 'NONE',  ( -0.000000000000000000, -0.000000000000000000, -1.000000000000000000 ) ) ;
#254 = CARTESIAN_POINT ( 'NONE',  ( 2.500000000000000000, 3.061616997868383141E-16, 153.0000000000000000 ) ) ;
#255 = PERSON_AND_ORGANIZATION ( #344, #206 ) ;
#256 = DIRECTION ( 'NONE',  ( 1.000000000000000000, 0.000000000000000000, 0.000000000000000000 ) ) ;
#257 = EDGE_CURVE ( 'NONE', #94, #298, #240, .T. ) ;
#258 = APPLICATION_PROTOCOL_DEFINITION ( 'international standard', 'config_control_design', 1994, #165 ) ;
#259 = DIRECTION ( 'NONE',  ( 1.000000000000000000, 0.000000000000000000, 0.000000000000000000 ) ) ;
#260 =( LENGTH_UNIT ( ) NAMED_UNIT ( * ) SI_UNIT ( .MILLI., .METRE. ) );
#261 = DIRECTION ( 'NONE',  ( 0.000000000000000000, 0.000000000000000000, 1.000000000000000000 ) ) ;
#262 = ORIENTED_EDGE ( 'NONE', *, *, #213, .F. ) ;
#263 = SECURITY_CLASSIFICATION_LEVEL ( 'unclassified' ) ;
#264 = VERTEX_POINT ( 'NONE', #183 ) ;
#265 = COORDINATED_UNIVERSAL_TIME_OFFSET ( 1, 0, .AHEAD. ) ;
#266 = AXIS2_PLACEMENT_3D ( 'NONE', #15, #132, #259 ) ;
#267 = APPROVAL_PERSON_ORGANIZATION ( #93, #24, #144 ) ;
#268 = ORIENTED_EDGE ( 'NONE', *, *, #280, .T. ) ;
#269 = ORIENTED_EDGE ( 'NONE', *, *, #364, .T. ) ;
#270 = VECTOR ( 'NONE', #281, 1000.000000000000000 ) ;
#271 = ADVANCED_FACE ( 'NONE', ( #278, #33 ), #133, .T. ) ;
#272 = CYLINDRICAL_SURFACE ( 'NONE', #139, 5.000000000000000000 ) ;
#273 = CC_DESIGN_APPROVAL ( #84, ( #13 ) ) ;
#274 = DIRECTION ( 'NONE',  ( 1.224646799147353207E-16, 1.000000000000000000, -0.000000000000000000 ) ) ;
#275 = VERTEX_POINT ( 'NONE', #158 ) ;
#276 = DIRECTION ( 'NONE',  ( 1.000000000000000000, 0.000000000000000000, 0.000000000000000000 ) ) ;
#277 = DIRECTION ( 'NONE',  ( -0.000000000000000000, -0.000000000000000000, -1.000000000000000000 ) ) ;
#278 = FACE_BOUND ( 'NONE', #55, .T. ) ;
#279 = VERTEX_POINT ( 'NONE', #65 ) ;
#280 = EDGE_CURVE ( 'NONE', #23, #91, #233, .T. ) ;
#281 = DIRECTION ( 'NONE',  ( -0.000000000000000000, -0.000000000000000000, -1.000000000000000000 ) ) ;
#282 = CARTESIAN_POINT ( 'NONE',  ( 0.000000000000000000, 0.000000000000000000, 3.299999999999997158 ) ) ;
#283 = FACE_OUTER_BOUND ( 'NONE', #103, .T. ) ;
#284 = PERSON_AND_ORGANIZATION ( #344, #206 ) ;
#285 = CARTESIAN_POINT ( 'NONE',  ( -1.250000000000000000, 0.000000000000000000, 153.0000000000000000 ) ) ;
#286 = DIRECTION ( 'NONE',  ( -0.000000000000000000, -0.000000000000000000, -1.000000000000000000 ) ) ;
#287 = DIRECTION ( 'NONE',  ( 1.000000000000000000, 0.000000000000000000, 0.000000000000000000 ) ) ;
#288 = AXIS2_PLACEMENT_3D ( 'NONE', #362, #160, #249 ) ;
#289 = PRODUCT_DEFINITION ( 'NEZNÁMÝ', '', #201, #44 ) ;
#290 = EDGE_LOOP ( 'NONE', ( #143, #86, #6, #324 ) ) ;
#291 = ORIENTED_EDGE ( 'NONE', *, *, #19, .T. ) ;
#292 = EDGE_CURVE ( 'NONE', #120, #12, #8, .T. ) ;
#293 = PERSON_AND_ORGANIZATION_ROLE ( 'classification_officer' ) ;
#294 = CIRCLE ( 'NONE', #21, 2.799999999999999822 ) ;
#295 = EDGE_LOOP ( 'NONE', ( #327, #25, #329, #234 ) ) ;
#296 = CC_DESIGN_PERSON_AND_ORGANIZATION_ASSIGNMENT ( #351, #87, ( #201 ) ) ;
#297 = PERSON_AND_ORGANIZATION ( #344, #206 ) ;
#298 = VERTEX_POINT ( 'NONE', #129 ) ;
#299 = PERSON_AND_ORGANIZATION ( #344, #206 ) ;
#300 = DIRECTION ( 'NONE',  ( 1.000000000000000000, 0.000000000000000000, -0.000000000000000000 ) ) ;
#301 = CIRCLE ( 'NONE', #112, 1.250000000000000000 ) ;
#302 = LINE ( 'NONE', #69, #38 ) ;
#303 = CC_DESIGN_APPROVAL ( #17, ( #289 ) ) ;
#304 = DIRECTION ( 'NONE',  ( -0.000000000000000000, -0.000000000000000000, -1.000000000000000000 ) ) ;
#305 = ORIENTED_EDGE ( 'NONE', *, *, #106, .F. ) ;
#306 = DIRECTION ( 'NONE',  ( 1.000000000000000000, 0.000000000000000000, 0.000000000000000000 ) ) ;
#307 = CLOSED_SHELL ( 'NONE', ( #238, #77, #72, #30, #152, #271, #371, #181, #349, #102, #173 ) ) ;
#308 = DIRECTION ( 'NONE',  ( 1.000000000000000000, 0.000000000000000000, 0.000000000000000000 ) ) ;
#309 = FACE_OUTER_BOUND ( 'NONE', #176, .T. ) ;
#310 = CIRCLE ( 'NONE', #211, 5.000000000000000000 ) ;
#311 = CARTESIAN_POINT ( 'NONE',  ( 0.000000000000000000, 0.000000000000000000, 153.0000000000000000 ) ) ;
#312 = CARTESIAN_POINT ( 'NONE',  ( 0.000000000000000000, 0.000000000000000000, 3.299999999999997158 ) ) ;
#313 = CARTESIAN_POINT ( 'NONE',  ( 0.000000000000000000, 0.000000000000000000, 0.000000000000000000 ) ) ;
#314 = EDGE_CURVE ( 'NONE', #32, #28, #372, .T. ) ;
#315 = CARTESIAN_POINT ( 'NONE',  ( 0.000000000000000000, 0.000000000000000000, 153.0000000000000000 ) ) ;
#316 = DIRECTION ( 'NONE',  ( 0.000000000000000000, 0.000000000000000000, 1.000000000000000000 ) ) ;
#317 = CYLINDRICAL_SURFACE ( 'NONE', #92, 1.250000000000000000 ) ;
#318 = CIRCLE ( 'NONE', #346, 2.500000000000000000 ) ;
#319 = DIRECTION ( 'NONE',  ( 1.000000000000000000, 0.000000000000000000, 0.000000000000000000 ) ) ;
#320 = CIRCLE ( 'NONE', #153, 1.250000000000000000 ) ;
#321 = EDGE_CURVE ( 'NONE', #94, #23, #339, .T. ) ;
#322 = CC_DESIGN_PERSON_AND_ORGANIZATION_ASSIGNMENT ( #255, #174, ( #113 ) ) ;
#323 = CC_DESIGN_APPROVAL ( #24, ( #201 ) ) ;
#324 = ORIENTED_EDGE ( 'NONE', *, *, #252, .F. ) ;
#325 = ORIENTED_EDGE ( 'NONE', *, *, #60, .F. ) ;
#326 = ADVANCED_BREP_SHAPE_REPRESENTATION ( '33fa', ( #147, #194 ), #367 ) ;
#327 = ORIENTED_EDGE ( 'NONE', *, *, #19, .F. ) ;
#328 = APPROVAL_STATUS ( 'not_yet_approved' ) ;
#329 = ORIENTED_EDGE ( 'NONE', *, *, #244, .T. ) ;
#330 = AXIS2_PLACEMENT_3D ( 'NONE', #312, #74, #134 ) ;
#331 = CARTESIAN_POINT ( 'NONE',  ( 5.000000000000000000, 6.123233995736766282E-16, 0.000000000000000000 ) ) ;
#332 = DIRECTION ( 'NONE',  ( -1.000000000000000000, 1.224646799147353207E-16, 0.000000000000000000 ) ) ;
#333 = EDGE_LOOP ( 'NONE', ( #145, #269 ) ) ;
#334 = DIRECTION ( 'NONE',  ( 0.000000000000000000, 0.000000000000000000, 1.000000000000000000 ) ) ;
#335 = EDGE_LOOP ( 'NONE', ( #208, #305, #231, #358 ) ) ;
#336 = CARTESIAN_POINT ( 'NONE',  ( 1.250000000000000000, 1.530808498934191571E-16, 0.000000000000000000 ) ) ;
#337 = DIRECTION ( 'NONE',  ( 1.000000000000000000, 0.000000000000000000, 0.000000000000000000 ) ) ;
#338 = DIRECTION ( 'NONE',  ( 1.000000000000000000, 0.000000000000000000, 0.000000000000000000 ) ) ;
#339 = CIRCLE ( 'NONE', #373, 2.500000000000000000 ) ;
#340 = EDGE_CURVE ( 'NONE', #122, #94, #70, .T. ) ;
#341 = CYLINDRICAL_SURFACE ( 'NONE', #223, 2.500000000000000000 ) ;
#342 = DIRECTION ( 'NONE',  ( 0.000000000000000000, 0.000000000000000000, 1.000000000000000000 ) ) ;
#343 = APPROVAL_STATUS ( 'not_yet_approved' ) ;
#344 = PERSON ( 'NEURÈENÝ', 'NEURÈENÝ', 'NEURÈENÝ', ('NEURÈENÝ'), ('NEURÈENÝ'), ('NEURÈENÝ') ) ;
#345 = AXIS2_PLACEMENT_3D ( 'NONE', #245, #334, #300 ) ;
#346 = AXIS2_PLACEMENT_3D ( 'NONE', #311, #316, #319 ) ;
#347 = DATE_AND_TIME ( #108, #1 ) ;
#348 = ORIENTED_EDGE ( 'NONE', *, *, #257, .F. ) ;
#349 = ADVANCED_FACE ( 'NONE', ( #166, #14 ), #251, .T. ) ;
#350 = ORIENTED_EDGE ( 'NONE', *, *, #162, .F. ) ;
#351 = PERSON_AND_ORGANIZATION ( #344, #206 ) ;
#352 = APPROVAL_DATE_TIME ( #180, #84 ) ;
#353 = CIRCLE ( 'NONE', #119, 2.500000000000000000 ) ;
#354 = EDGE_LOOP ( 'NONE', ( #156, #161, #121, #98 ) ) ;
#355 = DATE_TIME_ROLE ( 'creation_date' ) ;
#356 = AXIS2_PLACEMENT_3D ( 'NONE', #16, #186, #276 ) ;
#357 = AXIS2_PLACEMENT_3D ( 'NONE', #369, #104, #195 ) ;
#358 = ORIENTED_EDGE ( 'NONE', *, *, #60, .T. ) ;
#359 = CC_DESIGN_DATE_AND_TIME_ASSIGNMENT ( #57, #355, ( #289 ) ) ;
#360 = CYLINDRICAL_SURFACE ( 'NONE', #157, 1.250000000000000000 ) ;
#361 = DIRECTION ( 'NONE',  ( 1.000000000000000000, 0.000000000000000000, 0.000000000000000000 ) ) ;
#362 = CARTESIAN_POINT ( 'NONE',  ( 0.000000000000000000, 0.000000000000000000, 0.000000000000000000 ) ) ;
#363 = CARTESIAN_POINT ( 'NONE',  ( -2.500000000000000000, 0.000000000000000000, 3.299999999999997158 ) ) ;
#364 = EDGE_CURVE ( 'NONE', #122, #150, #318, .T. ) ;
#365 = CARTESIAN_POINT ( 'NONE',  ( -1.250000000000000000, 0.000000000000000000, 153.0000000000000000 ) ) ;
#366 = ORIENTED_EDGE ( 'NONE', *, *, #146, .T. ) ;
#367 =( GEOMETRIC_REPRESENTATION_CONTEXT ( 3 ) GLOBAL_UNCERTAINTY_ASSIGNED_CONTEXT ( ( #198 ) ) GLOBAL_UNIT_ASSIGNED_CONTEXT ( ( #260, #205, #73 ) ) REPRESENTATION_CONTEXT ( 'NONE', 'WORKASPACE' ) );
#368 = ORIENTED_EDGE ( 'NONE', *, *, #203, .T. ) ;
#369 = CARTESIAN_POINT ( 'NONE',  ( 0.000000000000000000, 0.000000000000000000, 153.0000000000000000 ) ) ;
#370 = CIRCLE ( 'NONE', #266, 1.250000000000000000 ) ;
#371 = ADVANCED_FACE ( 'NONE', ( #75, #375 ), #45, .F. ) ;
#372 = CIRCLE ( 'NONE', #288, 1.250000000000000000 ) ;
#373 = AXIS2_PLACEMENT_3D ( 'NONE', #124, #97, #188 ) ;
#374 = CYLINDRICAL_SURFACE ( 'NONE', #200, 5.000000000000000000 ) ;
#375 = FACE_OUTER_BOUND ( 'NONE', #187, .T. ) ;
#376 = PRODUCT_DEFINITION_SHAPE ( 'NONE', 'NONE',  #289 ) ;
#377 = CARTESIAN_POINT ( 'NONE',  ( 0.000000000000000000, 0.000000000000000000, 153.0000000000000000 ) ) ;
#378 = EDGE_CURVE ( 'NONE', #279, #12, #64, .T. ) ;
#379 = ORIENTED_EDGE ( 'NONE', *, *, #222, .F. ) ;
#380 = DATE_AND_TIME ( #151, #34 ) ;
#381 = ORIENTED_EDGE ( 'NONE', *, *, #155, .T. ) ;
ENDSEC;
END-ISO-10303-21;
