ISO-10303-21;
HEADER;
FILE_DESCRIPTION (( 'STEP AP203' ),
    '1' );
FILE_NAME ('127c.STEP',
    '2022-07-08T14:18:52',
    ( '' ),
    ( '' ),
    'SwSTEP 2.0',
    'SolidWorks 2019',
    '' );
FILE_SCHEMA (( 'CONFIG_CONTROL_DESIGN' ));
ENDSEC;

DATA;
#1 = EDGE_LOOP ( 'NONE', ( #22, #48 ) ) ;
#2 = DIRECTION ( 'NONE',  ( -0.000000000000000000, -0.000000000000000000, -1.000000000000000000 ) ) ;
#3 = ORIENTED_EDGE ( 'NONE', *, *, #81, .T. ) ;
#4 = LOCAL_TIME ( 16, 18, 52.00000000000000000, #191 ) ;
#5 = CARTESIAN_POINT ( 'NONE',  ( 8.000000000000000000, 9.797174393178825657E-16, 407.0000000000000000 ) ) ;
#6 = CC_DESIGN_PERSON_AND_ORGANIZATION_ASSIGNMENT ( #72, #337, ( #302 ) ) ;
#7 = ORIENTED_EDGE ( 'NONE', *, *, #135, .T. ) ;
#8 = CARTESIAN_POINT ( 'NONE',  ( 0.000000000000000000, 0.000000000000000000, 7.699999999999985079 ) ) ;
#9 = CYLINDRICAL_SURFACE ( 'NONE', #155, 8.000000000000000000 ) ;
#10 = EDGE_LOOP ( 'NONE', ( #96, #151, #247, #303 ) ) ;
#11 = DIRECTION ( 'NONE',  ( 0.000000000000000000, 0.000000000000000000, 1.000000000000000000 ) ) ;
#12 = DIRECTION ( 'NONE',  ( 1.224646799147353207E-16, 1.000000000000000000, -0.000000000000000000 ) ) ;
#13 = EDGE_LOOP ( 'NONE', ( #132, #343, #266, #123 ) ) ;
#14 = DIRECTION ( 'NONE',  ( 0.000000000000000000, 0.000000000000000000, 1.000000000000000000 ) ) ;
#15 = ORIENTED_EDGE ( 'NONE', *, *, #38, .F. ) ;
#16 = APPLICATION_CONTEXT ( 'configuration controlled 3d designs of mechanical parts and assemblies' ) ;
#17 = DATE_AND_TIME ( #168, #320 ) ;
#18 = LINE ( 'NONE', #274, #77 ) ;
#19 = FACE_OUTER_BOUND ( 'NONE', #158, .T. ) ;
#20 = CARTESIAN_POINT ( 'NONE',  ( 11.00000000000000000, 1.347111479062088405E-15, 7.000000000000000000 ) ) ;
#21 = EDGE_CURVE ( 'NONE', #30, #190, #262, .T. ) ;
#22 = ORIENTED_EDGE ( 'NONE', *, *, #355, .F. ) ;
#23 = AXIS2_PLACEMENT_3D ( 'NONE', #281, #312, #349 ) ;
#24 = EDGE_CURVE ( 'NONE', #201, #294, #145, .T. ) ;
#25 = CC_DESIGN_APPROVAL ( #326, ( #374 ) ) ;
#26 = CARTESIAN_POINT ( 'NONE',  ( 0.000000000000000000, 0.000000000000000000, 407.0000000000000000 ) ) ;
#27 = COORDINATED_UNIVERSAL_TIME_OFFSET ( 1, 0, .AHEAD. ) ;
#28 = AXIS2_PLACEMENT_3D ( 'NONE', #26, #14, #278 ) ;
#29 = AXIS2_PLACEMENT_3D ( 'NONE', #124, #33, #62 ) ;
#30 = VERTEX_POINT ( 'NONE', #170 ) ;
#31 = EDGE_LOOP ( 'NONE', ( #372, #356, #219, #41 ) ) ;
#32 = ADVANCED_FACE ( 'NONE', ( #280, #19 ), #139, .T. ) ;
#33 = DIRECTION ( 'NONE',  ( 0.000000000000000000, 0.000000000000000000, 1.000000000000000000 ) ) ;
#34 = EDGE_LOOP ( 'NONE', ( #209, #369 ) ) ;
#35 = DIRECTION ( 'NONE',  ( 1.000000000000000000, 0.000000000000000000, 0.000000000000000000 ) ) ;
#36 = CARTESIAN_POINT ( 'NONE',  ( 0.000000000000000000, 0.000000000000000000, 7.000000000000000000 ) ) ;
#37 = ORIENTED_EDGE ( 'NONE', *, *, #135, .F. ) ;
#38 = EDGE_CURVE ( 'NONE', #79, #70, #215, .T. ) ;
#39 = FACE_OUTER_BOUND ( 'NONE', #130, .T. ) ;
#40 = DIRECTION ( 'NONE',  ( 0.000000000000000000, 0.000000000000000000, -1.000000000000000000 ) ) ;
#41 = ORIENTED_EDGE ( 'NONE', *, *, #89, .F. ) ;
#42 = APPLICATION_PROTOCOL_DEFINITION ( 'international standard', 'config_control_design', 1994, #314 ) ;
#43 = CARTESIAN_POINT ( 'NONE',  ( -8.000000000000000000, 0.000000000000000000, 407.0000000000000000 ) ) ;
#44 = CC_DESIGN_SECURITY_CLASSIFICATION ( #374, ( #352 ) ) ;
#45 = DIRECTION ( 'NONE',  ( 0.000000000000000000, 0.000000000000000000, 1.000000000000000000 ) ) ;
#46 = APPROVAL_DATE_TIME ( #318, #330 ) ;
#47 = FACE_OUTER_BOUND ( 'NONE', #105, .T. ) ;
#48 = ORIENTED_EDGE ( 'NONE', *, *, #287, .F. ) ;
#49 = DIRECTION ( 'NONE',  ( -1.000000000000000000, 0.000000000000000000, 0.000000000000000000 ) ) ;
#50 = DIRECTION ( 'NONE',  ( 0.000000000000000000, 0.000000000000000000, 1.000000000000000000 ) ) ;
#51 = EDGE_CURVE ( 'NONE', #201, #30, #18, .T. ) ;
#52 = VERTEX_POINT ( 'NONE', #117 ) ;
#53 = COORDINATED_UNIVERSAL_TIME_OFFSET ( 1, 0, .AHEAD. ) ;
#54 = DIRECTION ( 'NONE',  ( 0.000000000000000000, 0.000000000000000000, 1.000000000000000000 ) ) ;
#55 = COORDINATED_UNIVERSAL_TIME_OFFSET ( 1, 0, .AHEAD. ) ;
#56 = EDGE_CURVE ( 'NONE', #299, #271, #249, .T. ) ;
#57 = DESIGN_CONTEXT ( 'detailed design', #314, 'design' ) ;
#58 = SHAPE_DEFINITION_REPRESENTATION ( #80, #276 ) ;
#59 = EDGE_CURVE ( 'NONE', #190, #79, #344, .T. ) ;
#60 = CIRCLE ( 'NONE', #90, 6.000000000000000888 ) ;
#61 = ADVANCED_FACE ( 'NONE', ( #115 ), #154, .F. ) ;
#62 = DIRECTION ( 'NONE',  ( 1.000000000000000000, 0.000000000000000000, 0.000000000000000000 ) ) ;
#63 = VERTEX_POINT ( 'NONE', #110 ) ;
#64 = CARTESIAN_POINT ( 'NONE',  ( -11.00000000000000000, 0.000000000000000000, 7.000000000000000000 ) ) ;
#65 = UNCERTAINTY_MEASURE_WITH_UNIT (LENGTH_MEASURE( 1.000000000000000082E-05 ), #203, 'distance_accuracy_value', 'NONE');
#66 = AXIS2_PLACEMENT_3D ( 'NONE', #297, #2, #327 ) ;
#67 = CARTESIAN_POINT ( 'NONE',  ( 6.000000000000000888, 7.347880794884120722E-16, 407.0000000000000000 ) ) ;
#68 = ORIENTED_EDGE ( 'NONE', *, *, #56, .T. ) ;
#69 = DIRECTION ( 'NONE',  ( -1.000000000000000000, 0.000000000000000000, 0.000000000000000000 ) ) ;
#70 = VERTEX_POINT ( 'NONE', #107 ) ;
#71 = PRODUCT_RELATED_PRODUCT_CATEGORY ( 'detail', '', ( #305 ) ) ;
#72 = PERSON_AND_ORGANIZATION ( #188, #100 ) ;
#73 = LINE ( 'NONE', #98, #164 ) ;
#74 = CARTESIAN_POINT ( 'NONE',  ( 0.000000000000000000, 0.000000000000000000, 7.699999999999985079 ) ) ;
#75 = APPLICATION_PROTOCOL_DEFINITION ( 'international standard', 'config_control_design', 1994, #16 ) ;
#76 = DIRECTION ( 'NONE',  ( -0.000000000000000000, -0.000000000000000000, -1.000000000000000000 ) ) ;
#77 = VECTOR ( 'NONE', #138, 1000.000000000000000 ) ;
#78 = CIRCLE ( 'NONE', #94, 6.000000000000000888 ) ;
#79 = VERTEX_POINT ( 'NONE', #231 ) ;
#80 = PRODUCT_DEFINITION_SHAPE ( 'NONE', 'NONE',  #302 ) ;
#81 = EDGE_CURVE ( 'NONE', #93, #52, #83, .T. ) ;
#82 = DIRECTION ( 'NONE',  ( 0.000000000000000000, 0.000000000000000000, 1.000000000000000000 ) ) ;
#83 = LINE ( 'NONE', #230, #207 ) ;
#84 = ORIENTED_EDGE ( 'NONE', *, *, #89, .T. ) ;
#85 = PERSON_AND_ORGANIZATION ( #188, #100 ) ;
#86 = FACE_BOUND ( 'NONE', #160, .T. ) ;
#87 = PERSON_AND_ORGANIZATION_ROLE ( 'design_owner' ) ;
#88 = DIRECTION ( 'NONE',  ( 1.000000000000000000, 0.000000000000000000, -0.000000000000000000 ) ) ;
#89 = EDGE_CURVE ( 'NONE', #70, #79, #333, .T. ) ;
#90 = AXIS2_PLACEMENT_3D ( 'NONE', #308, #370, #220 ) ;
#91 = CIRCLE ( 'NONE', #253, 8.000000000000000000 ) ;
#92 = AXIS2_PLACEMENT_3D ( 'NONE', #140, #341, #106 ) ;
#93 = VERTEX_POINT ( 'NONE', #20 ) ;
#94 = AXIS2_PLACEMENT_3D ( 'NONE', #270, #244, #186 ) ;
#95 = CARTESIAN_POINT ( 'NONE',  ( 0.000000000000000000, 0.000000000000000000, 407.0000000000000000 ) ) ;
#96 = ORIENTED_EDGE ( 'NONE', *, *, #121, .F. ) ;
#97 = CARTESIAN_POINT ( 'NONE',  ( 0.000000000000000000, 0.000000000000000000, 7.699999999999985079 ) ) ;
#98 = CARTESIAN_POINT ( 'NONE',  ( 8.000000000000000000, 9.797174393178825657E-16, 407.0000000000000000 ) ) ;
#99 = AXIS2_PLACEMENT_3D ( 'NONE', #319, #255, #134 ) ;
#100 = ORGANIZATION ( 'NEURÈENÝ', 'NEURÈENÝ', '' ) ;
#101 = CARTESIAN_POINT ( 'NONE',  ( 0.000000000000000000, 0.000000000000000000, 0.000000000000000000 ) ) ;
#102 = ORIENTED_EDGE ( 'NONE', *, *, #24, .T. ) ;
#103 = COORDINATED_UNIVERSAL_TIME_OFFSET ( 1, 0, .AHEAD. ) ;
#104 = DIRECTION ( 'NONE',  ( 1.000000000000000000, 0.000000000000000000, 0.000000000000000000 ) ) ;
#105 = EDGE_LOOP ( 'NONE', ( #125, #7, #152, #359 ) ) ;
#106 = DIRECTION ( 'NONE',  ( -1.000000000000000000, 0.000000000000000000, 0.000000000000000000 ) ) ;
#107 = CARTESIAN_POINT ( 'NONE',  ( -8.699999999999999289, 1.065442715258197248E-15, 6.999999999999992006 ) ) ;
#108 = EDGE_LOOP ( 'NONE', ( #324, #68, #228, #245 ) ) ;
#109 = FACE_OUTER_BOUND ( 'NONE', #10, .T. ) ;
#110 = CARTESIAN_POINT ( 'NONE',  ( -6.000000000000000888, 0.000000000000000000, 407.0000000000000000 ) ) ;
#111 = AXIS2_PLACEMENT_3D ( 'NONE', #371, #227, #368 ) ;
#112 = AXIS2_PLACEMENT_3D ( 'NONE', #8, #126, #268 ) ;
#113 = ORIENTED_EDGE ( 'NONE', *, *, #21, .F. ) ;
#114 = CARTESIAN_POINT ( 'NONE',  ( 0.000000000000000000, 0.000000000000000000, 0.000000000000000000 ) ) ;
#115 = FACE_OUTER_BOUND ( 'NONE', #347, .T. ) ;
#116 = PERSON_AND_ORGANIZATION ( #188, #100 ) ;
#117 = CARTESIAN_POINT ( 'NONE',  ( 11.00000000000000000, 1.347111479062088405E-15, 0.000000000000000000 ) ) ;
#118 = CIRCLE ( 'NONE', #325, 0.6999999999999992895 ) ;
#119 = PERSON_AND_ORGANIZATION ( #188, #100 ) ;
#120 = DATE_AND_TIME ( #290, #363 ) ;
#121 = EDGE_CURVE ( 'NONE', #294, #201, #91, .T. ) ;
#122 = EDGE_CURVE ( 'NONE', #63, #222, #257, .T. ) ;
#123 = ORIENTED_EDGE ( 'NONE', *, *, #21, .T. ) ;
#124 = CARTESIAN_POINT ( 'NONE',  ( 0.000000000000000000, 0.000000000000000000, 7.000000000000000000 ) ) ;
#125 = ORIENTED_EDGE ( 'NONE', *, *, #56, .F. ) ;
#126 = DIRECTION ( 'NONE',  ( 0.000000000000000000, 0.000000000000000000, 1.000000000000000000 ) ) ;
#127 = VERTEX_POINT ( 'NONE', #174 ) ;
#128 = DIRECTION ( 'NONE',  ( -1.000000000000000000, 0.000000000000000000, 0.000000000000000000 ) ) ;
#129 = FACE_OUTER_BOUND ( 'NONE', #317, .T. ) ;
#130 = EDGE_LOOP ( 'NONE', ( #263, #3, #224, #282 ) ) ;
#131 = DIRECTION ( 'NONE',  ( -1.000000000000000000, 1.224646799147353207E-16, 0.000000000000000000 ) ) ;
#132 = ORIENTED_EDGE ( 'NONE', *, *, #295, .F. ) ;
#133 =( NAMED_UNIT ( * ) SI_UNIT ( $, .STERADIAN. ) SOLID_ANGLE_UNIT ( ) );
#134 = DIRECTION ( 'NONE',  ( 1.000000000000000000, 0.000000000000000000, 0.000000000000000000 ) ) ;
#135 = EDGE_CURVE ( 'NONE', #299, #63, #184, .T. ) ;
#136 = ORIENTED_EDGE ( 'NONE', *, *, #121, .T. ) ;
#137 = APPROVAL_STATUS ( 'not_yet_approved' ) ;
#138 = DIRECTION ( 'NONE',  ( -0.000000000000000000, -0.000000000000000000, -1.000000000000000000 ) ) ;
#139 = PLANE ( 'NONE',  #28 ) ;
#140 = CARTESIAN_POINT ( 'NONE',  ( 0.000000000000000000, 0.000000000000000000, 407.0000000000000000 ) ) ;
#141 = CARTESIAN_POINT ( 'NONE',  ( -6.000000000000000888, 0.000000000000000000, 407.0000000000000000 ) ) ;
#142 = AXIS2_PLACEMENT_3D ( 'NONE', #200, #76, #351 ) ;
#143 = CALENDAR_DATE ( 2022, 8, 7 ) ;
#144 = DIRECTION ( 'NONE',  ( -0.000000000000000000, -0.000000000000000000, -1.000000000000000000 ) ) ;
#145 = CIRCLE ( 'NONE', #194, 8.000000000000000000 ) ;
#146 = APPROVAL_ROLE ( '' ) ;
#147 = CC_DESIGN_PERSON_AND_ORGANIZATION_ASSIGNMENT ( #196, #87, ( #305 ) ) ;
#148 = ADVANCED_FACE ( 'NONE', ( #86, #205 ), #342, .T. ) ;
#149 = CC_DESIGN_APPROVAL ( #229, ( #352 ) ) ;
#150 = ADVANCED_FACE ( 'NONE', ( #47 ), #169, .F. ) ;
#151 = ORIENTED_EDGE ( 'NONE', *, *, #295, .T. ) ;
#152 = ORIENTED_EDGE ( 'NONE', *, *, #122, .T. ) ;
#153 = PLANE ( 'NONE',  #254 ) ;
#154 = TOROIDAL_SURFACE ( 'NONE', #373, 8.699999999999999289, 0.6999999999999999556 ) ;
#155 = AXIS2_PLACEMENT_3D ( 'NONE', #166, #360, #358 ) ;
#156 = DIRECTION ( 'NONE',  ( 0.000000000000000000, 0.000000000000000000, -1.000000000000000000 ) ) ;
#157 = ADVANCED_FACE ( 'NONE', ( #240 ), #208, .F. ) ;
#158 = EDGE_LOOP ( 'NONE', ( #102, #136 ) ) ;
#159 = DIRECTION ( 'NONE',  ( 0.000000000000000000, 0.000000000000000000, 1.000000000000000000 ) ) ;
#160 = EDGE_LOOP ( 'NONE', ( #367, #84 ) ) ;
#161 =( NAMED_UNIT ( * ) PLANE_ANGLE_UNIT ( ) SI_UNIT ( $, .RADIAN. ) );
#162 = CARTESIAN_POINT ( 'NONE',  ( -6.000000000000000888, 0.000000000000000000, 0.000000000000000000 ) ) ;
#163 = CARTESIAN_POINT ( 'NONE',  ( 0.000000000000000000, 0.000000000000000000, 407.0000000000000000 ) ) ;
#164 = VECTOR ( 'NONE', #304, 1000.000000000000000 ) ;
#165 = DIRECTION ( 'NONE',  ( 1.000000000000000000, 0.000000000000000000, 0.000000000000000000 ) ) ;
#166 = CARTESIAN_POINT ( 'NONE',  ( 0.000000000000000000, 0.000000000000000000, 407.0000000000000000 ) ) ;
#167 = ORIENTED_EDGE ( 'NONE', *, *, #353, .F. ) ;
#168 = CALENDAR_DATE ( 2022, 8, 7 ) ;
#169 = CYLINDRICAL_SURFACE ( 'NONE', #354, 6.000000000000000888 ) ;
#170 = CARTESIAN_POINT ( 'NONE',  ( -8.000000000000000000, 0.000000000000000000, 7.699999999999985079 ) ) ;
#171 = DIRECTION ( 'NONE',  ( 1.000000000000000000, 0.000000000000000000, 0.000000000000000000 ) ) ;
#172 = ORIENTED_EDGE ( 'NONE', *, *, #252, .F. ) ;
#173 = DIRECTION ( 'NONE',  ( 1.000000000000000000, 0.000000000000000000, 0.000000000000000000 ) ) ;
#174 = CARTESIAN_POINT ( 'NONE',  ( -11.00000000000000000, 0.000000000000000000, 7.000000000000000000 ) ) ;
#175 = VECTOR ( 'NONE', #221, 1000.000000000000000 ) ;
#176 = PERSON_AND_ORGANIZATION_ROLE ( 'design_supplier' ) ;
#177 = CLOSED_SHELL ( 'NONE', ( #292, #61, #366, #379, #258, #148, #279, #182, #32, #157, #150 ) ) ;
#178 = LOCAL_TIME ( 16, 18, 52.00000000000000000, #103 ) ;
#179 = AXIS2_PLACEMENT_3D ( 'NONE', #183, #265, #35 ) ;
#180 = DIRECTION ( 'NONE',  ( 0.000000000000000000, 0.000000000000000000, 1.000000000000000000 ) ) ;
#181 = ORIENTED_EDGE ( 'NONE', *, *, #361, .F. ) ;
#182 = ADVANCED_FACE ( 'NONE', ( #192 ), #9, .T. ) ;
#183 = CARTESIAN_POINT ( 'NONE',  ( 0.000000000000000000, 0.000000000000000000, 0.000000000000000000 ) ) ;
#184 = CIRCLE ( 'NONE', #23, 6.000000000000000888 ) ;
#185 = AXIS2_PLACEMENT_3D ( 'NONE', #273, #11, #173 ) ;
#186 = DIRECTION ( 'NONE',  ( 1.000000000000000000, 0.000000000000000000, 0.000000000000000000 ) ) ;
#187 = ORIENTED_EDGE ( 'NONE', *, *, #340, .T. ) ;
#188 = PERSON ( 'NEURÈENÝ', 'NEURÈENÝ', 'NEURÈENÝ', ('NEURÈENÝ'), ('NEURÈENÝ'), ('NEURÈENÝ') ) ;
#189 = DIRECTION ( 'NONE',  ( 0.000000000000000000, 0.000000000000000000, 1.000000000000000000 ) ) ;
#190 = VERTEX_POINT ( 'NONE', #331 ) ;
#191 = COORDINATED_UNIVERSAL_TIME_OFFSET ( 1, 0, .AHEAD. ) ;
#192 = FACE_OUTER_BOUND ( 'NONE', #13, .T. ) ;
#193 = VERTEX_POINT ( 'NONE', #362 ) ;
#194 = AXIS2_PLACEMENT_3D ( 'NONE', #163, #45, #198 ) ;
#195 = APPROVAL_PERSON_ORGANIZATION ( #288, #326, #146 ) ;
#196 = PERSON_AND_ORGANIZATION ( #188, #100 ) ;
#197 = DIRECTION ( 'NONE',  ( 0.000000000000000000, 0.000000000000000000, 1.000000000000000000 ) ) ;
#198 = DIRECTION ( 'NONE',  ( 1.000000000000000000, 0.000000000000000000, 0.000000000000000000 ) ) ;
#199 = APPROVAL_STATUS ( 'not_yet_approved' ) ;
#200 = CARTESIAN_POINT ( 'NONE',  ( 0.000000000000000000, 0.000000000000000000, 7.000000000000000000 ) ) ;
#201 = VERTEX_POINT ( 'NONE', #43 ) ;
#202 = CC_DESIGN_PERSON_AND_ORGANIZATION_ASSIGNMENT ( #259, #176, ( #352 ) ) ;
#203 =( LENGTH_UNIT ( ) NAMED_UNIT ( * ) SI_UNIT ( .MILLI., .METRE. ) );
#204 = CARTESIAN_POINT ( 'NONE',  ( 0.000000000000000000, 0.000000000000000000, 7.000000000000000000 ) ) ;
#205 = FACE_OUTER_BOUND ( 'NONE', #34, .T. ) ;
#206 = MANIFOLD_SOLID_BREP ( 'Odebrat vysunutím3', #177 ) ;
#207 = VECTOR ( 'NONE', #144, 1000.000000000000000 ) ;
#208 = TOROIDAL_SURFACE ( 'NONE', #112, 8.699999999999999289, 0.6999999999999999556 ) ;
#209 = ORIENTED_EDGE ( 'NONE', *, *, #353, .T. ) ;
#210 = CIRCLE ( 'NONE', #272, 11.00000000000000000 ) ;
#211 = CYLINDRICAL_SURFACE ( 'NONE', #66, 11.00000000000000000 ) ;
#212 = EDGE_CURVE ( 'NONE', #127, #193, #267, .T. ) ;
#213 = DIRECTION ( 'NONE',  ( 1.000000000000000000, 0.000000000000000000, 0.000000000000000000 ) ) ;
#214 = DIRECTION ( 'NONE',  ( 1.000000000000000000, 0.000000000000000000, -0.000000000000000000 ) ) ;
#215 = CIRCLE ( 'NONE', #99, 8.699999999999999289 ) ;
#216 = AXIS2_PLACEMENT_3D ( 'NONE', #97, #180, #213 ) ;
#217 = CARTESIAN_POINT ( 'NONE',  ( 0.000000000000000000, 0.000000000000000000, 0.000000000000000000 ) ) ;
#218 = EDGE_CURVE ( 'NONE', #93, #127, #357, .T. ) ;
#219 = ORIENTED_EDGE ( 'NONE', *, *, #59, .T. ) ;
#220 = DIRECTION ( 'NONE',  ( 1.000000000000000000, 0.000000000000000000, 0.000000000000000000 ) ) ;
#221 = DIRECTION ( 'NONE',  ( -0.000000000000000000, -0.000000000000000000, -1.000000000000000000 ) ) ;
#222 = VERTEX_POINT ( 'NONE', #162 ) ;
#223 = DIRECTION ( 'NONE',  ( 0.000000000000000000, 0.000000000000000000, -1.000000000000000000 ) ) ;
#224 = ORIENTED_EDGE ( 'NONE', *, *, #252, .T. ) ;
#225 = CC_DESIGN_APPROVAL ( #330, ( #302 ) ) ;
#226 = DATE_TIME_ROLE ( 'creation_date' ) ;
#227 = DIRECTION ( 'NONE',  ( 0.000000000000000000, -1.000000000000000000, 0.000000000000000000 ) ) ;
#228 = ORIENTED_EDGE ( 'NONE', *, *, #287, .T. ) ;
#229 = APPROVAL ( #137, 'NEURÈENÝ' ) ;
#230 = CARTESIAN_POINT ( 'NONE',  ( 11.00000000000000000, 1.347111479062088405E-15, 7.000000000000000000 ) ) ;
#231 = CARTESIAN_POINT ( 'NONE',  ( 8.699999999999999289, 0.000000000000000000, 6.999999999999992006 ) ) ;
#232 = DATE_AND_TIME ( #321, #300 ) ;
#233 = APPROVAL_DATE_TIME ( #120, #326 ) ;
#234 = APPROVAL_STATUS ( 'not_yet_approved' ) ;
#235 = APPROVAL_PERSON_ORGANIZATION ( #277, #229, #346 ) ;
#236 = CC_DESIGN_PERSON_AND_ORGANIZATION_ASSIGNMENT ( #119, #322, ( #374 ) ) ;
#237 = CC_DESIGN_DATE_AND_TIME_ASSIGNMENT ( #232, #260, ( #374 ) ) ;
#238 = CYLINDRICAL_SURFACE ( 'NONE', #284, 6.000000000000000888 ) ;
#239 = ORIENTED_EDGE ( 'NONE', *, *, #81, .F. ) ;
#240 = FACE_OUTER_BOUND ( 'NONE', #31, .T. ) ;
#241 = DIRECTION ( 'NONE',  ( 1.000000000000000000, 0.000000000000000000, 0.000000000000000000 ) ) ;
#242 = FACE_OUTER_BOUND ( 'NONE', #108, .T. ) ;
#243 = CIRCLE ( 'NONE', #216, 8.000000000000000000 ) ;
#244 = DIRECTION ( 'NONE',  ( 0.000000000000000000, 0.000000000000000000, 1.000000000000000000 ) ) ;
#245 = ORIENTED_EDGE ( 'NONE', *, *, #122, .F. ) ;
#246 = DIRECTION ( 'NONE',  ( 0.000000000000000000, 0.000000000000000000, -1.000000000000000000 ) ) ;
#247 = ORIENTED_EDGE ( 'NONE', *, *, #264, .T. ) ;
#248 = DATE_AND_TIME ( #256, #4 ) ;
#249 = LINE ( 'NONE', #376, #289 ) ;
#250 = CC_DESIGN_DATE_AND_TIME_ASSIGNMENT ( #17, #226, ( #302 ) ) ;
#251 = ORIENTED_EDGE ( 'NONE', *, *, #59, .F. ) ;
#252 = EDGE_CURVE ( 'NONE', #52, #193, #210, .T. ) ;
#253 = AXIS2_PLACEMENT_3D ( 'NONE', #286, #50, #171 ) ;
#254 = AXIS2_PLACEMENT_3D ( 'NONE', #217, #189, #214 ) ;
#255 = DIRECTION ( 'NONE',  ( -0.000000000000000000, -0.000000000000000000, -1.000000000000000000 ) ) ;
#256 = CALENDAR_DATE ( 2022, 8, 7 ) ;
#257 = LINE ( 'NONE', #141, #298 ) ;
#258 = ADVANCED_FACE ( 'NONE', ( #129 ), #211, .T. ) ;
#259 = PERSON_AND_ORGANIZATION ( #188, #100 ) ;
#260 = DATE_TIME_ROLE ( 'classification_date' ) ;
#261 = CC_DESIGN_PERSON_AND_ORGANIZATION_ASSIGNMENT ( #116, #350, ( #352 ) ) ;
#262 = CIRCLE ( 'NONE', #332, 8.000000000000000000 ) ;
#263 = ORIENTED_EDGE ( 'NONE', *, *, #218, .F. ) ;
#264 = EDGE_CURVE ( 'NONE', #190, #30, #243, .T. ) ;
#265 = DIRECTION ( 'NONE',  ( -0.000000000000000000, -0.000000000000000000, -1.000000000000000000 ) ) ;
#266 = ORIENTED_EDGE ( 'NONE', *, *, #51, .T. ) ;
#267 = LINE ( 'NONE', #64, #175 ) ;
#268 = DIRECTION ( 'NONE',  ( 1.000000000000000000, 0.000000000000000000, 0.000000000000000000 ) ) ;
#269 = CARTESIAN_POINT ( 'NONE',  ( 0.000000000000000000, 0.000000000000000000, 7.000000000000000000 ) ) ;
#270 = CARTESIAN_POINT ( 'NONE',  ( 0.000000000000000000, 0.000000000000000000, 407.0000000000000000 ) ) ;
#271 = VERTEX_POINT ( 'NONE', #296 ) ;
#272 = AXIS2_PLACEMENT_3D ( 'NONE', #101, #338, #241 ) ;
#273 = CARTESIAN_POINT ( 'NONE',  ( 0.000000000000000000, 0.000000000000000000, 0.000000000000000000 ) ) ;
#274 = CARTESIAN_POINT ( 'NONE',  ( -8.000000000000000000, 0.000000000000000000, 407.0000000000000000 ) ) ;
#275 = ORIENTED_EDGE ( 'NONE', *, *, #212, .T. ) ;
#276 = ADVANCED_BREP_SHAPE_REPRESENTATION ( '127c', ( #206, #380 ), #345 ) ;
#277 = PERSON_AND_ORGANIZATION ( #188, #100 ) ;
#278 = DIRECTION ( 'NONE',  ( 1.000000000000000000, 0.000000000000000000, -0.000000000000000000 ) ) ;
#279 = ADVANCED_FACE ( 'NONE', ( #365, #328 ), #153, .F. ) ;
#280 = FACE_BOUND ( 'NONE', #329, .T. ) ;
#281 = CARTESIAN_POINT ( 'NONE',  ( 0.000000000000000000, 0.000000000000000000, 407.0000000000000000 ) ) ;
#282 = ORIENTED_EDGE ( 'NONE', *, *, #212, .F. ) ;
#283 = AXIS2_PLACEMENT_3D ( 'NONE', #204, #197, #88 ) ;
#284 = AXIS2_PLACEMENT_3D ( 'NONE', #335, #156, #69 ) ;
#285 = CYLINDRICAL_SURFACE ( 'NONE', #92, 8.000000000000000000 ) ;
#286 = CARTESIAN_POINT ( 'NONE',  ( 0.000000000000000000, 0.000000000000000000, 407.0000000000000000 ) ) ;
#287 = EDGE_CURVE ( 'NONE', #271, #222, #291, .T. ) ;
#288 = PERSON_AND_ORGANIZATION ( #188, #100 ) ;
#289 = VECTOR ( 'NONE', #246, 1000.000000000000000 ) ;
#290 = CALENDAR_DATE ( 2022, 8, 7 ) ;
#291 = CIRCLE ( 'NONE', #179, 6.000000000000000888 ) ;
#292 = ADVANCED_FACE ( 'NONE', ( #242 ), #238, .F. ) ;
#293 = AXIS2_PLACEMENT_3D ( 'NONE', #269, #348, #49 ) ;
#294 = VERTEX_POINT ( 'NONE', #5 ) ;
#295 = EDGE_CURVE ( 'NONE', #294, #190, #73, .T. ) ;
#296 = CARTESIAN_POINT ( 'NONE',  ( 6.000000000000000888, 7.347880794884120722E-16, 0.000000000000000000 ) ) ;
#297 = CARTESIAN_POINT ( 'NONE',  ( 0.000000000000000000, 0.000000000000000000, 7.000000000000000000 ) ) ;
#298 = VECTOR ( 'NONE', #223, 1000.000000000000000 ) ;
#299 = VERTEX_POINT ( 'NONE', #67 ) ;
#300 = LOCAL_TIME ( 16, 18, 52.00000000000000000, #55 ) ;
#301 = CARTESIAN_POINT ( 'NONE',  ( -8.699999999999999289, 1.065442715258197248E-15, 7.699999999999985079 ) ) ;
#302 = PRODUCT_DEFINITION ( 'NEZNÁMÝ', '', #352, #57 ) ;
#303 = ORIENTED_EDGE ( 'NONE', *, *, #51, .F. ) ;
#304 = DIRECTION ( 'NONE',  ( -0.000000000000000000, -0.000000000000000000, -1.000000000000000000 ) ) ;
#305 = PRODUCT ( '127c', '127c', '', ( #364 ) ) ;
#306 = DIRECTION ( 'NONE',  ( 0.000000000000000000, 0.000000000000000000, 1.000000000000000000 ) ) ;
#307 = APPROVAL_DATE_TIME ( #248, #229 ) ;
#308 = CARTESIAN_POINT ( 'NONE',  ( 0.000000000000000000, 0.000000000000000000, 0.000000000000000000 ) ) ;
#309 = DIRECTION ( 'NONE',  ( 1.000000000000000000, 0.000000000000000000, 0.000000000000000000 ) ) ;
#310 = CIRCLE ( 'NONE', #377, 11.00000000000000000 ) ;
#311 = APPROVAL_ROLE ( '' ) ;
#312 = DIRECTION ( 'NONE',  ( 0.000000000000000000, 0.000000000000000000, 1.000000000000000000 ) ) ;
#313 = ORIENTED_EDGE ( 'NONE', *, *, #323, .F. ) ;
#314 = APPLICATION_CONTEXT ( 'configuration controlled 3d designs of mechanical parts and assemblies' ) ;
#315 = CYLINDRICAL_SURFACE ( 'NONE', #293, 11.00000000000000000 ) ;
#316 = DIRECTION ( 'NONE',  ( 1.000000000000000000, 0.000000000000000000, 0.000000000000000000 ) ) ;
#317 = EDGE_LOOP ( 'NONE', ( #239, #167, #275, #339 ) ) ;
#318 = DATE_AND_TIME ( #143, #178 ) ;
#319 = CARTESIAN_POINT ( 'NONE',  ( 0.000000000000000000, 0.000000000000000000, 7.000000000000000000 ) ) ;
#320 = LOCAL_TIME ( 16, 18, 52.00000000000000000, #53 ) ;
#321 = CALENDAR_DATE ( 2022, 8, 7 ) ;
#322 = PERSON_AND_ORGANIZATION_ROLE ( 'classification_officer' ) ;
#323 = EDGE_CURVE ( 'NONE', #63, #299, #78, .T. ) ;
#324 = ORIENTED_EDGE ( 'NONE', *, *, #323, .T. ) ;
#325 = AXIS2_PLACEMENT_3D ( 'NONE', #301, #12, #131 ) ;
#326 = APPROVAL ( #234, 'NEURÈENÝ' ) ;
#327 = DIRECTION ( 'NONE',  ( -1.000000000000000000, 0.000000000000000000, 0.000000000000000000 ) ) ;
#328 = FACE_OUTER_BOUND ( 'NONE', #336, .T. ) ;
#329 = EDGE_LOOP ( 'NONE', ( #313, #37 ) ) ;
#330 = APPROVAL ( #199, 'NEURÈENÝ' ) ;
#331 = CARTESIAN_POINT ( 'NONE',  ( 8.000000000000000000, 9.797174393178825657E-16, 7.699999999999985079 ) ) ;
#332 = AXIS2_PLACEMENT_3D ( 'NONE', #74, #306, #309 ) ;
#333 = CIRCLE ( 'NONE', #142, 8.699999999999999289 ) ;
#334 = APPROVAL_PERSON_ORGANIZATION ( #85, #330, #311 ) ;
#335 = CARTESIAN_POINT ( 'NONE',  ( 0.000000000000000000, 0.000000000000000000, 407.0000000000000000 ) ) ;
#336 = EDGE_LOOP ( 'NONE', ( #181, #172 ) ) ;
#337 = PERSON_AND_ORGANIZATION_ROLE ( 'creator' ) ;
#338 = DIRECTION ( 'NONE',  ( 0.000000000000000000, 0.000000000000000000, 1.000000000000000000 ) ) ;
#339 = ORIENTED_EDGE ( 'NONE', *, *, #361, .T. ) ;
#340 = EDGE_CURVE ( 'NONE', #30, #70, #118, .T. ) ;
#341 = DIRECTION ( 'NONE',  ( -0.000000000000000000, -0.000000000000000000, -1.000000000000000000 ) ) ;
#342 = PLANE ( 'NONE',  #283 ) ;
#343 = ORIENTED_EDGE ( 'NONE', *, *, #24, .F. ) ;
#344 = CIRCLE ( 'NONE', #111, 0.7000000000000000666 ) ;
#345 =( GEOMETRIC_REPRESENTATION_CONTEXT ( 3 ) GLOBAL_UNCERTAINTY_ASSIGNED_CONTEXT ( ( #65 ) ) GLOBAL_UNIT_ASSIGNED_CONTEXT ( ( #203, #161, #133 ) ) REPRESENTATION_CONTEXT ( 'NONE', 'WORKASPACE' ) );
#346 = APPROVAL_ROLE ( '' ) ;
#347 = EDGE_LOOP ( 'NONE', ( #113, #187, #15, #251 ) ) ;
#348 = DIRECTION ( 'NONE',  ( -0.000000000000000000, -0.000000000000000000, -1.000000000000000000 ) ) ;
#349 = DIRECTION ( 'NONE',  ( 1.000000000000000000, 0.000000000000000000, 0.000000000000000000 ) ) ;
#350 = PERSON_AND_ORGANIZATION_ROLE ( 'creator' ) ;
#351 = DIRECTION ( 'NONE',  ( 1.000000000000000000, 0.000000000000000000, 0.000000000000000000 ) ) ;
#352 = PRODUCT_DEFINITION_FORMATION_WITH_SPECIFIED_SOURCE ( 'LIBOVOLNÝ', '', #305, .NOT_KNOWN. ) ;
#353 = EDGE_CURVE ( 'NONE', #127, #93, #310, .T. ) ;
#354 = AXIS2_PLACEMENT_3D ( 'NONE', #95, #40, #128 ) ;
#355 = EDGE_CURVE ( 'NONE', #222, #271, #60, .T. ) ;
#356 = ORIENTED_EDGE ( 'NONE', *, *, #264, .F. ) ;
#357 = CIRCLE ( 'NONE', #29, 11.00000000000000000 ) ;
#358 = DIRECTION ( 'NONE',  ( -1.000000000000000000, 0.000000000000000000, 0.000000000000000000 ) ) ;
#359 = ORIENTED_EDGE ( 'NONE', *, *, #355, .T. ) ;
#360 = DIRECTION ( 'NONE',  ( -0.000000000000000000, -0.000000000000000000, -1.000000000000000000 ) ) ;
#361 = EDGE_CURVE ( 'NONE', #193, #52, #381, .T. ) ;
#362 = CARTESIAN_POINT ( 'NONE',  ( -11.00000000000000000, 0.000000000000000000, 0.000000000000000000 ) ) ;
#363 = LOCAL_TIME ( 16, 18, 52.00000000000000000, #27 ) ;
#364 = MECHANICAL_CONTEXT ( 'NONE', #16, 'mechanical' ) ;
#365 = FACE_BOUND ( 'NONE', #1, .T. ) ;
#366 = ADVANCED_FACE ( 'NONE', ( #109 ), #285, .T. ) ;
#367 = ORIENTED_EDGE ( 'NONE', *, *, #38, .T. ) ;
#368 = DIRECTION ( 'NONE',  ( 0.000000000000000000, 0.000000000000000000, -1.000000000000000000 ) ) ;
#369 = ORIENTED_EDGE ( 'NONE', *, *, #218, .T. ) ;
#370 = DIRECTION ( 'NONE',  ( -0.000000000000000000, -0.000000000000000000, -1.000000000000000000 ) ) ;
#371 = CARTESIAN_POINT ( 'NONE',  ( 8.699999999999999289, 0.000000000000000000, 7.699999999999985079 ) ) ;
#372 = ORIENTED_EDGE ( 'NONE', *, *, #340, .F. ) ;
#373 = AXIS2_PLACEMENT_3D ( 'NONE', #375, #54, #316 ) ;
#374 = SECURITY_CLASSIFICATION ( '', '', #378 ) ;
#375 = CARTESIAN_POINT ( 'NONE',  ( 0.000000000000000000, 0.000000000000000000, 7.699999999999985079 ) ) ;
#376 = CARTESIAN_POINT ( 'NONE',  ( 6.000000000000000888, 7.347880794884120722E-16, 407.0000000000000000 ) ) ;
#377 = AXIS2_PLACEMENT_3D ( 'NONE', #36, #159, #104 ) ;
#378 = SECURITY_CLASSIFICATION_LEVEL ( 'unclassified' ) ;
#379 = ADVANCED_FACE ( 'NONE', ( #39 ), #315, .T. ) ;
#380 = AXIS2_PLACEMENT_3D ( 'NONE', #114, #82, #165 ) ;
#381 = CIRCLE ( 'NONE', #185, 11.00000000000000000 ) ;
ENDSEC;
END-ISO-10303-21;
