ISO-10303-21;
HEADER;
FILE_DESCRIPTION (( 'STEP AP203' ),
    '1' );
FILE_NAME ('1a6b.STEP',
    '2022-07-08T14:43:07',
    ( '' ),
    ( '' ),
    'SwSTEP 2.0',
    'SolidWorks 2019',
    '' );
FILE_SCHEMA (( 'CONFIG_CONTROL_DESIGN' ));
ENDSEC;

DATA;
#1 = DIRECTION ( 'NONE',  ( 1.000000000000000000, 0.000000000000000000, 0.000000000000000000 ) ) ;
#2 = DESIGN_CONTEXT ( 'detailed design', #277, 'design' ) ;
#3 = CARTESIAN_POINT ( 'NONE',  ( 6.000000000000000888, 7.347880794884120722E-16, 157.0000000000000000 ) ) ;
#4 = PRODUCT_DEFINITION_SHAPE ( 'NONE', 'NONE',  #92 ) ;
#5 = CARTESIAN_POINT ( 'NONE',  ( 0.000000000000000000, 0.000000000000000000, 7.000000000000000000 ) ) ;
#6 = EDGE_LOOP ( 'NONE', ( #271, #218 ) ) ;
#7 = CARTESIAN_POINT ( 'NONE',  ( 0.000000000000000000, 0.000000000000000000, 157.0000000000000000 ) ) ;
#8 = EDGE_LOOP ( 'NONE', ( #270, #335, #304, #243 ) ) ;
#9 = CARTESIAN_POINT ( 'NONE',  ( 0.000000000000000000, 0.000000000000000000, 157.0000000000000000 ) ) ;
#10 = EDGE_LOOP ( 'NONE', ( #36, #363, #361, #221 ) ) ;
#11 = AXIS2_PLACEMENT_3D ( 'NONE', #5, #241, #352 ) ;
#12 = VERTEX_POINT ( 'NONE', #144 ) ;
#13 = APPROVAL_PERSON_ORGANIZATION ( #53, #115, #23 ) ;
#14 = DIRECTION ( 'NONE',  ( 0.000000000000000000, 0.000000000000000000, 1.000000000000000000 ) ) ;
#15 = DIRECTION ( 'NONE',  ( 1.000000000000000000, 0.000000000000000000, 0.000000000000000000 ) ) ;
#16 = AXIS2_PLACEMENT_3D ( 'NONE', #210, #374, #376 ) ;
#17 = APPROVAL_ROLE ( '' ) ;
#18 = AXIS2_PLACEMENT_3D ( 'NONE', #88, #111, #140 ) ;
#19 = PERSON_AND_ORGANIZATION ( #128, #79 ) ;
#20 = DIRECTION ( 'NONE',  ( 1.000000000000000000, 0.000000000000000000, 0.000000000000000000 ) ) ;
#21 = CALENDAR_DATE ( 2022, 8, 7 ) ;
#22 = CARTESIAN_POINT ( 'NONE',  ( 3.250000000000000444, 3.980102097228898231E-16, 0.000000000000000000 ) ) ;
#23 = APPROVAL_ROLE ( '' ) ;
#24 = VERTEX_POINT ( 'NONE', #108 ) ;
#25 = AXIS2_PLACEMENT_3D ( 'NONE', #199, #14, #370 ) ;
#26 = CARTESIAN_POINT ( 'NONE',  ( -3.250000000000000444, 0.000000000000000000, 0.000000000000000000 ) ) ;
#27 = DIRECTION ( 'NONE',  ( 0.000000000000000000, 0.000000000000000000, 1.000000000000000000 ) ) ;
#28 = DIRECTION ( 'NONE',  ( -1.000000000000000000, 0.000000000000000000, 0.000000000000000000 ) ) ;
#29 = CIRCLE ( 'NONE', #139, 10.00000000000000000 ) ;
#30 = LINE ( 'NONE', #3, #229 ) ;
#31 = PRODUCT_DEFINITION_FORMATION_WITH_SPECIFIED_SOURCE ( 'LIBOVOLNÝ', '', #186, .NOT_KNOWN. ) ;
#32 = DIRECTION ( 'NONE',  ( -0.000000000000000000, -0.000000000000000000, -1.000000000000000000 ) ) ;
#33 = CARTESIAN_POINT ( 'NONE',  ( 0.000000000000000000, 0.000000000000000000, 157.0000000000000000 ) ) ;
#34 = ORIENTED_EDGE ( 'NONE', *, *, #179, .F. ) ;
#35 = DIRECTION ( 'NONE',  ( 1.000000000000000000, 0.000000000000000000, 0.000000000000000000 ) ) ;
#36 = ORIENTED_EDGE ( 'NONE', *, *, #39, .F. ) ;
#37 = CARTESIAN_POINT ( 'NONE',  ( 6.000000000000000888, 7.347880794884120722E-16, 7.500000000000007105 ) ) ;
#38 = ORIENTED_EDGE ( 'NONE', *, *, #220, .T. ) ;
#39 = EDGE_CURVE ( 'NONE', #276, #66, #43, .T. ) ;
#40 = DIRECTION ( 'NONE',  ( 1.000000000000000000, 0.000000000000000000, 0.000000000000000000 ) ) ;
#41 = APPLICATION_CONTEXT ( 'configuration controlled 3d designs of mechanical parts and assemblies' ) ;
#42 = AXIS2_PLACEMENT_3D ( 'NONE', #151, #215, #268 ) ;
#43 = LINE ( 'NONE', #173, #258 ) ;
#44 = APPLICATION_PROTOCOL_DEFINITION ( 'international standard', 'config_control_design', 1994, #41 ) ;
#45 = CC_DESIGN_PERSON_AND_ORGANIZATION_ASSIGNMENT ( #19, #113, ( #92 ) ) ;
#46 = PERSON_AND_ORGANIZATION ( #128, #79 ) ;
#47 = COORDINATED_UNIVERSAL_TIME_OFFSET ( 1, 0, .AHEAD. ) ;
#48 = EDGE_LOOP ( 'NONE', ( #279, #333 ) ) ;
#49 = AXIS2_PLACEMENT_3D ( 'NONE', #289, #228, #341 ) ;
#50 = APPROVAL_STATUS ( 'not_yet_approved' ) ;
#51 = ADVANCED_FACE ( 'NONE', ( #260 ), #233, .T. ) ;
#52 = PLANE ( 'NONE',  #234 ) ;
#53 = PERSON_AND_ORGANIZATION ( #128, #79 ) ;
#54 = VERTEX_POINT ( 'NONE', #80 ) ;
#55 = DIRECTION ( 'NONE',  ( -0.000000000000000000, -0.000000000000000000, -1.000000000000000000 ) ) ;
#56 = EDGE_CURVE ( 'NONE', #12, #54, #290, .T. ) ;
#57 = CARTESIAN_POINT ( 'NONE',  ( 3.250000000000000444, 3.980102097228898231E-16, 157.0000000000000000 ) ) ;
#58 = DIRECTION ( 'NONE',  ( -0.000000000000000000, -0.000000000000000000, -1.000000000000000000 ) ) ;
#59 = CALENDAR_DATE ( 2022, 8, 7 ) ;
#60 = AXIS2_PLACEMENT_3D ( 'NONE', #125, #357, #96 ) ;
#61 = LINE ( 'NONE', #182, #214 ) ;
#62 = CIRCLE ( 'NONE', #194, 6.000000000000000888 ) ;
#63 = DIRECTION ( 'NONE',  ( 1.000000000000000000, 0.000000000000000000, 0.000000000000000000 ) ) ;
#64 = ORIENTED_EDGE ( 'NONE', *, *, #204, .F. ) ;
#65 = DIRECTION ( 'NONE',  ( 0.000000000000000000, 0.000000000000000000, 1.000000000000000000 ) ) ;
#66 = VERTEX_POINT ( 'NONE', #22 ) ;
#67 = AXIS2_PLACEMENT_3D ( 'NONE', #293, #242, #63 ) ;
#68 = ORIENTED_EDGE ( 'NONE', *, *, #39, .T. ) ;
#69 = VERTEX_POINT ( 'NONE', #26 ) ;
#70 = ORIENTED_EDGE ( 'NONE', *, *, #220, .F. ) ;
#71 = ORIENTED_EDGE ( 'NONE', *, *, #204, .T. ) ;
#72 = APPROVAL_PERSON_ORGANIZATION ( #318, #89, #255 ) ;
#73 = FACE_BOUND ( 'NONE', #195, .T. ) ;
#74 = CC_DESIGN_PERSON_AND_ORGANIZATION_ASSIGNMENT ( #316, #170, ( #186 ) ) ;
#75 = CLOSED_SHELL ( 'NONE', ( #371, #282, #230, #145, #51, #336, #310, #280, #105, #197, #302 ) ) ;
#76 = APPROVAL_DATE_TIME ( #338, #115 ) ;
#77 = EDGE_CURVE ( 'NONE', #69, #66, #112, .T. ) ;
#78 = COORDINATED_UNIVERSAL_TIME_OFFSET ( 1, 0, .AHEAD. ) ;
#79 = ORGANIZATION ( 'NEURÈENÝ', 'NEURÈENÝ', '' ) ;
#80 = CARTESIAN_POINT ( 'NONE',  ( 10.00000000000000000, 1.224646799147353256E-15, 0.000000000000000000 ) ) ;
#81 = AXIS2_PLACEMENT_3D ( 'NONE', #265, #283, #15 ) ;
#82 = PERSON_AND_ORGANIZATION_ROLE ( 'classification_officer' ) ;
#83 = DIRECTION ( 'NONE',  ( 0.000000000000000000, 0.000000000000000000, -1.000000000000000000 ) ) ;
#84 = FACE_OUTER_BOUND ( 'NONE', #48, .T. ) ;
#85 = DATE_AND_TIME ( #345, #246 ) ;
#86 = DIRECTION ( 'NONE',  ( 0.000000000000000000, 0.000000000000000000, 1.000000000000000000 ) ) ;
#87 = AXIS2_PLACEMENT_3D ( 'NONE', #295, #32, #292 ) ;
#88 = CARTESIAN_POINT ( 'NONE',  ( 0.000000000000000000, 0.000000000000000000, 0.000000000000000000 ) ) ;
#89 = APPROVAL ( #138, 'NEURÈENÝ' ) ;
#90 = CIRCLE ( 'NONE', #81, 3.250000000000000444 ) ;
#91 = CYLINDRICAL_SURFACE ( 'NONE', #117, 6.000000000000000888 ) ;
#92 = PRODUCT_DEFINITION ( 'NEZNÁMÝ', '', #31, #2 ) ;
#93 = CARTESIAN_POINT ( 'NONE',  ( 0.000000000000000000, 0.000000000000000000, 0.000000000000000000 ) ) ;
#94 = VECTOR ( 'NONE', #306, 1000.000000000000000 ) ;
#95 = ORIENTED_EDGE ( 'NONE', *, *, #56, .F. ) ;
#96 = DIRECTION ( 'NONE',  ( 1.000000000000000000, 0.000000000000000000, 0.000000000000000000 ) ) ;
#97 = ORIENTED_EDGE ( 'NONE', *, *, #217, .T. ) ;
#98 = DIRECTION ( 'NONE',  ( -1.000000000000000000, 0.000000000000000000, 0.000000000000000000 ) ) ;
#99 = CC_DESIGN_PERSON_AND_ORGANIZATION_ASSIGNMENT ( #110, #82, ( #313 ) ) ;
#100 = VERTEX_POINT ( 'NONE', #315 ) ;
#101 = AXIS2_PLACEMENT_3D ( 'NONE', #172, #311, #231 ) ;
#102 = AXIS2_PLACEMENT_3D ( 'NONE', #262, #379, #20 ) ;
#103 = CARTESIAN_POINT ( 'NONE',  ( 0.000000000000000000, 0.000000000000000000, 157.0000000000000000 ) ) ;
#104 = ORIENTED_EDGE ( 'NONE', *, *, #166, .T. ) ;
#105 = ADVANCED_FACE ( 'NONE', ( #344, #84 ), #52, .T. ) ;
#106 = CARTESIAN_POINT ( 'NONE',  ( 6.500000000000000888, 0.000000000000000000, 7.500000000000007105 ) ) ;
#107 = PERSON_AND_ORGANIZATION ( #128, #79 ) ;
#108 = CARTESIAN_POINT ( 'NONE',  ( -3.250000000000000444, 0.000000000000000000, 157.0000000000000000 ) ) ;
#109 = CIRCLE ( 'NONE', #324, 6.000000000000000888 ) ;
#110 = PERSON_AND_ORGANIZATION ( #128, #79 ) ;
#111 = DIRECTION ( 'NONE',  ( 0.000000000000000000, 0.000000000000000000, 1.000000000000000000 ) ) ;
#112 = CIRCLE ( 'NONE', #16, 3.250000000000000444 ) ;
#113 = PERSON_AND_ORGANIZATION_ROLE ( 'creator' ) ;
#114 = DIRECTION ( 'NONE',  ( 1.000000000000000000, 0.000000000000000000, 0.000000000000000000 ) ) ;
#115 = APPROVAL ( #50, 'NEURÈENÝ' ) ;
#116 = DIRECTION ( 'NONE',  ( 1.000000000000000000, 0.000000000000000000, 0.000000000000000000 ) ) ;
#117 = AXIS2_PLACEMENT_3D ( 'NONE', #33, #300, #248 ) ;
#118 = FACE_OUTER_BOUND ( 'NONE', #250, .T. ) ;
#119 = UNCERTAINTY_MEASURE_WITH_UNIT (LENGTH_MEASURE( 1.000000000000000082E-05 ), #159, 'distance_accuracy_value', 'NONE');
#120 = CC_DESIGN_APPROVAL ( #89, ( #313 ) ) ;
#121 = CIRCLE ( 'NONE', #102, 10.00000000000000000 ) ;
#122 = EDGE_CURVE ( 'NONE', #276, #24, #90, .T. ) ;
#123 = DIRECTION ( 'NONE',  ( -0.000000000000000000, -0.000000000000000000, -1.000000000000000000 ) ) ;
#124 = EDGE_LOOP ( 'NONE', ( #364, #68, #38, #273 ) ) ;
#125 = CARTESIAN_POINT ( 'NONE',  ( 0.000000000000000000, 0.000000000000000000, 7.500000000000007105 ) ) ;
#126 = ORIENTED_EDGE ( 'NONE', *, *, #320, .F. ) ;
#127 = CARTESIAN_POINT ( 'NONE',  ( 0.000000000000000000, 0.000000000000000000, 157.0000000000000000 ) ) ;
#128 = PERSON ( 'NEURÈENÝ', 'NEURÈENÝ', 'NEURÈENÝ', ('NEURÈENÝ'), ('NEURÈENÝ'), ('NEURÈENÝ') ) ;
#129 = ORIENTED_EDGE ( 'NONE', *, *, #380, .F. ) ;
#130 = DIRECTION ( 'NONE',  ( -1.000000000000000000, 1.224646799147351482E-16, 0.000000000000000000 ) ) ;
#131 = DIRECTION ( 'NONE',  ( 0.000000000000000000, 0.000000000000000000, 1.000000000000000000 ) ) ;
#132 = ORIENTED_EDGE ( 'NONE', *, *, #249, .T. ) ;
#133 = EDGE_LOOP ( 'NONE', ( #104, #152 ) ) ;
#134 = AXIS2_PLACEMENT_3D ( 'NONE', #343, #83, #28 ) ;
#135 = ADVANCED_BREP_SHAPE_REPRESENTATION ( '1a6b', ( #327, #101 ), #325 ) ;
#136 = AXIS2_PLACEMENT_3D ( 'NONE', #366, #55, #116 ) ;
#137 = DIRECTION ( 'NONE',  ( -0.000000000000000000, -0.000000000000000000, -1.000000000000000000 ) ) ;
#138 = APPROVAL_STATUS ( 'not_yet_approved' ) ;
#139 = AXIS2_PLACEMENT_3D ( 'NONE', #240, #27, #150 ) ;
#140 = DIRECTION ( 'NONE',  ( 1.000000000000000000, 0.000000000000000000, 0.000000000000000000 ) ) ;
#141 = CARTESIAN_POINT ( 'NONE',  ( 0.000000000000000000, 0.000000000000000000, 157.0000000000000000 ) ) ;
#142 = DATE_TIME_ROLE ( 'creation_date' ) ;
#143 = AXIS2_PLACEMENT_3D ( 'NONE', #148, #162, #130 ) ;
#144 = CARTESIAN_POINT ( 'NONE',  ( -10.00000000000000000, 0.000000000000000000, 0.000000000000000000 ) ) ;
#145 = ADVANCED_FACE ( 'NONE', ( #378 ), #238, .T. ) ;
#146 = ORIENTED_EDGE ( 'NONE', *, *, #380, .T. ) ;
#147 = FACE_BOUND ( 'NONE', #337, .T. ) ;
#148 = CARTESIAN_POINT ( 'NONE',  ( -6.500000000000000888, 7.960204194457796463E-16, 7.500000000000007105 ) ) ;
#149 = EDGE_CURVE ( 'NONE', #275, #312, #346, .T. ) ;
#150 = DIRECTION ( 'NONE',  ( 1.000000000000000000, 0.000000000000000000, 0.000000000000000000 ) ) ;
#151 = CARTESIAN_POINT ( 'NONE',  ( 0.000000000000000000, 0.000000000000000000, 7.500000000000007105 ) ) ;
#152 = ORIENTED_EDGE ( 'NONE', *, *, #211, .T. ) ;
#153 = DIRECTION ( 'NONE',  ( -0.000000000000000000, -0.000000000000000000, -1.000000000000000000 ) ) ;
#154 = ORIENTED_EDGE ( 'NONE', *, *, #245, .T. ) ;
#155 = FACE_OUTER_BOUND ( 'NONE', #10, .T. ) ;
#156 = LOCAL_TIME ( 16, 43, 7.000000000000000000, #47 ) ;
#157 = ORIENTED_EDGE ( 'NONE', *, *, #77, .F. ) ;
#158 = CC_DESIGN_DATE_AND_TIME_ASSIGNMENT ( #85, #206, ( #313 ) ) ;
#159 =( LENGTH_UNIT ( ) NAMED_UNIT ( * ) SI_UNIT ( .MILLI., .METRE. ) );
#160 = CARTESIAN_POINT ( 'NONE',  ( -6.500000000000000888, 7.960204194457796463E-16, 7.000000000000002665 ) ) ;
#161 = ORIENTED_EDGE ( 'NONE', *, *, #320, .T. ) ;
#162 = DIRECTION ( 'NONE',  ( 1.224646799147353207E-16, 1.000000000000000000, -0.000000000000000000 ) ) ;
#163 = DIRECTION ( 'NONE',  ( 0.000000000000000000, 0.000000000000000000, -1.000000000000000000 ) ) ;
#164 = PLANE ( 'NONE',  #25 ) ;
#165 = CIRCLE ( 'NONE', #42, 6.000000000000000888 ) ;
#166 = EDGE_CURVE ( 'NONE', #307, #219, #121, .T. ) ;
#167 = DIRECTION ( 'NONE',  ( 1.000000000000000000, 0.000000000000000000, -0.000000000000000000 ) ) ;
#168 = CIRCLE ( 'NONE', #232, 0.5000000000000004441 ) ;
#169 = FACE_OUTER_BOUND ( 'NONE', #133, .T. ) ;
#170 = PERSON_AND_ORGANIZATION_ROLE ( 'design_owner' ) ;
#171 = CIRCLE ( 'NONE', #11, 6.500000000000000888 ) ;
#172 = CARTESIAN_POINT ( 'NONE',  ( 0.000000000000000000, 0.000000000000000000, 0.000000000000000000 ) ) ;
#173 = CARTESIAN_POINT ( 'NONE',  ( 3.250000000000000444, 3.980102097228898231E-16, 157.0000000000000000 ) ) ;
#174 = COORDINATED_UNIVERSAL_TIME_OFFSET ( 1, 0, .AHEAD. ) ;
#175 = CARTESIAN_POINT ( 'NONE',  ( -6.000000000000000888, 0.000000000000000000, 157.0000000000000000 ) ) ;
#176 = MECHANICAL_CONTEXT ( 'NONE', #41, 'mechanical' ) ;
#177 = FACE_OUTER_BOUND ( 'NONE', #124, .T. ) ;
#178 = ORIENTED_EDGE ( 'NONE', *, *, #191, .F. ) ;
#179 = EDGE_CURVE ( 'NONE', #358, #100, #296, .T. ) ;
#180 = ORIENTED_EDGE ( 'NONE', *, *, #211, .F. ) ;
#181 = COORDINATED_UNIVERSAL_TIME_OFFSET ( 1, 0, .AHEAD. ) ;
#182 = CARTESIAN_POINT ( 'NONE',  ( 10.00000000000000000, 1.224646799147353256E-15, 7.000000000000000000 ) ) ;
#183 = TOROIDAL_SURFACE ( 'NONE', #60, 6.500000000000000888, 0.5000000000000000000 ) ;
#184 = CYLINDRICAL_SURFACE ( 'NONE', #87, 6.000000000000000888 ) ;
#185 = CIRCLE ( 'NONE', #309, 3.250000000000000444 ) ;
#186 = PRODUCT ( '1a6b', '1a6b', '', ( #176 ) ) ;
#187 = CIRCLE ( 'NONE', #18, 10.00000000000000000 ) ;
#188 = CARTESIAN_POINT ( 'NONE',  ( -6.000000000000000888, 0.000000000000000000, 157.0000000000000000 ) ) ;
#189 = EDGE_LOOP ( 'NONE', ( #329, #308, #154, #287 ) ) ;
#190 = DIRECTION ( 'NONE',  ( 1.000000000000000000, 0.000000000000000000, 0.000000000000000000 ) ) ;
#191 = EDGE_CURVE ( 'NONE', #54, #12, #187, .T. ) ;
#192 = VERTEX_POINT ( 'NONE', #254 ) ;
#193 = CIRCLE ( 'NONE', #67, 6.000000000000000888 ) ;
#194 = AXIS2_PLACEMENT_3D ( 'NONE', #103, #222, #40 ) ;
#195 = EDGE_LOOP ( 'NONE', ( #97, #216 ) ) ;
#196 = EDGE_LOOP ( 'NONE', ( #95, #178 ) ) ;
#197 = ADVANCED_FACE ( 'NONE', ( #223 ), #369, .F. ) ;
#198 = ORIENTED_EDGE ( 'NONE', *, *, #217, .F. ) ;
#199 = CARTESIAN_POINT ( 'NONE',  ( 0.000000000000000000, 0.000000000000000000, 7.000000000000000000 ) ) ;
#200 = APPROVAL_PERSON_ORGANIZATION ( #46, #237, #17 ) ;
#201 = ORIENTED_EDGE ( 'NONE', *, *, #166, .F. ) ;
#202 = LOCAL_TIME ( 16, 43, 7.000000000000000000, #78 ) ;
#203 = DIRECTION ( 'NONE',  ( 0.000000000000000000, 0.000000000000000000, 1.000000000000000000 ) ) ;
#204 = EDGE_CURVE ( 'NONE', #219, #54, #61, .T. ) ;
#205 = ORIENTED_EDGE ( 'NONE', *, *, #245, .F. ) ;
#206 = DATE_TIME_ROLE ( 'classification_date' ) ;
#207 = DIRECTION ( 'NONE',  ( -0.000000000000000000, -0.000000000000000000, -1.000000000000000000 ) ) ;
#208 = CIRCLE ( 'NONE', #251, 3.250000000000000444 ) ;
#209 = LOCAL_TIME ( 16, 43, 7.000000000000000000, #174 ) ;
#210 = CARTESIAN_POINT ( 'NONE',  ( 0.000000000000000000, 0.000000000000000000, 0.000000000000000000 ) ) ;
#211 = EDGE_CURVE ( 'NONE', #219, #307, #29, .T. ) ;
#212 = FACE_OUTER_BOUND ( 'NONE', #196, .T. ) ;
#213 = CARTESIAN_POINT ( 'NONE',  ( 10.00000000000000000, 1.224646799147353256E-15, 7.000000000000000000 ) ) ;
#214 = VECTOR ( 'NONE', #58, 1000.000000000000000 ) ;
#215 = DIRECTION ( 'NONE',  ( 0.000000000000000000, 0.000000000000000000, 1.000000000000000000 ) ) ;
#216 = ORIENTED_EDGE ( 'NONE', *, *, #179, .T. ) ;
#217 = EDGE_CURVE ( 'NONE', #100, #358, #171, .T. ) ;
#218 = ORIENTED_EDGE ( 'NONE', *, *, #122, .F. ) ;
#219 = VERTEX_POINT ( 'NONE', #213 ) ;
#220 = EDGE_CURVE ( 'NONE', #66, #69, #208, .T. ) ;
#221 = ORIENTED_EDGE ( 'NONE', *, *, #77, .T. ) ;
#222 = DIRECTION ( 'NONE',  ( 0.000000000000000000, 0.000000000000000000, 1.000000000000000000 ) ) ;
#223 = FACE_OUTER_BOUND ( 'NONE', #331, .T. ) ;
#224 = AXIS2_PLACEMENT_3D ( 'NONE', #319, #203, #114 ) ;
#225 = CC_DESIGN_PERSON_AND_ORGANIZATION_ASSIGNMENT ( #107, #227, ( #31 ) ) ;
#226 = CALENDAR_DATE ( 2022, 8, 7 ) ;
#227 = PERSON_AND_ORGANIZATION_ROLE ( 'design_supplier' ) ;
#228 = DIRECTION ( 'NONE',  ( -0.000000000000000000, -0.000000000000000000, -1.000000000000000000 ) ) ;
#229 = VECTOR ( 'NONE', #123, 1000.000000000000000 ) ;
#230 = ADVANCED_FACE ( 'NONE', ( #323 ), #184, .T. ) ;
#231 = DIRECTION ( 'NONE',  ( 1.000000000000000000, 0.000000000000000000, 0.000000000000000000 ) ) ;
#232 = AXIS2_PLACEMENT_3D ( 'NONE', #106, #278, #163 ) ;
#233 = CYLINDRICAL_SURFACE ( 'NONE', #49, 10.00000000000000000 ) ;
#234 = AXIS2_PLACEMENT_3D ( 'NONE', #141, #86, #167 ) ;
#235 = COORDINATED_UNIVERSAL_TIME_OFFSET ( 1, 0, .AHEAD. ) ;
#236 = CARTESIAN_POINT ( 'NONE',  ( 0.000000000000000000, 0.000000000000000000, 7.000000000000000000 ) ) ;
#237 = APPROVAL ( #259, 'NEURÈENÝ' ) ;
#238 = CYLINDRICAL_SURFACE ( 'NONE', #328, 10.00000000000000000 ) ;
#239 = CC_DESIGN_APPROVAL ( #115, ( #92 ) ) ;
#240 = CARTESIAN_POINT ( 'NONE',  ( 0.000000000000000000, 0.000000000000000000, 7.000000000000000000 ) ) ;
#241 = DIRECTION ( 'NONE',  ( -0.000000000000000000, -0.000000000000000000, -1.000000000000000000 ) ) ;
#242 = DIRECTION ( 'NONE',  ( 0.000000000000000000, 0.000000000000000000, 1.000000000000000000 ) ) ;
#243 = ORIENTED_EDGE ( 'NONE', *, *, #269, .T. ) ;
#244 = APPROVAL_DATE_TIME ( #297, #89 ) ;
#245 = EDGE_CURVE ( 'NONE', #348, #312, #165, .T. ) ;
#246 = LOCAL_TIME ( 16, 43, 7.000000000000000000, #235 ) ;
#247 = EDGE_LOOP ( 'NONE', ( #180, #71, #301, #252 ) ) ;
#248 = DIRECTION ( 'NONE',  ( -1.000000000000000000, 0.000000000000000000, 0.000000000000000000 ) ) ;
#249 = EDGE_CURVE ( 'NONE', #307, #12, #381, .T. ) ;
#250 = EDGE_LOOP ( 'NONE', ( #317, #146, #198, #126 ) ) ;
#251 = AXIS2_PLACEMENT_3D ( 'NONE', #93, #153, #190 ) ;
#252 = ORIENTED_EDGE ( 'NONE', *, *, #249, .F. ) ;
#253 =( NAMED_UNIT ( * ) SI_UNIT ( $, .STERADIAN. ) SOLID_ANGLE_UNIT ( ) );
#254 = CARTESIAN_POINT ( 'NONE',  ( 6.000000000000000888, 7.347880794884120722E-16, 157.0000000000000000 ) ) ;
#255 = APPROVAL_ROLE ( '' ) ;
#256 = EDGE_CURVE ( 'NONE', #192, #348, #30, .T. ) ;
#257 = APPLICATION_PROTOCOL_DEFINITION ( 'international standard', 'config_control_design', 1994, #277 ) ;
#258 = VECTOR ( 'NONE', #264, 1000.000000000000000 ) ;
#259 = APPROVAL_STATUS ( 'not_yet_approved' ) ;
#260 = FACE_OUTER_BOUND ( 'NONE', #299, .T. ) ;
#261 = CYLINDRICAL_SURFACE ( 'NONE', #134, 3.250000000000000444 ) ;
#262 = CARTESIAN_POINT ( 'NONE',  ( 0.000000000000000000, 0.000000000000000000, 7.000000000000000000 ) ) ;
#263 = AXIS2_PLACEMENT_3D ( 'NONE', #322, #350, #368 ) ;
#264 = DIRECTION ( 'NONE',  ( 0.000000000000000000, 0.000000000000000000, -1.000000000000000000 ) ) ;
#265 = CARTESIAN_POINT ( 'NONE',  ( 0.000000000000000000, 0.000000000000000000, 157.0000000000000000 ) ) ;
#266 = PLANE ( 'NONE',  #263 ) ;
#267 = CARTESIAN_POINT ( 'NONE',  ( 0.000000000000000000, 0.000000000000000000, 7.500000000000007105 ) ) ;
#268 = DIRECTION ( 'NONE',  ( 1.000000000000000000, 0.000000000000000000, 0.000000000000000000 ) ) ;
#269 = EDGE_CURVE ( 'NONE', #312, #348, #193, .T. ) ;
#270 = ORIENTED_EDGE ( 'NONE', *, *, #256, .F. ) ;
#271 = ORIENTED_EDGE ( 'NONE', *, *, #365, .F. ) ;
#272 = CYLINDRICAL_SURFACE ( 'NONE', #349, 3.250000000000000444 ) ;
#273 = ORIENTED_EDGE ( 'NONE', *, *, #339, .F. ) ;
#274 = PRODUCT_RELATED_PRODUCT_CATEGORY ( 'detail', '', ( #186 ) ) ;
#275 = VERTEX_POINT ( 'NONE', #188 ) ;
#276 = VERTEX_POINT ( 'NONE', #57 ) ;
#277 = APPLICATION_CONTEXT ( 'configuration controlled 3d designs of mechanical parts and assemblies' ) ;
#278 = DIRECTION ( 'NONE',  ( 0.000000000000000000, -1.000000000000000000, 0.000000000000000000 ) ) ;
#279 = ORIENTED_EDGE ( 'NONE', *, *, #294, .T. ) ;
#280 = ADVANCED_FACE ( 'NONE', ( #298 ), #91, .T. ) ;
#281 = CC_DESIGN_APPROVAL ( #237, ( #31 ) ) ;
#282 = ADVANCED_FACE ( 'NONE', ( #118 ), #183, .F. ) ;
#283 = DIRECTION ( 'NONE',  ( 0.000000000000000000, 0.000000000000000000, 1.000000000000000000 ) ) ;
#284 = DATE_AND_TIME ( #21, #209 ) ;
#285 = DIRECTION ( 'NONE',  ( -1.000000000000000000, 0.000000000000000000, 0.000000000000000000 ) ) ;
#286 = CALENDAR_DATE ( 2022, 8, 7 ) ;
#287 = ORIENTED_EDGE ( 'NONE', *, *, #149, .F. ) ;
#288 = LOCAL_TIME ( 16, 43, 7.000000000000000000, #181 ) ;
#289 = CARTESIAN_POINT ( 'NONE',  ( 0.000000000000000000, 0.000000000000000000, 7.000000000000000000 ) ) ;
#290 = CIRCLE ( 'NONE', #224, 10.00000000000000000 ) ;
#291 = CC_DESIGN_PERSON_AND_ORGANIZATION_ASSIGNMENT ( #342, #373, ( #31 ) ) ;
#292 = DIRECTION ( 'NONE',  ( -1.000000000000000000, 0.000000000000000000, 0.000000000000000000 ) ) ;
#293 = CARTESIAN_POINT ( 'NONE',  ( 0.000000000000000000, 0.000000000000000000, 7.500000000000007105 ) ) ;
#294 = EDGE_CURVE ( 'NONE', #275, #192, #109, .T. ) ;
#295 = CARTESIAN_POINT ( 'NONE',  ( 0.000000000000000000, 0.000000000000000000, 157.0000000000000000 ) ) ;
#296 = CIRCLE ( 'NONE', #136, 6.500000000000000888 ) ;
#297 = DATE_AND_TIME ( #59, #288 ) ;
#298 = FACE_OUTER_BOUND ( 'NONE', #8, .T. ) ;
#299 = EDGE_LOOP ( 'NONE', ( #64, #201, #132, #355 ) ) ;
#300 = DIRECTION ( 'NONE',  ( -0.000000000000000000, -0.000000000000000000, -1.000000000000000000 ) ) ;
#301 = ORIENTED_EDGE ( 'NONE', *, *, #191, .T. ) ;
#302 = ADVANCED_FACE ( 'NONE', ( #155 ), #272, .F. ) ;
#303 = CARTESIAN_POINT ( 'NONE',  ( -6.000000000000000888, 0.000000000000000000, 7.500000000000007105 ) ) ;
#304 = ORIENTED_EDGE ( 'NONE', *, *, #149, .T. ) ;
#305 = VECTOR ( 'NONE', #207, 1000.000000000000000 ) ;
#306 = DIRECTION ( 'NONE',  ( 0.000000000000000000, 0.000000000000000000, -1.000000000000000000 ) ) ;
#307 = VERTEX_POINT ( 'NONE', #321 ) ;
#308 = ORIENTED_EDGE ( 'NONE', *, *, #256, .T. ) ;
#309 = AXIS2_PLACEMENT_3D ( 'NONE', #9, #131, #362 ) ;
#310 = ADVANCED_FACE ( 'NONE', ( #147, #212 ), #266, .F. ) ;
#311 = DIRECTION ( 'NONE',  ( 0.000000000000000000, 0.000000000000000000, 1.000000000000000000 ) ) ;
#312 = VERTEX_POINT ( 'NONE', #303 ) ;
#313 = SECURITY_CLASSIFICATION ( '', '', #377 ) ;
#314 = DATE_AND_TIME ( #226, #156 ) ;
#315 = CARTESIAN_POINT ( 'NONE',  ( 6.500000000000000888, 0.000000000000000000, 7.000000000000002665 ) ) ;
#316 = PERSON_AND_ORGANIZATION ( #128, #79 ) ;
#317 = ORIENTED_EDGE ( 'NONE', *, *, #269, .F. ) ;
#318 = PERSON_AND_ORGANIZATION ( #128, #79 ) ;
#319 = CARTESIAN_POINT ( 'NONE',  ( 0.000000000000000000, 0.000000000000000000, 0.000000000000000000 ) ) ;
#320 = EDGE_CURVE ( 'NONE', #348, #100, #168, .T. ) ;
#321 = CARTESIAN_POINT ( 'NONE',  ( -10.00000000000000000, 0.000000000000000000, 7.000000000000000000 ) ) ;
#322 = CARTESIAN_POINT ( 'NONE',  ( 0.000000000000000000, 0.000000000000000000, 0.000000000000000000 ) ) ;
#323 = FACE_OUTER_BOUND ( 'NONE', #189, .T. ) ;
#324 = AXIS2_PLACEMENT_3D ( 'NONE', #127, #65, #35 ) ;
#325 =( GEOMETRIC_REPRESENTATION_CONTEXT ( 3 ) GLOBAL_UNCERTAINTY_ASSIGNED_CONTEXT ( ( #119 ) ) GLOBAL_UNIT_ASSIGNED_CONTEXT ( ( #159, #367, #253 ) ) REPRESENTATION_CONTEXT ( 'NONE', 'WORKASPACE' ) );
#326 = CARTESIAN_POINT ( 'NONE',  ( -10.00000000000000000, 0.000000000000000000, 7.000000000000000000 ) ) ;
#327 = MANIFOLD_SOLID_BREP ( 'Odebrat vysunutím3', #75 ) ;
#328 = AXIS2_PLACEMENT_3D ( 'NONE', #236, #137, #285 ) ;
#329 = ORIENTED_EDGE ( 'NONE', *, *, #351, .F. ) ;
#330 = DIRECTION ( 'NONE',  ( 0.000000000000000000, 0.000000000000000000, 1.000000000000000000 ) ) ;
#331 = EDGE_LOOP ( 'NONE', ( #129, #205, #161, #34 ) ) ;
#332 = LINE ( 'NONE', #334, #94 ) ;
#333 = ORIENTED_EDGE ( 'NONE', *, *, #351, .T. ) ;
#334 = CARTESIAN_POINT ( 'NONE',  ( -3.250000000000000444, 0.000000000000000000, 157.0000000000000000 ) ) ;
#335 = ORIENTED_EDGE ( 'NONE', *, *, #294, .F. ) ;
#336 = ADVANCED_FACE ( 'NONE', ( #73, #169 ), #164, .T. ) ;
#337 = EDGE_LOOP ( 'NONE', ( #157, #70 ) ) ;
#338 = DATE_AND_TIME ( #286, #202 ) ;
#339 = EDGE_CURVE ( 'NONE', #24, #69, #332, .T. ) ;
#340 = AXIS2_PLACEMENT_3D ( 'NONE', #267, #330, #1 ) ;
#341 = DIRECTION ( 'NONE',  ( -1.000000000000000000, 0.000000000000000000, 0.000000000000000000 ) ) ;
#342 = PERSON_AND_ORGANIZATION ( #128, #79 ) ;
#343 = CARTESIAN_POINT ( 'NONE',  ( 0.000000000000000000, 0.000000000000000000, 157.0000000000000000 ) ) ;
#344 = FACE_BOUND ( 'NONE', #6, .T. ) ;
#345 = CALENDAR_DATE ( 2022, 8, 7 ) ;
#346 = LINE ( 'NONE', #175, #305 ) ;
#347 = VECTOR ( 'NONE', #354, 1000.000000000000000 ) ;
#348 = VERTEX_POINT ( 'NONE', #37 ) ;
#349 = AXIS2_PLACEMENT_3D ( 'NONE', #7, #360, #98 ) ;
#350 = DIRECTION ( 'NONE',  ( 0.000000000000000000, 0.000000000000000000, 1.000000000000000000 ) ) ;
#351 = EDGE_CURVE ( 'NONE', #192, #275, #62, .T. ) ;
#352 = DIRECTION ( 'NONE',  ( 1.000000000000000000, 0.000000000000000000, 0.000000000000000000 ) ) ;
#353 = SHAPE_DEFINITION_REPRESENTATION ( #4, #135 ) ;
#354 = DIRECTION ( 'NONE',  ( -0.000000000000000000, -0.000000000000000000, -1.000000000000000000 ) ) ;
#355 = ORIENTED_EDGE ( 'NONE', *, *, #56, .T. ) ;
#356 = CIRCLE ( 'NONE', #143, 0.5000000000000004441 ) ;
#357 = DIRECTION ( 'NONE',  ( 0.000000000000000000, 0.000000000000000000, 1.000000000000000000 ) ) ;
#358 = VERTEX_POINT ( 'NONE', #160 ) ;
#359 = CC_DESIGN_DATE_AND_TIME_ASSIGNMENT ( #314, #142, ( #92 ) ) ;
#360 = DIRECTION ( 'NONE',  ( 0.000000000000000000, 0.000000000000000000, -1.000000000000000000 ) ) ;
#361 = ORIENTED_EDGE ( 'NONE', *, *, #339, .T. ) ;
#362 = DIRECTION ( 'NONE',  ( 1.000000000000000000, 0.000000000000000000, 0.000000000000000000 ) ) ;
#363 = ORIENTED_EDGE ( 'NONE', *, *, #122, .T. ) ;
#364 = ORIENTED_EDGE ( 'NONE', *, *, #365, .T. ) ;
#365 = EDGE_CURVE ( 'NONE', #24, #276, #185, .T. ) ;
#366 = CARTESIAN_POINT ( 'NONE',  ( 0.000000000000000000, 0.000000000000000000, 7.000000000000000000 ) ) ;
#367 =( NAMED_UNIT ( * ) PLANE_ANGLE_UNIT ( ) SI_UNIT ( $, .RADIAN. ) );
#368 = DIRECTION ( 'NONE',  ( 1.000000000000000000, 0.000000000000000000, -0.000000000000000000 ) ) ;
#369 = TOROIDAL_SURFACE ( 'NONE', #340, 6.500000000000000888, 0.5000000000000000000 ) ;
#370 = DIRECTION ( 'NONE',  ( 1.000000000000000000, 0.000000000000000000, -0.000000000000000000 ) ) ;
#371 = ADVANCED_FACE ( 'NONE', ( #177 ), #261, .F. ) ;
#372 = CC_DESIGN_SECURITY_CLASSIFICATION ( #313, ( #31 ) ) ;
#373 = PERSON_AND_ORGANIZATION_ROLE ( 'creator' ) ;
#374 = DIRECTION ( 'NONE',  ( -0.000000000000000000, -0.000000000000000000, -1.000000000000000000 ) ) ;
#375 = APPROVAL_DATE_TIME ( #284, #237 ) ;
#376 = DIRECTION ( 'NONE',  ( 1.000000000000000000, 0.000000000000000000, 0.000000000000000000 ) ) ;
#377 = SECURITY_CLASSIFICATION_LEVEL ( 'unclassified' ) ;
#378 = FACE_OUTER_BOUND ( 'NONE', #247, .T. ) ;
#379 = DIRECTION ( 'NONE',  ( 0.000000000000000000, 0.000000000000000000, 1.000000000000000000 ) ) ;
#380 = EDGE_CURVE ( 'NONE', #312, #358, #356, .T. ) ;
#381 = LINE ( 'NONE', #326, #347 ) ;
ENDSEC;
END-ISO-10303-21;
