ISO-10303-21;
HEADER;
FILE_DESCRIPTION (( 'STEP AP203' ),
    '1' );
FILE_NAME ('1cf9.STEP',
    '2022-07-08T15:50:14',
    ( '' ),
    ( '' ),
    'SwSTEP 2.0',
    'SolidWorks 2019',
    '' );
FILE_SCHEMA (( 'CONFIG_CONTROL_DESIGN' ));
ENDSEC;

DATA;
#1 = CARTESIAN_POINT ( 'NONE',  ( 4.000000000000000000, 4.898587196589412829E-16, 3.000000000000000000 ) ) ;
#2 = EDGE_CURVE ( 'NONE', #355, #343, #242, .T. ) ;
#3 = CARTESIAN_POINT ( 'NONE',  ( -1.100000000000000089, 0.000000000000000000, 0.000000000000000000 ) ) ;
#4 = CARTESIAN_POINT ( 'NONE',  ( 0.000000000000000000, 0.000000000000000000, 0.000000000000000000 ) ) ;
#5 = CIRCLE ( 'NONE', #219, 4.000000000000000000 ) ;
#6 = DIRECTION ( 'NONE',  ( -1.000000000000000000, 0.000000000000000000, 0.000000000000000000 ) ) ;
#7 =( NAMED_UNIT ( * ) PLANE_ANGLE_UNIT ( ) SI_UNIT ( $, .RADIAN. ) );
#8 = VERTEX_POINT ( 'NONE', #374 ) ;
#9 = PERSON ( 'NEURÈENÝ', 'NEURÈENÝ', 'NEURÈENÝ', ('NEURÈENÝ'), ('NEURÈENÝ'), ('NEURÈENÝ') ) ;
#10 = PERSON_AND_ORGANIZATION ( #9, #363 ) ;
#11 = ORIENTED_EDGE ( 'NONE', *, *, #353, .T. ) ;
#12 = ORIENTED_EDGE ( 'NONE', *, *, #103, .T. ) ;
#13 = EDGE_CURVE ( 'NONE', #52, #8, #256, .T. ) ;
#14 = DIRECTION ( 'NONE',  ( 1.000000000000000000, 0.000000000000000000, 0.000000000000000000 ) ) ;
#15 = VERTEX_POINT ( 'NONE', #80 ) ;
#16 = CARTESIAN_POINT ( 'NONE',  ( 0.000000000000000000, 0.000000000000000000, 3.299999999999997158 ) ) ;
#17 = AXIS2_PLACEMENT_3D ( 'NONE', #29, #183, #149 ) ;
#18 = CYLINDRICAL_SURFACE ( 'NONE', #305, 4.000000000000000000 ) ;
#19 = EDGE_CURVE ( 'NONE', #15, #112, #296, .T. ) ;
#20 = PERSON_AND_ORGANIZATION ( #9, #363 ) ;
#21 = DIRECTION ( 'NONE',  ( -0.000000000000000000, -0.000000000000000000, -1.000000000000000000 ) ) ;
#22 = ORIENTED_EDGE ( 'NONE', *, *, #301, .T. ) ;
#23 = AXIS2_PLACEMENT_3D ( 'NONE', #351, #320, #372 ) ;
#24 = APPROVAL ( #105, 'NEURÈENÝ' ) ;
#25 = CALENDAR_DATE ( 2022, 8, 7 ) ;
#26 = FACE_BOUND ( 'NONE', #342, .T. ) ;
#27 = ORIENTED_EDGE ( 'NONE', *, *, #333, .F. ) ;
#28 = PLANE ( 'NONE',  #77 ) ;
#29 = CARTESIAN_POINT ( 'NONE',  ( 0.000000000000000000, 0.000000000000000000, 3.000000000000000000 ) ) ;
#30 =( GEOMETRIC_REPRESENTATION_CONTEXT ( 3 ) GLOBAL_UNCERTAINTY_ASSIGNED_CONTEXT ( ( #37 ) ) GLOBAL_UNIT_ASSIGNED_CONTEXT ( ( #135, #7, #331 ) ) REPRESENTATION_CONTEXT ( 'NONE', 'WORKASPACE' ) );
#31 = FACE_BOUND ( 'NONE', #191, .T. ) ;
#32 = DIRECTION ( 'NONE',  ( 0.000000000000000000, 0.000000000000000000, -1.000000000000000000 ) ) ;
#33 = EDGE_CURVE ( 'NONE', #355, #85, #107, .T. ) ;
#34 = LINE ( 'NONE', #235, #347 ) ;
#35 = VECTOR ( 'NONE', #138, 1000.000000000000000 ) ;
#36 = DIRECTION ( 'NONE',  ( 0.000000000000000000, 0.000000000000000000, 1.000000000000000000 ) ) ;
#37 = UNCERTAINTY_MEASURE_WITH_UNIT (LENGTH_MEASURE( 1.000000000000000082E-05 ), #135, 'distance_accuracy_value', 'NONE');
#38 = APPLICATION_PROTOCOL_DEFINITION ( 'international standard', 'config_control_design', 1994, #208 ) ;
#39 = ORIENTED_EDGE ( 'NONE', *, *, #33, .F. ) ;
#40 = CARTESIAN_POINT ( 'NONE',  ( 0.000000000000000000, 0.000000000000000000, 0.000000000000000000 ) ) ;
#41 = ORIENTED_EDGE ( 'NONE', *, *, #86, .F. ) ;
#42 = EDGE_LOOP ( 'NONE', ( #380, #41 ) ) ;
#43 = PERSON_AND_ORGANIZATION_ROLE ( 'design_supplier' ) ;
#44 = DIRECTION ( 'NONE',  ( 1.224646799147353207E-16, 1.000000000000000000, -0.000000000000000000 ) ) ;
#45 = CALENDAR_DATE ( 2022, 8, 7 ) ;
#46 = CIRCLE ( 'NONE', #73, 1.100000000000000089 ) ;
#47 = DIRECTION ( 'NONE',  ( 1.000000000000000000, 0.000000000000000000, -0.000000000000000000 ) ) ;
#48 = APPROVAL_DATE_TIME ( #82, #245 ) ;
#49 = EDGE_LOOP ( 'NONE', ( #370, #376, #214, #137 ) ) ;
#50 = EDGE_CURVE ( 'NONE', #277, #15, #55, .T. ) ;
#51 = PERSON_AND_ORGANIZATION ( #9, #363 ) ;
#52 = VERTEX_POINT ( 'NONE', #344 ) ;
#53 = VECTOR ( 'NONE', #21, 1000.000000000000000 ) ;
#54 = AXIS2_PLACEMENT_3D ( 'NONE', #253, #78, #283 ) ;
#55 = LINE ( 'NONE', #172, #345 ) ;
#56 = AXIS2_PLACEMENT_3D ( 'NONE', #40, #185, #299 ) ;
#57 = FACE_OUTER_BOUND ( 'NONE', #94, .T. ) ;
#58 = DIRECTION ( 'NONE',  ( 0.000000000000000000, 0.000000000000000000, 1.000000000000000000 ) ) ;
#59 = EDGE_CURVE ( 'NONE', #85, #134, #178, .T. ) ;
#60 = CYLINDRICAL_SURFACE ( 'NONE', #252, 1.100000000000000089 ) ;
#61 = DIRECTION ( 'NONE',  ( -0.000000000000000000, -0.000000000000000000, -1.000000000000000000 ) ) ;
#62 = ADVANCED_FACE ( 'NONE', ( #26, #231 ), #109, .T. ) ;
#63 = CARTESIAN_POINT ( 'NONE',  ( -1.100000000000000089, 0.000000000000000000, 178.0000000000000000 ) ) ;
#64 = CIRCLE ( 'NONE', #123, 4.000000000000000000 ) ;
#65 = DIRECTION ( 'NONE',  ( 0.000000000000000000, 0.000000000000000000, 1.000000000000000000 ) ) ;
#66 = ORIENTED_EDGE ( 'NONE', *, *, #308, .F. ) ;
#67 = DIRECTION ( 'NONE',  ( 1.000000000000000000, 0.000000000000000000, 0.000000000000000000 ) ) ;
#68 = ADVANCED_FACE ( 'NONE', ( #83 ), #142, .F. ) ;
#69 = EDGE_LOOP ( 'NONE', ( #255, #275 ) ) ;
#70 = AXIS2_PLACEMENT_3D ( 'NONE', #289, #115, #203 ) ;
#71 = CARTESIAN_POINT ( 'NONE',  ( -4.000000000000000000, 0.000000000000000000, 3.000000000000000000 ) ) ;
#72 = VERTEX_POINT ( 'NONE', #164 ) ;
#73 = AXIS2_PLACEMENT_3D ( 'NONE', #127, #177, #290 ) ;
#74 = ORIENTED_EDGE ( 'NONE', *, *, #116, .F. ) ;
#75 = APPROVAL ( #348, 'NEURÈENÝ' ) ;
#76 = DIRECTION ( 'NONE',  ( 0.000000000000000000, 0.000000000000000000, -1.000000000000000000 ) ) ;
#77 = AXIS2_PLACEMENT_3D ( 'NONE', #357, #238, #236 ) ;
#78 = DIRECTION ( 'NONE',  ( 0.000000000000000000, 0.000000000000000000, 1.000000000000000000 ) ) ;
#79 = PERSON_AND_ORGANIZATION ( #9, #363 ) ;
#80 = CARTESIAN_POINT ( 'NONE',  ( 4.000000000000000000, 4.898587196589412829E-16, 0.000000000000000000 ) ) ;
#81 = ADVANCED_FACE ( 'NONE', ( #280 ), #18, .T. ) ;
#82 = DATE_AND_TIME ( #316, #192 ) ;
#83 = FACE_OUTER_BOUND ( 'NONE', #98, .T. ) ;
#84 = AXIS2_PLACEMENT_3D ( 'NONE', #114, #286, #76 ) ;
#85 = VERTEX_POINT ( 'NONE', #91 ) ;
#86 = EDGE_CURVE ( 'NONE', #72, #144, #354, .T. ) ;
#87 = FACE_OUTER_BOUND ( 'NONE', #69, .T. ) ;
#88 = CARTESIAN_POINT ( 'NONE',  ( -4.000000000000000000, 0.000000000000000000, 0.000000000000000000 ) ) ;
#89 = DIRECTION ( 'NONE',  ( 1.000000000000000000, 0.000000000000000000, 0.000000000000000000 ) ) ;
#90 = APPROVAL_PERSON_ORGANIZATION ( #20, #75, #222 ) ;
#91 = CARTESIAN_POINT ( 'NONE',  ( 2.000000000000000000, 2.449293598294706414E-16, 3.299999999999997158 ) ) ;
#92 = CARTESIAN_POINT ( 'NONE',  ( 0.000000000000000000, 0.000000000000000000, 0.000000000000000000 ) ) ;
#93 = CARTESIAN_POINT ( 'NONE',  ( 0.000000000000000000, 0.000000000000000000, 178.0000000000000000 ) ) ;
#94 = EDGE_LOOP ( 'NONE', ( #322, #170 ) ) ;
#95 = AXIS2_PLACEMENT_3D ( 'NONE', #101, #187, #217 ) ;
#96 = LOCAL_TIME ( 17, 50, 14.00000000000000000, #224 ) ;
#97 = CARTESIAN_POINT ( 'NONE',  ( 0.000000000000000000, 0.000000000000000000, 178.0000000000000000 ) ) ;
#98 = EDGE_LOOP ( 'NONE', ( #221, #317, #199, #22 ) ) ;
#99 = CYLINDRICAL_SURFACE ( 'NONE', #148, 2.000000000000000000 ) ;
#100 = ORIENTED_EDGE ( 'NONE', *, *, #116, .T. ) ;
#101 = CARTESIAN_POINT ( 'NONE',  ( 0.000000000000000000, 0.000000000000000000, 3.299999999999997158 ) ) ;
#102 = ORIENTED_EDGE ( 'NONE', *, *, #184, .T. ) ;
#103 = EDGE_CURVE ( 'NONE', #112, #15, #64, .T. ) ;
#104 = AXIS2_PLACEMENT_3D ( 'NONE', #16, #36, #161 ) ;
#105 = APPROVAL_STATUS ( 'not_yet_approved' ) ;
#106 = EDGE_LOOP ( 'NONE', ( #39, #188, #310, #216 ) ) ;
#107 = LINE ( 'NONE', #379, #53 ) ;
#108 = APPLICATION_PROTOCOL_DEFINITION ( 'international standard', 'config_control_design', 1994, #352 ) ;
#109 = PLANE ( 'NONE',  #272 ) ;
#110 = PERSON_AND_ORGANIZATION_ROLE ( 'creator' ) ;
#111 = ADVANCED_FACE ( 'NONE', ( #293 ), #211, .F. ) ;
#112 = VERTEX_POINT ( 'NONE', #88 ) ;
#113 = APPROVAL_ROLE ( '' ) ;
#114 = CARTESIAN_POINT ( 'NONE',  ( 2.299999999999999822, 0.000000000000000000, 3.299999999999997158 ) ) ;
#115 = DIRECTION ( 'NONE',  ( 0.000000000000000000, 0.000000000000000000, -1.000000000000000000 ) ) ;
#116 = EDGE_CURVE ( 'NONE', #134, #8, #186, .T. ) ;
#117 = CIRCLE ( 'NONE', #202, 2.000000000000000000 ) ;
#118 = DIRECTION ( 'NONE',  ( -1.000000000000000000, 0.000000000000000000, 0.000000000000000000 ) ) ;
#119 = CC_DESIGN_APPROVAL ( #24, ( #126 ) ) ;
#120 = CARTESIAN_POINT ( 'NONE',  ( 0.000000000000000000, 0.000000000000000000, 3.299999999999997158 ) ) ;
#121 = ADVANCED_FACE ( 'NONE', ( #263 ), #60, .F. ) ;
#122 = DIRECTION ( 'NONE',  ( 0.000000000000000000, 0.000000000000000000, -1.000000000000000000 ) ) ;
#123 = AXIS2_PLACEMENT_3D ( 'NONE', #359, #240, #147 ) ;
#124 = CARTESIAN_POINT ( 'NONE',  ( 1.100000000000000089, 1.347111479062088503E-16, 178.0000000000000000 ) ) ;
#125 = AXIS2_PLACEMENT_3D ( 'NONE', #334, #213, #368 ) ;
#126 = SECURITY_CLASSIFICATION ( '', '', #319 ) ;
#127 = CARTESIAN_POINT ( 'NONE',  ( 0.000000000000000000, 0.000000000000000000, 0.000000000000000000 ) ) ;
#128 = ORIENTED_EDGE ( 'NONE', *, *, #318, .F. ) ;
#129 = ADVANCED_FACE ( 'NONE', ( #31, #57 ), #28, .T. ) ;
#130 = AXIS2_PLACEMENT_3D ( 'NONE', #349, #44, #201 ) ;
#131 = ORIENTED_EDGE ( 'NONE', *, *, #86, .T. ) ;
#132 = AXIS2_PLACEMENT_3D ( 'NONE', #120, #297, #271 ) ;
#133 = FACE_OUTER_BOUND ( 'NONE', #241, .T. ) ;
#134 = VERTEX_POINT ( 'NONE', #295 ) ;
#135 =( LENGTH_UNIT ( ) NAMED_UNIT ( * ) SI_UNIT ( .MILLI., .METRE. ) );
#136 = EDGE_CURVE ( 'NONE', #218, #72, #205, .T. ) ;
#137 = ORIENTED_EDGE ( 'NONE', *, *, #234, .F. ) ;
#138 = DIRECTION ( 'NONE',  ( 0.000000000000000000, 0.000000000000000000, -1.000000000000000000 ) ) ;
#139 = DATE_AND_TIME ( #45, #281 ) ;
#140 = CARTESIAN_POINT ( 'NONE',  ( 0.000000000000000000, 0.000000000000000000, 3.000000000000000000 ) ) ;
#141 = PRODUCT ( '1cf9', '1cf9', '', ( #154 ) ) ;
#142 = CYLINDRICAL_SURFACE ( 'NONE', #70, 1.100000000000000089 ) ;
#143 = ADVANCED_FACE ( 'NONE', ( #209, #87 ), #266, .F. ) ;
#144 = VERTEX_POINT ( 'NONE', #3 ) ;
#145 = ORIENTED_EDGE ( 'NONE', *, *, #291, .F. ) ;
#146 = ORIENTED_EDGE ( 'NONE', *, *, #59, .F. ) ;
#147 = DIRECTION ( 'NONE',  ( 1.000000000000000000, 0.000000000000000000, 0.000000000000000000 ) ) ;
#148 = AXIS2_PLACEMENT_3D ( 'NONE', #193, #189, #215 ) ;
#149 = DIRECTION ( 'NONE',  ( 1.000000000000000000, 0.000000000000000000, 0.000000000000000000 ) ) ;
#150 = DIRECTION ( 'NONE',  ( 0.000000000000000000, 0.000000000000000000, 1.000000000000000000 ) ) ;
#151 = DIRECTION ( 'NONE',  ( -0.000000000000000000, -0.000000000000000000, -1.000000000000000000 ) ) ;
#152 = CYLINDRICAL_SURFACE ( 'NONE', #323, 2.000000000000000000 ) ;
#153 = ORIENTED_EDGE ( 'NONE', *, *, #234, .T. ) ;
#154 = MECHANICAL_CONTEXT ( 'NONE', #208, 'mechanical' ) ;
#155 = AXIS2_PLACEMENT_3D ( 'NONE', #4, #179, #233 ) ;
#156 = DESIGN_CONTEXT ( 'detailed design', #352, 'design' ) ;
#157 = CARTESIAN_POINT ( 'NONE',  ( -1.100000000000000089, 0.000000000000000000, 178.0000000000000000 ) ) ;
#158 = EDGE_LOOP ( 'NONE', ( #346, #197, #74, #146 ) ) ;
#159 = AXIS2_PLACEMENT_3D ( 'NONE', #381, #61, #365 ) ;
#160 = CC_DESIGN_APPROVAL ( #245, ( #251 ) ) ;
#161 = DIRECTION ( 'NONE',  ( 1.000000000000000000, 0.000000000000000000, 0.000000000000000000 ) ) ;
#162 = ORIENTED_EDGE ( 'NONE', *, *, #353, .F. ) ;
#163 = DATE_AND_TIME ( #25, #356 ) ;
#164 = CARTESIAN_POINT ( 'NONE',  ( 1.100000000000000089, 1.347111479062088503E-16, 0.000000000000000000 ) ) ;
#165 = PERSON_AND_ORGANIZATION ( #9, #363 ) ;
#166 = ADVANCED_BREP_SHAPE_REPRESENTATION ( '1cf9', ( #267, #56 ), #30 ) ;
#167 = DIRECTION ( 'NONE',  ( -0.000000000000000000, -0.000000000000000000, -1.000000000000000000 ) ) ;
#168 = CC_DESIGN_PERSON_AND_ORGANIZATION_ASSIGNMENT ( #165, #110, ( #251 ) ) ;
#169 = APPROVAL_DATE_TIME ( #163, #24 ) ;
#170 = ORIENTED_EDGE ( 'NONE', *, *, #181, .T. ) ;
#171 = DATE_AND_TIME ( #254, #96 ) ;
#172 = CARTESIAN_POINT ( 'NONE',  ( 4.000000000000000000, 4.898587196589412829E-16, 3.000000000000000000 ) ) ;
#173 = PRODUCT_RELATED_PRODUCT_CATEGORY ( 'detail', '', ( #141 ) ) ;
#174 = CALENDAR_DATE ( 2022, 8, 7 ) ;
#175 = AXIS2_PLACEMENT_3D ( 'NONE', #93, #276, #67 ) ;
#176 = DIRECTION ( 'NONE',  ( -0.000000000000000000, -0.000000000000000000, -1.000000000000000000 ) ) ;
#177 = DIRECTION ( 'NONE',  ( -0.000000000000000000, -0.000000000000000000, -1.000000000000000000 ) ) ;
#178 = CIRCLE ( 'NONE', #84, 0.2999999999999999334 ) ;
#179 = DIRECTION ( 'NONE',  ( -0.000000000000000000, -0.000000000000000000, -1.000000000000000000 ) ) ;
#180 = APPROVAL_PERSON_ORGANIZATION ( #285, #24, #113 ) ;
#181 = EDGE_CURVE ( 'NONE', #277, #304, #315, .T. ) ;
#182 = CARTESIAN_POINT ( 'NONE',  ( 0.000000000000000000, 0.000000000000000000, 178.0000000000000000 ) ) ;
#183 = DIRECTION ( 'NONE',  ( -0.000000000000000000, -0.000000000000000000, -1.000000000000000000 ) ) ;
#184 = EDGE_CURVE ( 'NONE', #343, #355, #117, .T. ) ;
#185 = DIRECTION ( 'NONE',  ( 0.000000000000000000, 0.000000000000000000, 1.000000000000000000 ) ) ;
#186 = CIRCLE ( 'NONE', #159, 2.299999999999999822 ) ;
#187 = DIRECTION ( 'NONE',  ( 0.000000000000000000, 0.000000000000000000, 1.000000000000000000 ) ) ;
#188 = ORIENTED_EDGE ( 'NONE', *, *, #184, .F. ) ;
#189 = DIRECTION ( 'NONE',  ( -0.000000000000000000, -0.000000000000000000, -1.000000000000000000 ) ) ;
#190 = CARTESIAN_POINT ( 'NONE',  ( 0.000000000000000000, 0.000000000000000000, 3.000000000000000000 ) ) ;
#191 = EDGE_LOOP ( 'NONE', ( #100, #212 ) ) ;
#192 = LOCAL_TIME ( 17, 50, 14.00000000000000000, #257 ) ;
#193 = CARTESIAN_POINT ( 'NONE',  ( 0.000000000000000000, 0.000000000000000000, 178.0000000000000000 ) ) ;
#194 = APPROVAL_DATE_TIME ( #171, #75 ) ;
#195 = ORIENTED_EDGE ( 'NONE', *, *, #2, .T. ) ;
#196 = APPROVAL_ROLE ( '' ) ;
#197 = ORIENTED_EDGE ( 'NONE', *, *, #13, .T. ) ;
#198 = COORDINATED_UNIVERSAL_TIME_OFFSET ( 1, 0, .AHEAD. ) ;
#199 = ORIENTED_EDGE ( 'NONE', *, *, #339, .T. ) ;
#200 = COORDINATED_UNIVERSAL_TIME_OFFSET ( 1, 0, .AHEAD. ) ;
#201 = DIRECTION ( 'NONE',  ( -1.000000000000000000, 1.224646799147353207E-16, 0.000000000000000000 ) ) ;
#202 = AXIS2_PLACEMENT_3D ( 'NONE', #269, #325, #207 ) ;
#203 = DIRECTION ( 'NONE',  ( -1.000000000000000000, 0.000000000000000000, 0.000000000000000000 ) ) ;
#204 = DIRECTION ( 'NONE',  ( 0.000000000000000000, 0.000000000000000000, 1.000000000000000000 ) ) ;
#205 = LINE ( 'NONE', #124, #307 ) ;
#206 = CC_DESIGN_DATE_AND_TIME_ASSIGNMENT ( #321, #230, ( #126 ) ) ;
#207 = DIRECTION ( 'NONE',  ( 1.000000000000000000, 0.000000000000000000, 0.000000000000000000 ) ) ;
#208 = APPLICATION_CONTEXT ( 'configuration controlled 3d designs of mechanical parts and assemblies' ) ;
#209 = FACE_BOUND ( 'NONE', #42, .T. ) ;
#210 = CARTESIAN_POINT ( 'NONE',  ( 0.000000000000000000, 0.000000000000000000, 3.000000000000000000 ) ) ;
#211 = TOROIDAL_SURFACE ( 'NONE', #244, 2.299999999999999822, 0.2999999999999999889 ) ;
#212 = ORIENTED_EDGE ( 'NONE', *, *, #264, .T. ) ;
#213 = DIRECTION ( 'NONE',  ( 0.000000000000000000, 0.000000000000000000, 1.000000000000000000 ) ) ;
#214 = ORIENTED_EDGE ( 'NONE', *, *, #19, .T. ) ;
#215 = DIRECTION ( 'NONE',  ( -1.000000000000000000, 0.000000000000000000, 0.000000000000000000 ) ) ;
#216 = ORIENTED_EDGE ( 'NONE', *, *, #284, .T. ) ;
#217 = DIRECTION ( 'NONE',  ( 1.000000000000000000, 0.000000000000000000, 0.000000000000000000 ) ) ;
#218 = VERTEX_POINT ( 'NONE', #292 ) ;
#219 = AXIS2_PLACEMENT_3D ( 'NONE', #210, #65, #14 ) ;
#220 = PERSON_AND_ORGANIZATION ( #9, #363 ) ;
#221 = ORIENTED_EDGE ( 'NONE', *, *, #136, .F. ) ;
#222 = APPROVAL_ROLE ( '' ) ;
#223 = EDGE_LOOP ( 'NONE', ( #279, #27, #153, #12 ) ) ;
#224 = COORDINATED_UNIVERSAL_TIME_OFFSET ( 1, 0, .AHEAD. ) ;
#225 = CARTESIAN_POINT ( 'NONE',  ( 0.000000000000000000, 0.000000000000000000, 178.0000000000000000 ) ) ;
#226 = VECTOR ( 'NONE', #330, 1000.000000000000000 ) ;
#227 = PRODUCT_DEFINITION_FORMATION_WITH_SPECIFIED_SOURCE ( 'LIBOVOLNÝ', '', #141, .NOT_KNOWN. ) ;
#228 = COORDINATED_UNIVERSAL_TIME_OFFSET ( 1, 0, .AHEAD. ) ;
#229 = ORIENTED_EDGE ( 'NONE', *, *, #264, .F. ) ;
#230 = DATE_TIME_ROLE ( 'classification_date' ) ;
#231 = FACE_OUTER_BOUND ( 'NONE', #261, .T. ) ;
#232 = CC_DESIGN_SECURITY_CLASSIFICATION ( #126, ( #227 ) ) ;
#233 = DIRECTION ( 'NONE',  ( 1.000000000000000000, 0.000000000000000000, 0.000000000000000000 ) ) ;
#234 = EDGE_CURVE ( 'NONE', #304, #112, #329, .T. ) ;
#235 = CARTESIAN_POINT ( 'NONE',  ( -2.000000000000000000, 0.000000000000000000, 178.0000000000000000 ) ) ;
#236 = DIRECTION ( 'NONE',  ( 1.000000000000000000, 0.000000000000000000, -0.000000000000000000 ) ) ;
#237 = CIRCLE ( 'NONE', #17, 2.299999999999999822 ) ;
#238 = DIRECTION ( 'NONE',  ( 0.000000000000000000, 0.000000000000000000, 1.000000000000000000 ) ) ;
#239 = CC_DESIGN_PERSON_AND_ORGANIZATION_ASSIGNMENT ( #51, #288, ( #126 ) ) ;
#240 = DIRECTION ( 'NONE',  ( 0.000000000000000000, 0.000000000000000000, 1.000000000000000000 ) ) ;
#241 = EDGE_LOOP ( 'NONE', ( #335, #282, #11, #145 ) ) ;
#242 = CIRCLE ( 'NONE', #54, 2.000000000000000000 ) ;
#243 = PERSON_AND_ORGANIZATION_ROLE ( 'design_owner' ) ;
#244 = AXIS2_PLACEMENT_3D ( 'NONE', #327, #150, #265 ) ;
#245 = APPROVAL ( #311, 'NEURÈENÝ' ) ;
#246 = DIRECTION ( 'NONE',  ( -0.000000000000000000, -0.000000000000000000, -1.000000000000000000 ) ) ;
#247 = ORIENTED_EDGE ( 'NONE', *, *, #339, .F. ) ;
#248 = LINE ( 'NONE', #157, #35 ) ;
#249 = VERTEX_POINT ( 'NONE', #63 ) ;
#250 = CARTESIAN_POINT ( 'NONE',  ( -2.000000000000000000, 0.000000000000000000, 178.0000000000000000 ) ) ;
#251 = PRODUCT_DEFINITION ( 'NEZNÁMÝ', '', #227, #156 ) ;
#252 = AXIS2_PLACEMENT_3D ( 'NONE', #182, #32, #118 ) ;
#253 = CARTESIAN_POINT ( 'NONE',  ( 0.000000000000000000, 0.000000000000000000, 178.0000000000000000 ) ) ;
#254 = CALENDAR_DATE ( 2022, 8, 7 ) ;
#255 = ORIENTED_EDGE ( 'NONE', *, *, #103, .F. ) ;
#256 = CIRCLE ( 'NONE', #130, 0.2999999999999999334 ) ;
#257 = COORDINATED_UNIVERSAL_TIME_OFFSET ( 1, 0, .AHEAD. ) ;
#258 = ORIENTED_EDGE ( 'NONE', *, *, #318, .T. ) ;
#259 = LOCAL_TIME ( 17, 50, 14.00000000000000000, #198 ) ;
#260 = PERSON_AND_ORGANIZATION_ROLE ( 'creator' ) ;
#261 = EDGE_LOOP ( 'NONE', ( #102, #195 ) ) ;
#262 = EDGE_LOOP ( 'NONE', ( #258, #302, #131, #247 ) ) ;
#263 = FACE_OUTER_BOUND ( 'NONE', #262, .T. ) ;
#264 = EDGE_CURVE ( 'NONE', #8, #134, #237, .T. ) ;
#265 = DIRECTION ( 'NONE',  ( 1.000000000000000000, 0.000000000000000000, 0.000000000000000000 ) ) ;
#266 = PLANE ( 'NONE',  #371 ) ;
#267 = MANIFOLD_SOLID_BREP ( 'Odebrat vysunutím3', #313 ) ;
#268 = CC_DESIGN_PERSON_AND_ORGANIZATION_ASSIGNMENT ( #375, #260, ( #227 ) ) ;
#269 = CARTESIAN_POINT ( 'NONE',  ( 0.000000000000000000, 0.000000000000000000, 178.0000000000000000 ) ) ;
#270 = CIRCLE ( 'NONE', #95, 2.000000000000000000 ) ;
#271 = DIRECTION ( 'NONE',  ( 1.000000000000000000, 0.000000000000000000, 0.000000000000000000 ) ) ;
#272 = AXIS2_PLACEMENT_3D ( 'NONE', #225, #314, #47 ) ;
#273 = CC_DESIGN_DATE_AND_TIME_ASSIGNMENT ( #139, #378, ( #251 ) ) ;
#274 = DIRECTION ( 'NONE',  ( -0.000000000000000000, -0.000000000000000000, -1.000000000000000000 ) ) ;
#275 = ORIENTED_EDGE ( 'NONE', *, *, #19, .F. ) ;
#276 = DIRECTION ( 'NONE',  ( 0.000000000000000000, 0.000000000000000000, 1.000000000000000000 ) ) ;
#277 = VERTEX_POINT ( 'NONE', #1 ) ;
#278 = FACE_OUTER_BOUND ( 'NONE', #223, .T. ) ;
#279 = ORIENTED_EDGE ( 'NONE', *, *, #50, .F. ) ;
#280 = FACE_OUTER_BOUND ( 'NONE', #49, .T. ) ;
#281 = LOCAL_TIME ( 17, 50, 14.00000000000000000, #228 ) ;
#282 = ORIENTED_EDGE ( 'NONE', *, *, #33, .T. ) ;
#283 = DIRECTION ( 'NONE',  ( 1.000000000000000000, 0.000000000000000000, 0.000000000000000000 ) ) ;
#284 = EDGE_CURVE ( 'NONE', #52, #85, #332, .T. ) ;
#285 = PERSON_AND_ORGANIZATION ( #9, #363 ) ;
#286 = DIRECTION ( 'NONE',  ( 0.000000000000000000, -1.000000000000000000, 0.000000000000000000 ) ) ;
#287 = CIRCLE ( 'NONE', #125, 1.100000000000000089 ) ;
#288 = PERSON_AND_ORGANIZATION_ROLE ( 'classification_officer' ) ;
#289 = CARTESIAN_POINT ( 'NONE',  ( 0.000000000000000000, 0.000000000000000000, 178.0000000000000000 ) ) ;
#290 = DIRECTION ( 'NONE',  ( 1.000000000000000000, 0.000000000000000000, 0.000000000000000000 ) ) ;
#291 = EDGE_CURVE ( 'NONE', #343, #52, #34, .T. ) ;
#292 = CARTESIAN_POINT ( 'NONE',  ( 1.100000000000000089, 1.347111479062088503E-16, 178.0000000000000000 ) ) ;
#293 = FACE_OUTER_BOUND ( 'NONE', #158, .T. ) ;
#294 = CC_DESIGN_PERSON_AND_ORGANIZATION_ASSIGNMENT ( #79, #43, ( #227 ) ) ;
#295 = CARTESIAN_POINT ( 'NONE',  ( 2.299999999999999822, 0.000000000000000000, 2.999999999999998668 ) ) ;
#296 = CIRCLE ( 'NONE', #23, 4.000000000000000000 ) ;
#297 = DIRECTION ( 'NONE',  ( 0.000000000000000000, 0.000000000000000000, 1.000000000000000000 ) ) ;
#298 = AXIS2_PLACEMENT_3D ( 'NONE', #190, #274, #336 ) ;
#299 = DIRECTION ( 'NONE',  ( 1.000000000000000000, 0.000000000000000000, 0.000000000000000000 ) ) ;
#300 = FACE_OUTER_BOUND ( 'NONE', #106, .T. ) ;
#301 = EDGE_CURVE ( 'NONE', #144, #72, #46, .T. ) ;
#302 = ORIENTED_EDGE ( 'NONE', *, *, #136, .T. ) ;
#303 = DIRECTION ( 'NONE',  ( -1.000000000000000000, 0.000000000000000000, 0.000000000000000000 ) ) ;
#304 = VERTEX_POINT ( 'NONE', #71 ) ;
#305 = AXIS2_PLACEMENT_3D ( 'NONE', #140, #167, #6 ) ;
#306 = CARTESIAN_POINT ( 'NONE',  ( 2.000000000000000000, 2.449293598294706414E-16, 178.0000000000000000 ) ) ;
#307 = VECTOR ( 'NONE', #122, 1000.000000000000000 ) ;
#308 = EDGE_CURVE ( 'NONE', #218, #249, #287, .T. ) ;
#309 = CYLINDRICAL_SURFACE ( 'NONE', #298, 4.000000000000000000 ) ;
#310 = ORIENTED_EDGE ( 'NONE', *, *, #291, .T. ) ;
#311 = APPROVAL_STATUS ( 'not_yet_approved' ) ;
#312 = ORIENTED_EDGE ( 'NONE', *, *, #59, .T. ) ;
#313 = CLOSED_SHELL ( 'NONE', ( #121, #111, #373, #81, #324, #129, #143, #361, #62, #366, #68 ) ) ;
#314 = DIRECTION ( 'NONE',  ( 0.000000000000000000, 0.000000000000000000, 1.000000000000000000 ) ) ;
#315 = CIRCLE ( 'NONE', #362, 4.000000000000000000 ) ;
#316 = CALENDAR_DATE ( 2022, 8, 7 ) ;
#317 = ORIENTED_EDGE ( 'NONE', *, *, #308, .T. ) ;
#318 = EDGE_CURVE ( 'NONE', #249, #218, #341, .T. ) ;
#319 = SECURITY_CLASSIFICATION_LEVEL ( 'unclassified' ) ;
#320 = DIRECTION ( 'NONE',  ( 0.000000000000000000, 0.000000000000000000, 1.000000000000000000 ) ) ;
#321 = DATE_AND_TIME ( #174, #259 ) ;
#322 = ORIENTED_EDGE ( 'NONE', *, *, #333, .T. ) ;
#323 = AXIS2_PLACEMENT_3D ( 'NONE', #97, #246, #303 ) ;
#324 = ADVANCED_FACE ( 'NONE', ( #278 ), #309, .T. ) ;
#325 = DIRECTION ( 'NONE',  ( 0.000000000000000000, 0.000000000000000000, 1.000000000000000000 ) ) ;
#326 = DIRECTION ( 'NONE',  ( 1.000000000000000000, 0.000000000000000000, -0.000000000000000000 ) ) ;
#327 = CARTESIAN_POINT ( 'NONE',  ( 0.000000000000000000, 0.000000000000000000, 3.299999999999997158 ) ) ;
#328 = APPROVAL_PERSON_ORGANIZATION ( #220, #245, #196 ) ;
#329 = LINE ( 'NONE', #364, #226 ) ;
#330 = DIRECTION ( 'NONE',  ( -0.000000000000000000, -0.000000000000000000, -1.000000000000000000 ) ) ;
#331 =( NAMED_UNIT ( * ) SI_UNIT ( $, .STERADIAN. ) SOLID_ANGLE_UNIT ( ) );
#332 = CIRCLE ( 'NONE', #132, 2.000000000000000000 ) ;
#333 = EDGE_CURVE ( 'NONE', #304, #277, #5, .T. ) ;
#334 = CARTESIAN_POINT ( 'NONE',  ( 0.000000000000000000, 0.000000000000000000, 178.0000000000000000 ) ) ;
#335 = ORIENTED_EDGE ( 'NONE', *, *, #2, .F. ) ;
#336 = DIRECTION ( 'NONE',  ( -1.000000000000000000, 0.000000000000000000, 0.000000000000000000 ) ) ;
#337 = EDGE_LOOP ( 'NONE', ( #338, #162, #312, #229 ) ) ;
#338 = ORIENTED_EDGE ( 'NONE', *, *, #13, .F. ) ;
#339 = EDGE_CURVE ( 'NONE', #249, #144, #248, .T. ) ;
#340 = FACE_OUTER_BOUND ( 'NONE', #337, .T. ) ;
#341 = CIRCLE ( 'NONE', #175, 1.100000000000000089 ) ;
#342 = EDGE_LOOP ( 'NONE', ( #128, #66 ) ) ;
#343 = VERTEX_POINT ( 'NONE', #250 ) ;
#344 = CARTESIAN_POINT ( 'NONE',  ( -2.000000000000000000, 0.000000000000000000, 3.299999999999997158 ) ) ;
#345 = VECTOR ( 'NONE', #176, 1000.000000000000000 ) ;
#346 = ORIENTED_EDGE ( 'NONE', *, *, #284, .F. ) ;
#347 = VECTOR ( 'NONE', #151, 1000.000000000000000 ) ;
#348 = APPROVAL_STATUS ( 'not_yet_approved' ) ;
#349 = CARTESIAN_POINT ( 'NONE',  ( -2.299999999999999822, 2.816687638038912056E-16, 3.299999999999997158 ) ) ;
#350 = SHAPE_DEFINITION_REPRESENTATION ( #358, #166 ) ;
#351 = CARTESIAN_POINT ( 'NONE',  ( 0.000000000000000000, 0.000000000000000000, 0.000000000000000000 ) ) ;
#352 = APPLICATION_CONTEXT ( 'configuration controlled 3d designs of mechanical parts and assemblies' ) ;
#353 = EDGE_CURVE ( 'NONE', #85, #52, #270, .T. ) ;
#354 = CIRCLE ( 'NONE', #155, 1.100000000000000089 ) ;
#355 = VERTEX_POINT ( 'NONE', #306 ) ;
#356 = LOCAL_TIME ( 17, 50, 14.00000000000000000, #200 ) ;
#357 = CARTESIAN_POINT ( 'NONE',  ( 0.000000000000000000, 0.000000000000000000, 3.000000000000000000 ) ) ;
#358 = PRODUCT_DEFINITION_SHAPE ( 'NONE', 'NONE',  #251 ) ;
#359 = CARTESIAN_POINT ( 'NONE',  ( 0.000000000000000000, 0.000000000000000000, 0.000000000000000000 ) ) ;
#360 = CARTESIAN_POINT ( 'NONE',  ( 0.000000000000000000, 0.000000000000000000, 3.000000000000000000 ) ) ;
#361 = ADVANCED_FACE ( 'NONE', ( #300 ), #99, .T. ) ;
#362 = AXIS2_PLACEMENT_3D ( 'NONE', #360, #58, #89 ) ;
#363 = ORGANIZATION ( 'NEURÈENÝ', 'NEURÈENÝ', '' ) ;
#364 = CARTESIAN_POINT ( 'NONE',  ( -4.000000000000000000, 0.000000000000000000, 3.000000000000000000 ) ) ;
#365 = DIRECTION ( 'NONE',  ( 1.000000000000000000, 0.000000000000000000, 0.000000000000000000 ) ) ;
#366 = ADVANCED_FACE ( 'NONE', ( #340 ), #367, .F. ) ;
#367 = TOROIDAL_SURFACE ( 'NONE', #104, 2.299999999999999822, 0.2999999999999999889 ) ;
#368 = DIRECTION ( 'NONE',  ( 1.000000000000000000, 0.000000000000000000, 0.000000000000000000 ) ) ;
#369 = CC_DESIGN_PERSON_AND_ORGANIZATION_ASSIGNMENT ( #10, #243, ( #141 ) ) ;
#370 = ORIENTED_EDGE ( 'NONE', *, *, #181, .F. ) ;
#371 = AXIS2_PLACEMENT_3D ( 'NONE', #92, #204, #326 ) ;
#372 = DIRECTION ( 'NONE',  ( 1.000000000000000000, 0.000000000000000000, 0.000000000000000000 ) ) ;
#373 = ADVANCED_FACE ( 'NONE', ( #133 ), #152, .T. ) ;
#374 = CARTESIAN_POINT ( 'NONE',  ( -2.299999999999999822, 2.816687638038912056E-16, 2.999999999999998668 ) ) ;
#375 = PERSON_AND_ORGANIZATION ( #9, #363 ) ;
#376 = ORIENTED_EDGE ( 'NONE', *, *, #50, .T. ) ;
#377 = CC_DESIGN_APPROVAL ( #75, ( #227 ) ) ;
#378 = DATE_TIME_ROLE ( 'creation_date' ) ;
#379 = CARTESIAN_POINT ( 'NONE',  ( 2.000000000000000000, 2.449293598294706414E-16, 178.0000000000000000 ) ) ;
#380 = ORIENTED_EDGE ( 'NONE', *, *, #301, .F. ) ;
#381 = CARTESIAN_POINT ( 'NONE',  ( 0.000000000000000000, 0.000000000000000000, 3.000000000000000000 ) ) ;
ENDSEC;
END-ISO-10303-21;
