ISO-10303-21;
HEADER;
FILE_DESCRIPTION (( 'STEP AP203' ),
    '1' );
FILE_NAME ('f7b8.STEP',
    '2022-07-08T15:03:39',
    ( '' ),
    ( '' ),
    'SwSTEP 2.0',
    'SolidWorks 2019',
    '' );
FILE_SCHEMA (( 'CONFIG_CONTROL_DESIGN' ));
ENDSEC;

DATA;
#1 = DIRECTION ( 'NONE',  ( -1.000000000000000000, 1.224646799147351482E-16, 0.000000000000000000 ) ) ;
#2 = APPROVAL_ROLE ( '' ) ;
#3 = EDGE_CURVE ( 'NONE', #201, #262, #67, .T. ) ;
#4 = EDGE_LOOP ( 'NONE', ( #380, #322 ) ) ;
#5 = AXIS2_PLACEMENT_3D ( 'NONE', #64, #237, #1 ) ;
#6 = EDGE_CURVE ( 'NONE', #201, #143, #300, .T. ) ;
#7 = AXIS2_PLACEMENT_3D ( 'NONE', #350, #221, #200 ) ;
#8 = PERSON_AND_ORGANIZATION_ROLE ( 'classification_officer' ) ;
#9 = LINE ( 'NONE', #183, #325 ) ;
#10 = DIRECTION ( 'NONE',  ( -0.000000000000000000, -0.000000000000000000, -1.000000000000000000 ) ) ;
#11 = CARTESIAN_POINT ( 'NONE',  ( 0.000000000000000000, 0.000000000000000000, 5.000000000000000000 ) ) ;
#12 = ORIENTED_EDGE ( 'NONE', *, *, #359, .T. ) ;
#13 = DIRECTION ( 'NONE',  ( -0.000000000000000000, -0.000000000000000000, -1.000000000000000000 ) ) ;
#14 = DIRECTION ( 'NONE',  ( 1.000000000000000000, 0.000000000000000000, 0.000000000000000000 ) ) ;
#15 = ORIENTED_EDGE ( 'NONE', *, *, #359, .F. ) ;
#16 = FACE_OUTER_BOUND ( 'NONE', #86, .T. ) ;
#17 = AXIS2_PLACEMENT_3D ( 'NONE', #371, #160, #105 ) ;
#18 = APPLICATION_CONTEXT ( 'configuration controlled 3d designs of mechanical parts and assemblies' ) ;
#19 = CARTESIAN_POINT ( 'NONE',  ( -8.000000000000000000, 0.000000000000000000, 5.000000000000000000 ) ) ;
#20 = DIRECTION ( 'NONE',  ( 0.000000000000000000, 0.000000000000000000, 1.000000000000000000 ) ) ;
#21 = VERTEX_POINT ( 'NONE', #329 ) ;
#22 = ADVANCED_FACE ( 'NONE', ( #94, #381 ), #334, .T. ) ;
#23 = DIRECTION ( 'NONE',  ( 0.000000000000000000, 0.000000000000000000, 1.000000000000000000 ) ) ;
#24 = VECTOR ( 'NONE', #40, 1000.000000000000000 ) ;
#25 = CIRCLE ( 'NONE', #5, 0.5000000000000004441 ) ;
#26 = CARTESIAN_POINT ( 'NONE',  ( 0.000000000000000000, 0.000000000000000000, 5.499999999999949374 ) ) ;
#27 = ORIENTED_EDGE ( 'NONE', *, *, #136, .F. ) ;
#28 = ORIENTED_EDGE ( 'NONE', *, *, #133, .F. ) ;
#29 = PERSON ( 'NEURÈENÝ', 'NEURÈENÝ', 'NEURÈENÝ', ('NEURÈENÝ'), ('NEURÈENÝ'), ('NEURÈENÝ') ) ;
#30 = ORIENTED_EDGE ( 'NONE', *, *, #290, .F. ) ;
#31 = ORIENTED_EDGE ( 'NONE', *, *, #260, .T. ) ;
#32 = AXIS2_PLACEMENT_3D ( 'NONE', #374, #20, #287 ) ;
#33 = CARTESIAN_POINT ( 'NONE',  ( 0.000000000000000000, 0.000000000000000000, 5.000000000000000000 ) ) ;
#34 = PRODUCT ( 'f7b8', 'f7b8', '', ( #352 ) ) ;
#35 = EDGE_CURVE ( 'NONE', #53, #21, #41, .T. ) ;
#36 = CC_DESIGN_PERSON_AND_ORGANIZATION_ASSIGNMENT ( #56, #222, ( #122 ) ) ;
#37 = DIRECTION ( 'NONE',  ( 1.000000000000000000, 0.000000000000000000, 0.000000000000000000 ) ) ;
#38 = CARTESIAN_POINT ( 'NONE',  ( 0.000000000000000000, 0.000000000000000000, 655.0000000000000000 ) ) ;
#39 = CARTESIAN_POINT ( 'NONE',  ( 0.000000000000000000, 0.000000000000000000, 5.000000000000000000 ) ) ;
#40 = DIRECTION ( 'NONE',  ( 0.000000000000000000, 0.000000000000000000, -1.000000000000000000 ) ) ;
#41 = CIRCLE ( 'NONE', #125, 2.750000000000000000 ) ;
#42 = PRODUCT_DEFINITION_FORMATION_WITH_SPECIFIED_SOURCE ( 'LIBOVOLNÝ', '', #34, .NOT_KNOWN. ) ;
#43 = FACE_OUTER_BOUND ( 'NONE', #257, .T. ) ;
#44 = EDGE_CURVE ( 'NONE', #214, #47, #288, .T. ) ;
#45 = EDGE_CURVE ( 'NONE', #262, #201, #369, .T. ) ;
#46 = DIRECTION ( 'NONE',  ( -0.000000000000000000, -0.000000000000000000, -1.000000000000000000 ) ) ;
#47 = VERTEX_POINT ( 'NONE', #59 ) ;
#48 = CARTESIAN_POINT ( 'NONE',  ( 0.000000000000000000, 0.000000000000000000, 655.0000000000000000 ) ) ;
#49 = CLOSED_SHELL ( 'NONE', ( #323, #195, #62, #233, #95, #184, #93, #174, #22, #351, #245 ) ) ;
#50 = ORIENTED_EDGE ( 'NONE', *, *, #6, .T. ) ;
#51 = DATE_AND_TIME ( #84, #145 ) ;
#52 =( NAMED_UNIT ( * ) PLANE_ANGLE_UNIT ( ) SI_UNIT ( $, .RADIAN. ) );
#53 = VERTEX_POINT ( 'NONE', #355 ) ;
#54 = CIRCLE ( 'NONE', #298, 2.750000000000000000 ) ;
#55 = TOROIDAL_SURFACE ( 'NONE', #187, 5.500000000000000000, 0.5000000000000000000 ) ;
#56 = PERSON_AND_ORGANIZATION ( #29, #164 ) ;
#57 = EDGE_CURVE ( 'NONE', #172, #314, #25, .T. ) ;
#58 = CALENDAR_DATE ( 2022, 8, 7 ) ;
#59 = CARTESIAN_POINT ( 'NONE',  ( -5.000000000000000000, 0.000000000000000000, 655.0000000000000000 ) ) ;
#60 = DIRECTION ( 'NONE',  ( 1.000000000000000000, 0.000000000000000000, 0.000000000000000000 ) ) ;
#61 = CC_DESIGN_SECURITY_CLASSIFICATION ( #83, ( #42 ) ) ;
#62 = ADVANCED_FACE ( 'NONE', ( #127 ), #232, .T. ) ;
#63 = PERSON_AND_ORGANIZATION ( #29, #164 ) ;
#64 = CARTESIAN_POINT ( 'NONE',  ( -5.500000000000000000, 6.735557395310442023E-16, 5.499999999999949374 ) ) ;
#65 = DIRECTION ( 'NONE',  ( -0.000000000000000000, -0.000000000000000000, -1.000000000000000000 ) ) ;
#66 = DIRECTION ( 'NONE',  ( 0.000000000000000000, 0.000000000000000000, 1.000000000000000000 ) ) ;
#67 = CIRCLE ( 'NONE', #163, 8.000000000000000000 ) ;
#68 = AXIS2_PLACEMENT_3D ( 'NONE', #225, #291, #198 ) ;
#69 = DIRECTION ( 'NONE',  ( 0.000000000000000000, 0.000000000000000000, -1.000000000000000000 ) ) ;
#70 = CARTESIAN_POINT ( 'NONE',  ( 5.000000000000000000, 6.123233995736766282E-16, 655.0000000000000000 ) ) ;
#71 = ORIENTED_EDGE ( 'NONE', *, *, #57, .F. ) ;
#72 = CARTESIAN_POINT ( 'NONE',  ( 8.000000000000000000, 9.797174393178825657E-16, 0.000000000000000000 ) ) ;
#73 = CIRCLE ( 'NONE', #17, 8.000000000000000000 ) ;
#74 = EDGE_CURVE ( 'NONE', #47, #172, #356, .T. ) ;
#75 = CC_DESIGN_APPROVAL ( #279, ( #83 ) ) ;
#76 = LOCAL_TIME ( 17, 3, 39.00000000000000000, #131 ) ;
#77 = EDGE_CURVE ( 'NONE', #21, #319, #9, .T. ) ;
#78 = FACE_OUTER_BOUND ( 'NONE', #81, .T. ) ;
#79 = ORIENTED_EDGE ( 'NONE', *, *, #109, .T. ) ;
#80 =( LENGTH_UNIT ( ) NAMED_UNIT ( * ) SI_UNIT ( .MILLI., .METRE. ) );
#81 = EDGE_LOOP ( 'NONE', ( #153, #353, #363, #79 ) ) ;
#82 = AXIS2_PLACEMENT_3D ( 'NONE', #338, #278, #166 ) ;
#83 = SECURITY_CLASSIFICATION ( '', '', #238 ) ;
#84 = CALENDAR_DATE ( 2022, 8, 7 ) ;
#85 = FACE_OUTER_BOUND ( 'NONE', #286, .T. ) ;
#86 = EDGE_LOOP ( 'NONE', ( #254, #50, #316, #27 ) ) ;
#87 = COORDINATED_UNIVERSAL_TIME_OFFSET ( 1, 0, .AHEAD. ) ;
#88 = EDGE_LOOP ( 'NONE', ( #250, #209, #349, #375 ) ) ;
#89 = AXIS2_PLACEMENT_3D ( 'NONE', #283, #281, #14 ) ;
#90 = APPROVAL ( #253, 'NEURÈENÝ' ) ;
#91 = EDGE_LOOP ( 'NONE', ( #71, #28, #119, #179 ) ) ;
#92 = COORDINATED_UNIVERSAL_TIME_OFFSET ( 1, 0, .AHEAD. ) ;
#93 = ADVANCED_FACE ( 'NONE', ( #303, #130 ), #151, .F. ) ;
#94 = FACE_BOUND ( 'NONE', #4, .T. ) ;
#95 = ADVANCED_FACE ( 'NONE', ( #100 ), #132, .T. ) ;
#96 = MANIFOLD_SOLID_BREP ( 'Odebrat vysunutím3', #49 ) ;
#97 = DATE_AND_TIME ( #101, #204 ) ;
#98 = AXIS2_PLACEMENT_3D ( 'NONE', #211, #239, #362 ) ;
#99 = DIRECTION ( 'NONE',  ( -0.000000000000000000, -0.000000000000000000, -1.000000000000000000 ) ) ;
#100 = FACE_OUTER_BOUND ( 'NONE', #269, .T. ) ;
#101 = CALENDAR_DATE ( 2022, 8, 7 ) ;
#102 = LINE ( 'NONE', #274, #335 ) ;
#103 = CARTESIAN_POINT ( 'NONE',  ( 0.000000000000000000, 0.000000000000000000, 5.000000000000000000 ) ) ;
#104 = AXIS2_PLACEMENT_3D ( 'NONE', #11, #346, #365 ) ;
#105 = DIRECTION ( 'NONE',  ( 1.000000000000000000, 0.000000000000000000, 0.000000000000000000 ) ) ;
#106 = ORIENTED_EDGE ( 'NONE', *, *, #136, .T. ) ;
#107 = CARTESIAN_POINT ( 'NONE',  ( 0.000000000000000000, 0.000000000000000000, 0.000000000000000000 ) ) ;
#108 = EDGE_CURVE ( 'NONE', #214, #366, #102, .T. ) ;
#109 = EDGE_CURVE ( 'NONE', #111, #319, #347, .T. ) ;
#110 = DIRECTION ( 'NONE',  ( 0.000000000000000000, 0.000000000000000000, 1.000000000000000000 ) ) ;
#111 = VERTEX_POINT ( 'NONE', #190 ) ;
#112 = CIRCLE ( 'NONE', #229, 2.750000000000000000 ) ;
#113 = DIRECTION ( 'NONE',  ( -1.000000000000000000, 0.000000000000000000, 0.000000000000000000 ) ) ;
#114 = DIRECTION ( 'NONE',  ( 1.000000000000000000, 0.000000000000000000, 0.000000000000000000 ) ) ;
#115 = APPLICATION_PROTOCOL_DEFINITION ( 'international standard', 'config_control_design', 1994, #205 ) ;
#116 = EDGE_LOOP ( 'NONE', ( #148, #124 ) ) ;
#117 = AXIS2_PLACEMENT_3D ( 'NONE', #48, #46, #113 ) ;
#118 = DIRECTION ( 'NONE',  ( 1.000000000000000000, 0.000000000000000000, 0.000000000000000000 ) ) ;
#119 = ORIENTED_EDGE ( 'NONE', *, *, #146, .T. ) ;
#120 = APPROVAL_ROLE ( '' ) ;
#121 = ORIENTED_EDGE ( 'NONE', *, *, #3, .T. ) ;
#122 = PRODUCT_DEFINITION ( 'NEZNÁMÝ', '', #42, #293 ) ;
#123 = EDGE_CURVE ( 'NONE', #172, #366, #263, .T. ) ;
#124 = ORIENTED_EDGE ( 'NONE', *, *, #44, .T. ) ;
#125 = AXIS2_PLACEMENT_3D ( 'NONE', #38, #264, #60 ) ;
#126 = DIRECTION ( 'NONE',  ( 0.000000000000000000, 0.000000000000000000, 1.000000000000000000 ) ) ;
#127 = FACE_OUTER_BOUND ( 'NONE', #88, .T. ) ;
#128 = AXIS2_PLACEMENT_3D ( 'NONE', #39, #242, #367 ) ;
#129 = DATE_TIME_ROLE ( 'classification_date' ) ;
#130 = FACE_OUTER_BOUND ( 'NONE', #284, .T. ) ;
#131 = COORDINATED_UNIVERSAL_TIME_OFFSET ( 1, 0, .AHEAD. ) ;
#132 = CYLINDRICAL_SURFACE ( 'NONE', #98, 8.000000000000000000 ) ;
#133 = EDGE_CURVE ( 'NONE', #366, #172, #182, .T. ) ;
#134 = CYLINDRICAL_SURFACE ( 'NONE', #117, 5.000000000000000000 ) ;
#135 = AXIS2_PLACEMENT_3D ( 'NONE', #33, #267, #37 ) ;
#136 = EDGE_CURVE ( 'NONE', #262, #199, #337, .T. ) ;
#137 = FACE_OUTER_BOUND ( 'NONE', #167, .T. ) ;
#138 = CYLINDRICAL_SURFACE ( 'NONE', #270, 2.750000000000000000 ) ;
#139 = FACE_BOUND ( 'NONE', #296, .T. ) ;
#140 = AXIS2_PLACEMENT_3D ( 'NONE', #220, #13, #247 ) ;
#141 = CARTESIAN_POINT ( 'NONE',  ( 0.000000000000000000, 0.000000000000000000, 655.0000000000000000 ) ) ;
#142 = PERSON_AND_ORGANIZATION ( #29, #164 ) ;
#143 = VERTEX_POINT ( 'NONE', #72 ) ;
#144 = TOROIDAL_SURFACE ( 'NONE', #357, 5.500000000000000000, 0.5000000000000000000 ) ;
#145 = LOCAL_TIME ( 17, 3, 39.00000000000000000, #348 ) ;
#146 = EDGE_CURVE ( 'NONE', #366, #252, #277, .T. ) ;
#147 = DIRECTION ( 'NONE',  ( 1.000000000000000000, 0.000000000000000000, 0.000000000000000000 ) ) ;
#148 = ORIENTED_EDGE ( 'NONE', *, *, #290, .T. ) ;
#149 = ORIENTED_EDGE ( 'NONE', *, *, #146, .F. ) ;
#150 = CIRCLE ( 'NONE', #364, 8.000000000000000000 ) ;
#151 = PLANE ( 'NONE',  #240 ) ;
#152 = PERSON_AND_ORGANIZATION ( #29, #164 ) ;
#153 = ORIENTED_EDGE ( 'NONE', *, *, #77, .F. ) ;
#154 = APPROVAL_STATUS ( 'not_yet_approved' ) ;
#155 = DIRECTION ( 'NONE',  ( 0.000000000000000000, 0.000000000000000000, 1.000000000000000000 ) ) ;
#156 = APPROVAL ( #175, 'NEURÈENÝ' ) ;
#157 = DIRECTION ( 'NONE',  ( -0.000000000000000000, -0.000000000000000000, -1.000000000000000000 ) ) ;
#158 = EDGE_CURVE ( 'NONE', #319, #111, #54, .T. ) ;
#159 = DIRECTION ( 'NONE',  ( 0.000000000000000000, 0.000000000000000000, -1.000000000000000000 ) ) ;
#160 = DIRECTION ( 'NONE',  ( 0.000000000000000000, 0.000000000000000000, 1.000000000000000000 ) ) ;
#161 = CC_DESIGN_PERSON_AND_ORGANIZATION_ASSIGNMENT ( #361, #271, ( #42 ) ) ;
#162 = CARTESIAN_POINT ( 'NONE',  ( -8.000000000000000000, 0.000000000000000000, 5.000000000000000000 ) ) ;
#163 = AXIS2_PLACEMENT_3D ( 'NONE', #103, #210, #212 ) ;
#164 = ORGANIZATION ( 'NEURÈENÝ', 'NEURÈENÝ', '' ) ;
#165 = DIRECTION ( 'NONE',  ( 1.000000000000000000, 0.000000000000000000, 0.000000000000000000 ) ) ;
#166 = DIRECTION ( 'NONE',  ( 0.000000000000000000, 0.000000000000000000, -1.000000000000000000 ) ) ;
#167 = EDGE_LOOP ( 'NONE', ( #377, #230, #15, #149 ) ) ;
#168 = CYLINDRICAL_SURFACE ( 'NONE', #128, 8.000000000000000000 ) ;
#169 = VECTOR ( 'NONE', #99, 1000.000000000000000 ) ;
#170 = CARTESIAN_POINT ( 'NONE',  ( 0.000000000000000000, 0.000000000000000000, 0.000000000000000000 ) ) ;
#171 = DATE_TIME_ROLE ( 'creation_date' ) ;
#172 = VERTEX_POINT ( 'NONE', #194 ) ;
#173 = CC_DESIGN_DATE_AND_TIME_ASSIGNMENT ( #51, #171, ( #122 ) ) ;
#174 = ADVANCED_FACE ( 'NONE', ( #275 ), #134, .T. ) ;
#175 = APPROVAL_STATUS ( 'not_yet_approved' ) ;
#176 = ORIENTED_EDGE ( 'NONE', *, *, #109, .F. ) ;
#177 = CIRCLE ( 'NONE', #32, 5.000000000000000000 ) ;
#178 = ORIENTED_EDGE ( 'NONE', *, *, #260, .F. ) ;
#179 = ORIENTED_EDGE ( 'NONE', *, *, #244, .F. ) ;
#180 = APPROVAL_DATE_TIME ( #268, #90 ) ;
#181 = CARTESIAN_POINT ( 'NONE',  ( -5.000000000000000000, 0.000000000000000000, 655.0000000000000000 ) ) ;
#182 = CIRCLE ( 'NONE', #203, 5.000000000000000000 ) ;
#183 = CARTESIAN_POINT ( 'NONE',  ( 2.750000000000000000, 3.367778697655221012E-16, 655.0000000000000000 ) ) ;
#184 = ADVANCED_FACE ( 'NONE', ( #139, #43 ), #342, .T. ) ;
#185 = CALENDAR_DATE ( 2022, 8, 7 ) ;
#186 = CARTESIAN_POINT ( 'NONE',  ( 0.000000000000000000, 0.000000000000000000, 655.0000000000000000 ) ) ;
#187 = AXIS2_PLACEMENT_3D ( 'NONE', #26, #23, #147 ) ;
#188 = ORIENTED_EDGE ( 'NONE', *, *, #123, .T. ) ;
#189 = CARTESIAN_POINT ( 'NONE',  ( -8.000000000000000000, 0.000000000000000000, 0.000000000000000000 ) ) ;
#190 = CARTESIAN_POINT ( 'NONE',  ( -2.750000000000000000, 0.000000000000000000, 0.000000000000000000 ) ) ;
#191 = AXIS2_PLACEMENT_3D ( 'NONE', #208, #126, #331 ) ;
#192 = CARTESIAN_POINT ( 'NONE',  ( 0.000000000000000000, 0.000000000000000000, 5.499999999999949374 ) ) ;
#193 = VECTOR ( 'NONE', #310, 1000.000000000000000 ) ;
#194 = CARTESIAN_POINT ( 'NONE',  ( -5.000000000000000000, 0.000000000000000000, 5.499999999999949374 ) ) ;
#195 = ADVANCED_FACE ( 'NONE', ( #137 ), #144, .F. ) ;
#196 = DIRECTION ( 'NONE',  ( 0.000000000000000000, 0.000000000000000000, 1.000000000000000000 ) ) ;
#197 = EDGE_LOOP ( 'NONE', ( #176, #259 ) ) ;
#198 = DIRECTION ( 'NONE',  ( 1.000000000000000000, 0.000000000000000000, 0.000000000000000000 ) ) ;
#199 = VERTEX_POINT ( 'NONE', #189 ) ;
#200 = DIRECTION ( 'NONE',  ( -1.000000000000000000, 0.000000000000000000, 0.000000000000000000 ) ) ;
#201 = VERTEX_POINT ( 'NONE', #243 ) ;
#202 = CALENDAR_DATE ( 2022, 8, 7 ) ;
#203 = AXIS2_PLACEMENT_3D ( 'NONE', #309, #196, #165 ) ;
#204 = LOCAL_TIME ( 17, 3, 39.00000000000000000, #92 ) ;
#205 = APPLICATION_CONTEXT ( 'configuration controlled 3d designs of mechanical parts and assemblies' ) ;
#206 = ORIENTED_EDGE ( 'NONE', *, *, #219, .F. ) ;
#207 = ORIENTED_EDGE ( 'NONE', *, *, #35, .T. ) ;
#208 = CARTESIAN_POINT ( 'NONE',  ( 0.000000000000000000, 0.000000000000000000, 655.0000000000000000 ) ) ;
#209 = ORIENTED_EDGE ( 'NONE', *, *, #108, .T. ) ;
#210 = DIRECTION ( 'NONE',  ( 0.000000000000000000, 0.000000000000000000, 1.000000000000000000 ) ) ;
#211 = CARTESIAN_POINT ( 'NONE',  ( 0.000000000000000000, 0.000000000000000000, 5.000000000000000000 ) ) ;
#212 = DIRECTION ( 'NONE',  ( 1.000000000000000000, 0.000000000000000000, 0.000000000000000000 ) ) ;
#213 = DIRECTION ( 'NONE',  ( 1.000000000000000000, 0.000000000000000000, 0.000000000000000000 ) ) ;
#214 = VERTEX_POINT ( 'NONE', #70 ) ;
#215 = DIRECTION ( 'NONE',  ( -0.000000000000000000, -0.000000000000000000, -1.000000000000000000 ) ) ;
#216 = DIRECTION ( 'NONE',  ( 1.000000000000000000, 0.000000000000000000, 0.000000000000000000 ) ) ;
#217 =( GEOMETRIC_REPRESENTATION_CONTEXT ( 3 ) GLOBAL_UNCERTAINTY_ASSIGNED_CONTEXT ( ( #228 ) ) GLOBAL_UNIT_ASSIGNED_CONTEXT ( ( #80, #52, #285 ) ) REPRESENTATION_CONTEXT ( 'NONE', 'WORKASPACE' ) );
#218 = ORIENTED_EDGE ( 'NONE', *, *, #108, .F. ) ;
#219 = EDGE_CURVE ( 'NONE', #53, #111, #241, .T. ) ;
#220 = CARTESIAN_POINT ( 'NONE',  ( 0.000000000000000000, 0.000000000000000000, 0.000000000000000000 ) ) ;
#221 = DIRECTION ( 'NONE',  ( 0.000000000000000000, 0.000000000000000000, -1.000000000000000000 ) ) ;
#222 = PERSON_AND_ORGANIZATION_ROLE ( 'creator' ) ;
#223 = ORIENTED_EDGE ( 'NONE', *, *, #77, .T. ) ;
#224 = CYLINDRICAL_SURFACE ( 'NONE', #7, 2.750000000000000000 ) ;
#225 = CARTESIAN_POINT ( 'NONE',  ( 0.000000000000000000, 0.000000000000000000, 0.000000000000000000 ) ) ;
#226 = ORIENTED_EDGE ( 'NONE', *, *, #45, .F. ) ;
#227 = PERSON_AND_ORGANIZATION_ROLE ( 'design_owner' ) ;
#228 = UNCERTAINTY_MEASURE_WITH_UNIT (LENGTH_MEASURE( 1.000000000000000082E-05 ), #80, 'distance_accuracy_value', 'NONE');
#229 = AXIS2_PLACEMENT_3D ( 'NONE', #141, #249, #213 ) ;
#230 = ORIENTED_EDGE ( 'NONE', *, *, #57, .T. ) ;
#231 = DIRECTION ( 'NONE',  ( 1.000000000000000000, 0.000000000000000000, 0.000000000000000000 ) ) ;
#232 = CYLINDRICAL_SURFACE ( 'NONE', #246, 5.000000000000000000 ) ;
#233 = ADVANCED_FACE ( 'NONE', ( #16 ), #168, .T. ) ;
#234 = CC_DESIGN_APPROVAL ( #90, ( #42 ) ) ;
#235 = LOCAL_TIME ( 17, 3, 39.00000000000000000, #87 ) ;
#236 = SHAPE_DEFINITION_REPRESENTATION ( #301, #276 ) ;
#237 = DIRECTION ( 'NONE',  ( 1.224646799147353207E-16, 1.000000000000000000, -0.000000000000000000 ) ) ;
#238 = SECURITY_CLASSIFICATION_LEVEL ( 'unclassified' ) ;
#239 = DIRECTION ( 'NONE',  ( -0.000000000000000000, -0.000000000000000000, -1.000000000000000000 ) ) ;
#240 = AXIS2_PLACEMENT_3D ( 'NONE', #297, #155, #358 ) ;
#241 = LINE ( 'NONE', #344, #24 ) ;
#242 = DIRECTION ( 'NONE',  ( -0.000000000000000000, -0.000000000000000000, -1.000000000000000000 ) ) ;
#243 = CARTESIAN_POINT ( 'NONE',  ( 8.000000000000000000, 9.797174393178825657E-16, 5.000000000000000000 ) ) ;
#244 = EDGE_CURVE ( 'NONE', #314, #252, #317, .T. ) ;
#245 = ADVANCED_FACE ( 'NONE', ( #78 ), #138, .F. ) ;
#246 = AXIS2_PLACEMENT_3D ( 'NONE', #186, #65, #308 ) ;
#247 = DIRECTION ( 'NONE',  ( 1.000000000000000000, 0.000000000000000000, 0.000000000000000000 ) ) ;
#248 = CIRCLE ( 'NONE', #343, 5.500000000000000000 ) ;
#249 = DIRECTION ( 'NONE',  ( 0.000000000000000000, 0.000000000000000000, 1.000000000000000000 ) ) ;
#250 = ORIENTED_EDGE ( 'NONE', *, *, #44, .F. ) ;
#251 = APPROVAL_DATE_TIME ( #354, #156 ) ;
#252 = VERTEX_POINT ( 'NONE', #282 ) ;
#253 = APPROVAL_STATUS ( 'not_yet_approved' ) ;
#254 = ORIENTED_EDGE ( 'NONE', *, *, #3, .F. ) ;
#255 = AXIS2_PLACEMENT_3D ( 'NONE', #333, #66, #231 ) ;
#256 = CARTESIAN_POINT ( 'NONE',  ( 5.000000000000000000, 6.123233995736766282E-16, 5.499999999999949374 ) ) ;
#257 = EDGE_LOOP ( 'NONE', ( #345, #121 ) ) ;
#258 = PERSON_AND_ORGANIZATION ( #29, #164 ) ;
#259 = ORIENTED_EDGE ( 'NONE', *, *, #158, .F. ) ;
#260 = EDGE_CURVE ( 'NONE', #199, #143, #73, .T. ) ;
#261 = DIRECTION ( 'NONE',  ( 1.000000000000000000, 0.000000000000000000, 0.000000000000000000 ) ) ;
#262 = VERTEX_POINT ( 'NONE', #19 ) ;
#263 = CIRCLE ( 'NONE', #311, 5.000000000000000000 ) ;
#264 = DIRECTION ( 'NONE',  ( 0.000000000000000000, 0.000000000000000000, 1.000000000000000000 ) ) ;
#265 = PRODUCT_RELATED_PRODUCT_CATEGORY ( 'detail', '', ( #34 ) ) ;
#266 = EDGE_CURVE ( 'NONE', #21, #53, #112, .T. ) ;
#267 = DIRECTION ( 'NONE',  ( 0.000000000000000000, 0.000000000000000000, 1.000000000000000000 ) ) ;
#268 = DATE_AND_TIME ( #58, #76 ) ;
#269 = EDGE_LOOP ( 'NONE', ( #294, #226, #106, #31 ) ) ;
#270 = AXIS2_PLACEMENT_3D ( 'NONE', #368, #69, #313 ) ;
#271 = PERSON_AND_ORGANIZATION_ROLE ( 'design_supplier' ) ;
#272 = CARTESIAN_POINT ( 'NONE',  ( 8.000000000000000000, 9.797174393178825657E-16, 5.000000000000000000 ) ) ;
#273 = PERSON_AND_ORGANIZATION_ROLE ( 'creator' ) ;
#274 = CARTESIAN_POINT ( 'NONE',  ( 5.000000000000000000, 6.123233995736766282E-16, 655.0000000000000000 ) ) ;
#275 = FACE_OUTER_BOUND ( 'NONE', #373, .T. ) ;
#276 = ADVANCED_BREP_SHAPE_REPRESENTATION ( 'f7b8', ( #96, #68 ), #217 ) ;
#277 = CIRCLE ( 'NONE', #82, 0.5000000000000004441 ) ;
#278 = DIRECTION ( 'NONE',  ( 0.000000000000000000, -1.000000000000000000, 0.000000000000000000 ) ) ;
#279 = APPROVAL ( #154, 'NEURÈENÝ' ) ;
#280 = EDGE_CURVE ( 'NONE', #143, #199, #150, .T. ) ;
#281 = DIRECTION ( 'NONE',  ( -0.000000000000000000, -0.000000000000000000, -1.000000000000000000 ) ) ;
#282 = CARTESIAN_POINT ( 'NONE',  ( 5.500000000000000000, 0.000000000000000000, 4.999999999999975131 ) ) ;
#283 = CARTESIAN_POINT ( 'NONE',  ( 0.000000000000000000, 0.000000000000000000, 5.000000000000000000 ) ) ;
#284 = EDGE_LOOP ( 'NONE', ( #178, #304 ) ) ;
#285 =( NAMED_UNIT ( * ) SI_UNIT ( $, .STERADIAN. ) SOLID_ANGLE_UNIT ( ) );
#286 = EDGE_LOOP ( 'NONE', ( #207, #223, #326, #206 ) ) ;
#287 = DIRECTION ( 'NONE',  ( 1.000000000000000000, 0.000000000000000000, 0.000000000000000000 ) ) ;
#288 = CIRCLE ( 'NONE', #255, 5.000000000000000000 ) ;
#289 = CC_DESIGN_APPROVAL ( #156, ( #122 ) ) ;
#290 = EDGE_CURVE ( 'NONE', #47, #214, #177, .T. ) ;
#291 = DIRECTION ( 'NONE',  ( 0.000000000000000000, 0.000000000000000000, 1.000000000000000000 ) ) ;
#292 = CC_DESIGN_PERSON_AND_ORGANIZATION_ASSIGNMENT ( #63, #273, ( #42 ) ) ;
#293 = DESIGN_CONTEXT ( 'detailed design', #18, 'design' ) ;
#294 = ORIENTED_EDGE ( 'NONE', *, *, #6, .F. ) ;
#295 = APPLICATION_PROTOCOL_DEFINITION ( 'international standard', 'config_control_design', 1994, #18 ) ;
#296 = EDGE_LOOP ( 'NONE', ( #12, #328 ) ) ;
#297 = CARTESIAN_POINT ( 'NONE',  ( 0.000000000000000000, 0.000000000000000000, 0.000000000000000000 ) ) ;
#298 = AXIS2_PLACEMENT_3D ( 'NONE', #107, #215, #315 ) ;
#299 = PERSON_AND_ORGANIZATION ( #29, #164 ) ;
#300 = LINE ( 'NONE', #272, #305 ) ;
#301 = PRODUCT_DEFINITION_SHAPE ( 'NONE', 'NONE',  #122 ) ;
#302 = COORDINATED_UNIVERSAL_TIME_OFFSET ( 1, 0, .AHEAD. ) ;
#303 = FACE_BOUND ( 'NONE', #197, .T. ) ;
#304 = ORIENTED_EDGE ( 'NONE', *, *, #280, .F. ) ;
#305 = VECTOR ( 'NONE', #157, 1000.000000000000000 ) ;
#306 = LOCAL_TIME ( 17, 3, 39.00000000000000000, #302 ) ;
#307 = DATE_AND_TIME ( #185, #306 ) ;
#308 = DIRECTION ( 'NONE',  ( -1.000000000000000000, 0.000000000000000000, 0.000000000000000000 ) ) ;
#309 = CARTESIAN_POINT ( 'NONE',  ( 0.000000000000000000, 0.000000000000000000, 5.499999999999949374 ) ) ;
#310 = DIRECTION ( 'NONE',  ( -0.000000000000000000, -0.000000000000000000, -1.000000000000000000 ) ) ;
#311 = AXIS2_PLACEMENT_3D ( 'NONE', #372, #110, #114 ) ;
#312 = DIRECTION ( 'NONE',  ( 0.000000000000000000, 0.000000000000000000, 1.000000000000000000 ) ) ;
#313 = DIRECTION ( 'NONE',  ( -1.000000000000000000, 0.000000000000000000, 0.000000000000000000 ) ) ;
#314 = VERTEX_POINT ( 'NONE', #379 ) ;
#315 = DIRECTION ( 'NONE',  ( 1.000000000000000000, 0.000000000000000000, 0.000000000000000000 ) ) ;
#316 = ORIENTED_EDGE ( 'NONE', *, *, #280, .T. ) ;
#317 = CIRCLE ( 'NONE', #89, 5.500000000000000000 ) ;
#318 = APPROVAL_PERSON_ORGANIZATION ( #378, #156, #120 ) ;
#319 = VERTEX_POINT ( 'NONE', #324 ) ;
#320 = FACE_OUTER_BOUND ( 'NONE', #91, .T. ) ;
#321 = DIRECTION ( 'NONE',  ( -0.000000000000000000, -0.000000000000000000, -1.000000000000000000 ) ) ;
#322 = ORIENTED_EDGE ( 'NONE', *, *, #266, .F. ) ;
#323 = ADVANCED_FACE ( 'NONE', ( #85 ), #224, .F. ) ;
#324 = CARTESIAN_POINT ( 'NONE',  ( 2.750000000000000000, 3.367778697655221012E-16, 0.000000000000000000 ) ) ;
#325 = VECTOR ( 'NONE', #159, 1000.000000000000000 ) ;
#326 = ORIENTED_EDGE ( 'NONE', *, *, #158, .T. ) ;
#327 = CARTESIAN_POINT ( 'NONE',  ( 0.000000000000000000, 0.000000000000000000, 5.000000000000000000 ) ) ;
#328 = ORIENTED_EDGE ( 'NONE', *, *, #244, .T. ) ;
#329 = CARTESIAN_POINT ( 'NONE',  ( 2.750000000000000000, 3.367778697655221012E-16, 655.0000000000000000 ) ) ;
#330 = APPROVAL_DATE_TIME ( #97, #279 ) ;
#331 = DIRECTION ( 'NONE',  ( 1.000000000000000000, 0.000000000000000000, -0.000000000000000000 ) ) ;
#332 = APPROVAL_ROLE ( '' ) ;
#333 = CARTESIAN_POINT ( 'NONE',  ( 0.000000000000000000, 0.000000000000000000, 655.0000000000000000 ) ) ;
#334 = PLANE ( 'NONE',  #191 ) ;
#335 = VECTOR ( 'NONE', #10, 1000.000000000000000 ) ;
#336 = APPROVAL_PERSON_ORGANIZATION ( #142, #90, #2 ) ;
#337 = LINE ( 'NONE', #162, #193 ) ;
#338 = CARTESIAN_POINT ( 'NONE',  ( 5.500000000000000000, 0.000000000000000000, 5.499999999999949374 ) ) ;
#339 = CC_DESIGN_PERSON_AND_ORGANIZATION_ASSIGNMENT ( #299, #8, ( #83 ) ) ;
#340 = ORIENTED_EDGE ( 'NONE', *, *, #74, .T. ) ;
#341 = CC_DESIGN_DATE_AND_TIME_ASSIGNMENT ( #307, #129, ( #83 ) ) ;
#342 = PLANE ( 'NONE',  #104 ) ;
#343 = AXIS2_PLACEMENT_3D ( 'NONE', #327, #321, #261 ) ;
#344 = CARTESIAN_POINT ( 'NONE',  ( -2.750000000000000000, 0.000000000000000000, 655.0000000000000000 ) ) ;
#345 = ORIENTED_EDGE ( 'NONE', *, *, #45, .T. ) ;
#346 = DIRECTION ( 'NONE',  ( 0.000000000000000000, 0.000000000000000000, 1.000000000000000000 ) ) ;
#347 = CIRCLE ( 'NONE', #140, 2.750000000000000000 ) ;
#348 = COORDINATED_UNIVERSAL_TIME_OFFSET ( 1, 0, .AHEAD. ) ;
#349 = ORIENTED_EDGE ( 'NONE', *, *, #133, .T. ) ;
#350 = CARTESIAN_POINT ( 'NONE',  ( 0.000000000000000000, 0.000000000000000000, 655.0000000000000000 ) ) ;
#351 = ADVANCED_FACE ( 'NONE', ( #320 ), #55, .F. ) ;
#352 = MECHANICAL_CONTEXT ( 'NONE', #205, 'mechanical' ) ;
#353 = ORIENTED_EDGE ( 'NONE', *, *, #266, .T. ) ;
#354 = DATE_AND_TIME ( #202, #235 ) ;
#355 = CARTESIAN_POINT ( 'NONE',  ( -2.750000000000000000, 0.000000000000000000, 655.0000000000000000 ) ) ;
#356 = LINE ( 'NONE', #181, #169 ) ;
#357 = AXIS2_PLACEMENT_3D ( 'NONE', #192, #312, #216 ) ;
#358 = DIRECTION ( 'NONE',  ( 1.000000000000000000, 0.000000000000000000, -0.000000000000000000 ) ) ;
#359 = EDGE_CURVE ( 'NONE', #252, #314, #248, .T. ) ;
#360 = CC_DESIGN_PERSON_AND_ORGANIZATION_ASSIGNMENT ( #258, #227, ( #34 ) ) ;
#361 = PERSON_AND_ORGANIZATION ( #29, #164 ) ;
#362 = DIRECTION ( 'NONE',  ( -1.000000000000000000, 0.000000000000000000, 0.000000000000000000 ) ) ;
#363 = ORIENTED_EDGE ( 'NONE', *, *, #219, .T. ) ;
#364 = AXIS2_PLACEMENT_3D ( 'NONE', #170, #376, #118 ) ;
#365 = DIRECTION ( 'NONE',  ( 1.000000000000000000, 0.000000000000000000, -0.000000000000000000 ) ) ;
#366 = VERTEX_POINT ( 'NONE', #256 ) ;
#367 = DIRECTION ( 'NONE',  ( -1.000000000000000000, 0.000000000000000000, 0.000000000000000000 ) ) ;
#368 = CARTESIAN_POINT ( 'NONE',  ( 0.000000000000000000, 0.000000000000000000, 655.0000000000000000 ) ) ;
#369 = CIRCLE ( 'NONE', #135, 8.000000000000000000 ) ;
#370 = APPROVAL_PERSON_ORGANIZATION ( #152, #279, #332 ) ;
#371 = CARTESIAN_POINT ( 'NONE',  ( 0.000000000000000000, 0.000000000000000000, 0.000000000000000000 ) ) ;
#372 = CARTESIAN_POINT ( 'NONE',  ( 0.000000000000000000, 0.000000000000000000, 5.499999999999949374 ) ) ;
#373 = EDGE_LOOP ( 'NONE', ( #218, #30, #340, #188 ) ) ;
#374 = CARTESIAN_POINT ( 'NONE',  ( 0.000000000000000000, 0.000000000000000000, 655.0000000000000000 ) ) ;
#375 = ORIENTED_EDGE ( 'NONE', *, *, #74, .F. ) ;
#376 = DIRECTION ( 'NONE',  ( 0.000000000000000000, 0.000000000000000000, 1.000000000000000000 ) ) ;
#377 = ORIENTED_EDGE ( 'NONE', *, *, #123, .F. ) ;
#378 = PERSON_AND_ORGANIZATION ( #29, #164 ) ;
#379 = CARTESIAN_POINT ( 'NONE',  ( -5.500000000000000000, 6.735557395310442023E-16, 4.999999999999975131 ) ) ;
#380 = ORIENTED_EDGE ( 'NONE', *, *, #35, .F. ) ;
#381 = FACE_OUTER_BOUND ( 'NONE', #116, .T. ) ;
ENDSEC;
END-ISO-10303-21;
