ISO-10303-21;
HEADER;
FILE_DESCRIPTION (( 'STEP AP203' ),
    '1' );
FILE_NAME ('cce4.STEP',
    '2022-07-08T14:29:26',
    ( '' ),
    ( '' ),
    'SwSTEP 2.0',
    'SolidWorks 2019',
    '' );
FILE_SCHEMA (( 'CONFIG_CONTROL_DESIGN' ));
ENDSEC;

DATA;
#1 = ADVANCED_FACE ( 'NONE', ( #203 ), #375, .T. ) ;
#2 = CARTESIAN_POINT ( 'NONE',  ( 6.000000000000000888, 7.347880794884120722E-16, 607.0000000000000000 ) ) ;
#3 = CARTESIAN_POINT ( 'NONE',  ( -10.00000000000000000, 0.000000000000000000, 0.000000000000000000 ) ) ;
#4 = PLANE ( 'NONE',  #349 ) ;
#5 = AXIS2_PLACEMENT_3D ( 'NONE', #273, #123, #212 ) ;
#6 = DIRECTION ( 'NONE',  ( 0.000000000000000000, 0.000000000000000000, 1.000000000000000000 ) ) ;
#7 = CARTESIAN_POINT ( 'NONE',  ( 0.000000000000000000, 0.000000000000000000, 607.0000000000000000 ) ) ;
#8 = CARTESIAN_POINT ( 'NONE',  ( 6.700000000000001066, 0.000000000000000000, 7.700000000000040146 ) ) ;
#9 = AXIS2_PLACEMENT_3D ( 'NONE', #331, #6, #241 ) ;
#10 = APPROVAL_PERSON_ORGANIZATION ( #173, #291, #112 ) ;
#11 = ORIENTED_EDGE ( 'NONE', *, *, #314, .T. ) ;
#12 = DATE_TIME_ROLE ( 'creation_date' ) ;
#13 = CIRCLE ( 'NONE', #163, 4.250000000000000000 ) ;
#14 = CC_DESIGN_DATE_AND_TIME_ASSIGNMENT ( #166, #12, ( #239 ) ) ;
#15 = ORIENTED_EDGE ( 'NONE', *, *, #125, .F. ) ;
#16 = EDGE_LOOP ( 'NONE', ( #345, #313, #172, #153 ) ) ;
#17 = FACE_OUTER_BOUND ( 'NONE', #303, .T. ) ;
#18 = CIRCLE ( 'NONE', #152, 10.00000000000000000 ) ;
#19 = DIRECTION ( 'NONE',  ( 0.000000000000000000, 0.000000000000000000, -1.000000000000000000 ) ) ;
#20 = EDGE_CURVE ( 'NONE', #286, #196, #22, .T. ) ;
#21 = CARTESIAN_POINT ( 'NONE',  ( 0.000000000000000000, 0.000000000000000000, 607.0000000000000000 ) ) ;
#22 = LINE ( 'NONE', #84, #194 ) ;
#23 = CIRCLE ( 'NONE', #263, 0.7000000000000000666 ) ;
#24 = ADVANCED_FACE ( 'NONE', ( #17 ), #141, .F. ) ;
#25 = DIRECTION ( 'NONE',  ( -0.000000000000000000, -0.000000000000000000, -1.000000000000000000 ) ) ;
#26 = DIRECTION ( 'NONE',  ( 1.000000000000000000, 0.000000000000000000, 0.000000000000000000 ) ) ;
#27 = CARTESIAN_POINT ( 'NONE',  ( 4.250000000000000000, 5.204748896376250699E-16, 607.0000000000000000 ) ) ;
#28 = ORIENTED_EDGE ( 'NONE', *, *, #192, .T. ) ;
#29 = EDGE_CURVE ( 'NONE', #196, #108, #122, .T. ) ;
#30 = FACE_OUTER_BOUND ( 'NONE', #187, .T. ) ;
#31 = AXIS2_PLACEMENT_3D ( 'NONE', #357, #93, #62 ) ;
#32 = CARTESIAN_POINT ( 'NONE',  ( 0.000000000000000000, 0.000000000000000000, 7.000000000000000000 ) ) ;
#33 = ORIENTED_EDGE ( 'NONE', *, *, #314, .F. ) ;
#34 = CARTESIAN_POINT ( 'NONE',  ( 6.700000000000001066, 0.000000000000000000, 7.000000000000020428 ) ) ;
#35 = VECTOR ( 'NONE', #46, 1000.000000000000000 ) ;
#36 = EDGE_LOOP ( 'NONE', ( #233, #289 ) ) ;
#37 = ORIENTED_EDGE ( 'NONE', *, *, #51, .T. ) ;
#38 = CIRCLE ( 'NONE', #257, 6.000000000000000888 ) ;
#39 = MECHANICAL_CONTEXT ( 'NONE', #130, 'mechanical' ) ;
#40 = APPROVAL_DATE_TIME ( #227, #288 ) ;
#41 = DIRECTION ( 'NONE',  ( 0.000000000000000000, 0.000000000000000000, 1.000000000000000000 ) ) ;
#42 = DIRECTION ( 'NONE',  ( 1.000000000000000000, 0.000000000000000000, 0.000000000000000000 ) ) ;
#43 = CC_DESIGN_PERSON_AND_ORGANIZATION_ASSIGNMENT ( #335, #281, ( #85 ) ) ;
#44 = AXIS2_PLACEMENT_3D ( 'NONE', #72, #283, #100 ) ;
#45 = EDGE_LOOP ( 'NONE', ( #306, #106, #287, #274 ) ) ;
#46 = DIRECTION ( 'NONE',  ( -0.000000000000000000, -0.000000000000000000, -1.000000000000000000 ) ) ;
#47 = APPROVAL_DATE_TIME ( #109, #291 ) ;
#48 = ORIENTED_EDGE ( 'NONE', *, *, #305, .F. ) ;
#49 = CARTESIAN_POINT ( 'NONE',  ( 0.000000000000000000, 0.000000000000000000, 7.700000000000040146 ) ) ;
#50 = CIRCLE ( 'NONE', #278, 10.00000000000000000 ) ;
#51 = EDGE_CURVE ( 'NONE', #206, #201, #209, .T. ) ;
#52 = LINE ( 'NONE', #175, #170 ) ;
#53 = DIRECTION ( 'NONE',  ( -1.000000000000000000, 0.000000000000000000, 0.000000000000000000 ) ) ;
#54 = PERSON_AND_ORGANIZATION ( #161, #380 ) ;
#55 = EDGE_CURVE ( 'NONE', #299, #246, #176, .T. ) ;
#56 = AXIS2_PLACEMENT_3D ( 'NONE', #116, #242, #61 ) ;
#57 = FACE_OUTER_BOUND ( 'NONE', #107, .T. ) ;
#58 = DIRECTION ( 'NONE',  ( 0.000000000000000000, 0.000000000000000000, 1.000000000000000000 ) ) ;
#59 = ORIENTED_EDGE ( 'NONE', *, *, #74, .F. ) ;
#60 = CARTESIAN_POINT ( 'NONE',  ( 0.000000000000000000, 0.000000000000000000, 607.0000000000000000 ) ) ;
#61 = DIRECTION ( 'NONE',  ( 1.000000000000000000, 0.000000000000000000, 0.000000000000000000 ) ) ;
#62 = DIRECTION ( 'NONE',  ( -1.000000000000000000, 0.000000000000000000, 0.000000000000000000 ) ) ;
#63 = DIRECTION ( 'NONE',  ( 1.000000000000000000, 0.000000000000000000, 0.000000000000000000 ) ) ;
#64 = ORIENTED_EDGE ( 'NONE', *, *, #305, .T. ) ;
#65 = DIRECTION ( 'NONE',  ( 0.000000000000000000, 0.000000000000000000, 1.000000000000000000 ) ) ;
#66 = AXIS2_PLACEMENT_3D ( 'NONE', #21, #315, #53 ) ;
#67 = ORIENTED_EDGE ( 'NONE', *, *, #251, .F. ) ;
#68 = APPROVAL_STATUS ( 'not_yet_approved' ) ;
#69 = ADVANCED_FACE ( 'NONE', ( #260, #236 ), #347, .T. ) ;
#70 = CARTESIAN_POINT ( 'NONE',  ( 0.000000000000000000, 0.000000000000000000, 0.000000000000000000 ) ) ;
#71 = PERSON_AND_ORGANIZATION_ROLE ( 'creator' ) ;
#72 = CARTESIAN_POINT ( 'NONE',  ( 0.000000000000000000, 0.000000000000000000, 0.000000000000000000 ) ) ;
#73 = AXIS2_PLACEMENT_3D ( 'NONE', #234, #346, #317 ) ;
#74 = EDGE_CURVE ( 'NONE', #126, #310, #52, .T. ) ;
#75 = CALENDAR_DATE ( 2022, 8, 7 ) ;
#76 = ORIENTED_EDGE ( 'NONE', *, *, #149, .T. ) ;
#77 = DIRECTION ( 'NONE',  ( -0.000000000000000000, -0.000000000000000000, -1.000000000000000000 ) ) ;
#78 = ORIENTED_EDGE ( 'NONE', *, *, #29, .T. ) ;
#79 = EDGE_CURVE ( 'NONE', #138, #160, #368, .T. ) ;
#80 = ORIENTED_EDGE ( 'NONE', *, *, #235, .T. ) ;
#81 = ORIENTED_EDGE ( 'NONE', *, *, #118, .F. ) ;
#82 = AXIS2_PLACEMENT_3D ( 'NONE', #220, #332, #276 ) ;
#83 = PERSON_AND_ORGANIZATION_ROLE ( 'design_supplier' ) ;
#84 = CARTESIAN_POINT ( 'NONE',  ( 6.000000000000000888, 7.347880794884120722E-16, 607.0000000000000000 ) ) ;
#85 = PRODUCT ( 'cce4', 'cce4', '', ( #39 ) ) ;
#86 = FACE_OUTER_BOUND ( 'NONE', #120, .T. ) ;
#87 = DIRECTION ( 'NONE',  ( 0.000000000000000000, 0.000000000000000000, 1.000000000000000000 ) ) ;
#88 = SECURITY_CLASSIFICATION ( '', '', #374 ) ;
#89 = PRODUCT_DEFINITION_SHAPE ( 'NONE', 'NONE',  #239 ) ;
#90 = CARTESIAN_POINT ( 'NONE',  ( 0.000000000000000000, 0.000000000000000000, 7.000000000000000000 ) ) ;
#91 = CARTESIAN_POINT ( 'NONE',  ( 0.000000000000000000, 0.000000000000000000, 7.700000000000040146 ) ) ;
#92 = EDGE_CURVE ( 'NONE', #362, #138, #342, .T. ) ;
#93 = DIRECTION ( 'NONE',  ( -0.000000000000000000, -0.000000000000000000, -1.000000000000000000 ) ) ;
#94 = DIRECTION ( 'NONE',  ( -0.000000000000000000, -0.000000000000000000, -1.000000000000000000 ) ) ;
#95 = ORIENTED_EDGE ( 'NONE', *, *, #370, .F. ) ;
#96 = DIRECTION ( 'NONE',  ( 0.000000000000000000, -1.000000000000000000, 0.000000000000000000 ) ) ;
#97 = EDGE_LOOP ( 'NONE', ( #67, #76, #81, #372 ) ) ;
#98 =( LENGTH_UNIT ( ) NAMED_UNIT ( * ) SI_UNIT ( .MILLI., .METRE. ) );
#99 = DESIGN_CONTEXT ( 'detailed design', #252, 'design' ) ;
#100 = DIRECTION ( 'NONE',  ( 1.000000000000000000, 0.000000000000000000, 0.000000000000000000 ) ) ;
#101 = CIRCLE ( 'NONE', #221, 10.00000000000000000 ) ;
#102 = APPROVAL_STATUS ( 'not_yet_approved' ) ;
#103 = ORIENTED_EDGE ( 'NONE', *, *, #74, .T. ) ;
#104 = ORIENTED_EDGE ( 'NONE', *, *, #228, .F. ) ;
#105 = UNCERTAINTY_MEASURE_WITH_UNIT (LENGTH_MEASURE( 1.000000000000000082E-05 ), #98, 'distance_accuracy_value', 'NONE');
#106 = ORIENTED_EDGE ( 'NONE', *, *, #248, .F. ) ;
#107 = EDGE_LOOP ( 'NONE', ( #329, #224 ) ) ;
#108 = VERTEX_POINT ( 'NONE', #119 ) ;
#109 = DATE_AND_TIME ( #320, #164 ) ;
#110 = DIRECTION ( 'NONE',  ( -0.000000000000000000, -0.000000000000000000, -1.000000000000000000 ) ) ;
#111 = AXIS2_PLACEMENT_3D ( 'NONE', #91, #333, #26 ) ;
#112 = APPROVAL_ROLE ( '' ) ;
#113 = DIRECTION ( 'NONE',  ( -1.000000000000000000, 0.000000000000000000, 0.000000000000000000 ) ) ;
#114 = AXIS2_PLACEMENT_3D ( 'NONE', #49, #143, #319 ) ;
#115 = CARTESIAN_POINT ( 'NONE',  ( 10.00000000000000000, 1.224646799147353256E-15, 7.000000000000000000 ) ) ;
#116 = CARTESIAN_POINT ( 'NONE',  ( 0.000000000000000000, 0.000000000000000000, 607.0000000000000000 ) ) ;
#117 = CARTESIAN_POINT ( 'NONE',  ( -4.250000000000000000, 0.000000000000000000, 0.000000000000000000 ) ) ;
#118 = EDGE_CURVE ( 'NONE', #246, #299, #254, .T. ) ;
#119 = CARTESIAN_POINT ( 'NONE',  ( -6.000000000000000888, 0.000000000000000000, 7.700000000000040146 ) ) ;
#120 = EDGE_LOOP ( 'NONE', ( #95, #133, #78, #334 ) ) ;
#121 = DIRECTION ( 'NONE',  ( 1.000000000000000000, 0.000000000000000000, 0.000000000000000000 ) ) ;
#122 = CIRCLE ( 'NONE', #114, 6.000000000000000888 ) ;
#123 = DIRECTION ( 'NONE',  ( 1.224646799147353207E-16, 1.000000000000000000, -0.000000000000000000 ) ) ;
#124 = VERTEX_POINT ( 'NONE', #115 ) ;
#125 = EDGE_CURVE ( 'NONE', #124, #160, #325, .T. ) ;
#126 = VERTEX_POINT ( 'NONE', #145 ) ;
#127 = DIRECTION ( 'NONE',  ( 0.000000000000000000, 0.000000000000000000, 1.000000000000000000 ) ) ;
#128 = LOCAL_TIME ( 16, 29, 26.00000000000000000, #339 ) ;
#129 = PERSON_AND_ORGANIZATION ( #161, #380 ) ;
#130 = APPLICATION_CONTEXT ( 'configuration controlled 3d designs of mechanical parts and assemblies' ) ;
#131 = AXIS2_PLACEMENT_3D ( 'NONE', #7, #87, #324 ) ;
#132 = CC_DESIGN_DATE_AND_TIME_ASSIGNMENT ( #376, #293, ( #88 ) ) ;
#133 = ORIENTED_EDGE ( 'NONE', *, *, #20, .T. ) ;
#134 = ORIENTED_EDGE ( 'NONE', *, *, #51, .F. ) ;
#135 = ADVANCED_FACE ( 'NONE', ( #86 ), #182, .T. ) ;
#136 = PERSON_AND_ORGANIZATION ( #161, #380 ) ;
#137 = TOROIDAL_SURFACE ( 'NONE', #229, 6.700000000000001066, 0.6999999999999999556 ) ;
#138 = VERTEX_POINT ( 'NONE', #3 ) ;
#139 = CARTESIAN_POINT ( 'NONE',  ( 0.000000000000000000, 0.000000000000000000, 7.000000000000000000 ) ) ;
#140 = CLOSED_SHELL ( 'NONE', ( #24, #207, #135, #198, #359, #69, #328, #1, #348, #272, #354 ) ) ;
#141 = CYLINDRICAL_SURFACE ( 'NONE', #73, 4.250000000000000000 ) ;
#142 = PERSON_AND_ORGANIZATION_ROLE ( 'creator' ) ;
#143 = DIRECTION ( 'NONE',  ( 0.000000000000000000, 0.000000000000000000, 1.000000000000000000 ) ) ;
#144 = APPROVAL_PERSON_ORGANIZATION ( #188, #288, #364 ) ;
#145 = CARTESIAN_POINT ( 'NONE',  ( -4.250000000000000000, 0.000000000000000000, 607.0000000000000000 ) ) ;
#146 = AXIS2_PLACEMENT_3D ( 'NONE', #32, #155, #180 ) ;
#147 = DIRECTION ( 'NONE',  ( 0.000000000000000000, 0.000000000000000000, 1.000000000000000000 ) ) ;
#148 = CARTESIAN_POINT ( 'NONE',  ( 10.00000000000000000, 1.224646799147353256E-15, 7.000000000000000000 ) ) ;
#149 = EDGE_CURVE ( 'NONE', #108, #299, #337, .T. ) ;
#150 = CARTESIAN_POINT ( 'NONE',  ( -6.000000000000000888, 0.000000000000000000, 607.0000000000000000 ) ) ;
#151 = FACE_OUTER_BOUND ( 'NONE', #97, .T. ) ;
#152 = AXIS2_PLACEMENT_3D ( 'NONE', #90, #58, #295 ) ;
#153 = ORIENTED_EDGE ( 'NONE', *, *, #55, .F. ) ;
#154 = CYLINDRICAL_SURFACE ( 'NONE', #31, 10.00000000000000000 ) ;
#155 = DIRECTION ( 'NONE',  ( -0.000000000000000000, -0.000000000000000000, -1.000000000000000000 ) ) ;
#156 = CARTESIAN_POINT ( 'NONE',  ( -6.000000000000000888, 0.000000000000000000, 607.0000000000000000 ) ) ;
#157 = AXIS2_PLACEMENT_3D ( 'NONE', #139, #77, #377 ) ;
#158 = CC_DESIGN_PERSON_AND_ORGANIZATION_ASSIGNMENT ( #54, #83, ( #294 ) ) ;
#159 = FACE_OUTER_BOUND ( 'NONE', #238, .T. ) ;
#160 = VERTEX_POINT ( 'NONE', #358 ) ;
#161 = PERSON ( 'NEURÈENÝ', 'NEURÈENÝ', 'NEURÈENÝ', ('NEURÈENÝ'), ('NEURÈENÝ'), ('NEURÈENÝ') ) ;
#162 = ORIENTED_EDGE ( 'NONE', *, *, #321, .T. ) ;
#163 = AXIS2_PLACEMENT_3D ( 'NONE', #70, #250, #360 ) ;
#164 = LOCAL_TIME ( 16, 29, 26.00000000000000000, #211 ) ;
#165 = PRODUCT_RELATED_PRODUCT_CATEGORY ( 'detail', '', ( #85 ) ) ;
#166 = DATE_AND_TIME ( #190, #199 ) ;
#167 =( GEOMETRIC_REPRESENTATION_CONTEXT ( 3 ) GLOBAL_UNCERTAINTY_ASSIGNED_CONTEXT ( ( #105 ) ) GLOBAL_UNIT_ASSIGNED_CONTEXT ( ( #98, #312, #197 ) ) REPRESENTATION_CONTEXT ( 'NONE', 'WORKASPACE' ) );
#168 = ORIENTED_EDGE ( 'NONE', *, *, #321, .F. ) ;
#169 = CC_DESIGN_PERSON_AND_ORGANIZATION_ASSIGNMENT ( #136, #142, ( #294 ) ) ;
#170 = VECTOR ( 'NONE', #178, 1000.000000000000000 ) ;
#171 = ORIENTED_EDGE ( 'NONE', *, *, #228, .T. ) ;
#172 = ORIENTED_EDGE ( 'NONE', *, *, #265, .T. ) ;
#173 = PERSON_AND_ORGANIZATION ( #161, #380 ) ;
#174 = CARTESIAN_POINT ( 'NONE',  ( 4.250000000000000000, 5.204748896376250699E-16, 607.0000000000000000 ) ) ;
#175 = CARTESIAN_POINT ( 'NONE',  ( -4.250000000000000000, 0.000000000000000000, 607.0000000000000000 ) ) ;
#176 = CIRCLE ( 'NONE', #157, 6.700000000000001066 ) ;
#177 = COORDINATED_UNIVERSAL_TIME_OFFSET ( 1, 0, .AHEAD. ) ;
#178 = DIRECTION ( 'NONE',  ( 0.000000000000000000, 0.000000000000000000, -1.000000000000000000 ) ) ;
#179 = LOCAL_TIME ( 16, 29, 26.00000000000000000, #307 ) ;
#180 = DIRECTION ( 'NONE',  ( 1.000000000000000000, 0.000000000000000000, 0.000000000000000000 ) ) ;
#181 = DIRECTION ( 'NONE',  ( -1.000000000000000000, 0.000000000000000000, 0.000000000000000000 ) ) ;
#182 = CYLINDRICAL_SURFACE ( 'NONE', #204, 6.000000000000000888 ) ;
#183 = CIRCLE ( 'NONE', #56, 4.250000000000000000 ) ;
#184 = ORIENTED_EDGE ( 'NONE', *, *, #298, .T. ) ;
#185 = CARTESIAN_POINT ( 'NONE',  ( -10.00000000000000000, 0.000000000000000000, 7.000000000000000000 ) ) ;
#186 = CARTESIAN_POINT ( 'NONE',  ( -6.700000000000001066, 8.205133554287267548E-16, 7.000000000000020428 ) ) ;
#187 = EDGE_LOOP ( 'NONE', ( #15, #168, #369, #256 ) ) ;
#188 = PERSON_AND_ORGANIZATION ( #161, #380 ) ;
#189 = CIRCLE ( 'NONE', #131, 4.250000000000000000 ) ;
#190 = CALENDAR_DATE ( 2022, 8, 7 ) ;
#191 = ADVANCED_BREP_SHAPE_REPRESENTATION ( 'cce4', ( #316, #44 ), #167 ) ;
#192 = EDGE_CURVE ( 'NONE', #126, #206, #183, .T. ) ;
#193 = COORDINATED_UNIVERSAL_TIME_OFFSET ( 1, 0, .AHEAD. ) ;
#194 = VECTOR ( 'NONE', #110, 1000.000000000000000 ) ;
#195 = DATE_AND_TIME ( #75, #128 ) ;
#196 = VERTEX_POINT ( 'NONE', #216 ) ;
#197 =( NAMED_UNIT ( * ) SI_UNIT ( $, .STERADIAN. ) SOLID_ANGLE_UNIT ( ) );
#198 = ADVANCED_FACE ( 'NONE', ( #159 ), #327, .T. ) ;
#199 = LOCAL_TIME ( 16, 29, 26.00000000000000000, #193 ) ;
#200 = CARTESIAN_POINT ( 'NONE',  ( -10.00000000000000000, 0.000000000000000000, 7.000000000000000000 ) ) ;
#201 = VERTEX_POINT ( 'NONE', #302 ) ;
#202 = CALENDAR_DATE ( 2022, 8, 7 ) ;
#203 = FACE_OUTER_BOUND ( 'NONE', #45, .T. ) ;
#204 = AXIS2_PLACEMENT_3D ( 'NONE', #240, #94, #113 ) ;
#205 = CC_DESIGN_APPROVAL ( #291, ( #88 ) ) ;
#206 = VERTEX_POINT ( 'NONE', #27 ) ;
#207 = ADVANCED_FACE ( 'NONE', ( #151 ), #137, .F. ) ;
#208 = SHAPE_DEFINITION_REPRESENTATION ( #89, #191 ) ;
#209 = LINE ( 'NONE', #174, #340 ) ;
#210 = AXIS2_PLACEMENT_3D ( 'NONE', #378, #323, #264 ) ;
#211 = COORDINATED_UNIVERSAL_TIME_OFFSET ( 1, 0, .AHEAD. ) ;
#212 = DIRECTION ( 'NONE',  ( -1.000000000000000000, 1.224646799147353454E-16, 0.000000000000000000 ) ) ;
#213 = DIRECTION ( 'NONE',  ( -0.000000000000000000, -0.000000000000000000, -1.000000000000000000 ) ) ;
#214 = CIRCLE ( 'NONE', #318, 4.250000000000000000 ) ;
#215 = DIRECTION ( 'NONE',  ( 0.000000000000000000, 0.000000000000000000, -1.000000000000000000 ) ) ;
#216 = CARTESIAN_POINT ( 'NONE',  ( 6.000000000000000888, 7.347880794884120722E-16, 7.700000000000040146 ) ) ;
#217 = PLANE ( 'NONE',  #9 ) ;
#218 = EDGE_LOOP ( 'NONE', ( #134, #11, #103, #64 ) ) ;
#219 = FACE_OUTER_BOUND ( 'NONE', #285, .T. ) ;
#220 = CARTESIAN_POINT ( 'NONE',  ( 0.000000000000000000, 0.000000000000000000, 7.000000000000000000 ) ) ;
#221 = AXIS2_PLACEMENT_3D ( 'NONE', #271, #127, #296 ) ;
#222 = ORIENTED_EDGE ( 'NONE', *, *, #235, .F. ) ;
#223 = DIRECTION ( 'NONE',  ( 0.000000000000000000, 0.000000000000000000, -1.000000000000000000 ) ) ;
#224 = ORIENTED_EDGE ( 'NONE', *, *, #298, .F. ) ;
#225 = APPLICATION_PROTOCOL_DEFINITION ( 'international standard', 'config_control_design', 1994, #130 ) ;
#226 = DIRECTION ( 'NONE',  ( 1.000000000000000000, 0.000000000000000000, 0.000000000000000000 ) ) ;
#227 = DATE_AND_TIME ( #365, #179 ) ;
#228 = EDGE_CURVE ( 'NONE', #124, #362, #50, .T. ) ;
#229 = AXIS2_PLACEMENT_3D ( 'NONE', #269, #356, #63 ) ;
#230 = APPROVAL_ROLE ( '' ) ;
#231 = DIRECTION ( 'NONE',  ( 1.000000000000000000, 0.000000000000000000, -0.000000000000000000 ) ) ;
#232 = CC_DESIGN_APPROVAL ( #366, ( #294 ) ) ;
#233 = ORIENTED_EDGE ( 'NONE', *, *, #118, .T. ) ;
#234 = CARTESIAN_POINT ( 'NONE',  ( 0.000000000000000000, 0.000000000000000000, 607.0000000000000000 ) ) ;
#235 = EDGE_CURVE ( 'NONE', #201, #310, #13, .T. ) ;
#236 = FACE_OUTER_BOUND ( 'NONE', #279, .T. ) ;
#237 = AXIS2_PLACEMENT_3D ( 'NONE', #60, #215, #181 ) ;
#238 = EDGE_LOOP ( 'NONE', ( #104, #255, #184, #258 ) ) ;
#239 = PRODUCT_DEFINITION ( 'NEZNÁMÝ', '', #294, #99 ) ;
#240 = CARTESIAN_POINT ( 'NONE',  ( 0.000000000000000000, 0.000000000000000000, 607.0000000000000000 ) ) ;
#241 = DIRECTION ( 'NONE',  ( 1.000000000000000000, 0.000000000000000000, -0.000000000000000000 ) ) ;
#242 = DIRECTION ( 'NONE',  ( 0.000000000000000000, 0.000000000000000000, 1.000000000000000000 ) ) ;
#243 = CARTESIAN_POINT ( 'NONE',  ( 0.000000000000000000, 0.000000000000000000, 607.0000000000000000 ) ) ;
#244 = EDGE_LOOP ( 'NONE', ( #48, #222 ) ) ;
#245 = FACE_BOUND ( 'NONE', #244, .T. ) ;
#246 = VERTEX_POINT ( 'NONE', #34 ) ;
#247 = APPROVAL_PERSON_ORGANIZATION ( #129, #366, #230 ) ;
#248 = EDGE_CURVE ( 'NONE', #292, #286, #343, .T. ) ;
#249 = APPLICATION_PROTOCOL_DEFINITION ( 'international standard', 'config_control_design', 1994, #252 ) ;
#250 = DIRECTION ( 'NONE',  ( -0.000000000000000000, -0.000000000000000000, -1.000000000000000000 ) ) ;
#251 = EDGE_CURVE ( 'NONE', #108, #196, #353, .T. ) ;
#252 = APPLICATION_CONTEXT ( 'configuration controlled 3d designs of mechanical parts and assemblies' ) ;
#253 = ORIENTED_EDGE ( 'NONE', *, *, #192, .F. ) ;
#254 = CIRCLE ( 'NONE', #146, 6.700000000000001066 ) ;
#255 = ORIENTED_EDGE ( 'NONE', *, *, #125, .T. ) ;
#256 = ORIENTED_EDGE ( 'NONE', *, *, #79, .T. ) ;
#257 = AXIS2_PLACEMENT_3D ( 'NONE', #341, #280, #42 ) ;
#258 = ORIENTED_EDGE ( 'NONE', *, *, #92, .F. ) ;
#259 = EDGE_CURVE ( 'NONE', #292, #108, #355, .T. ) ;
#260 = FACE_BOUND ( 'NONE', #36, .T. ) ;
#261 = CARTESIAN_POINT ( 'NONE',  ( 0.000000000000000000, 0.000000000000000000, 7.000000000000000000 ) ) ;
#262 = PERSON_AND_ORGANIZATION_ROLE ( 'classification_officer' ) ;
#263 = AXIS2_PLACEMENT_3D ( 'NONE', #8, #96, #223 ) ;
#264 = DIRECTION ( 'NONE',  ( 1.000000000000000000, 0.000000000000000000, 0.000000000000000000 ) ) ;
#265 = EDGE_CURVE ( 'NONE', #196, #246, #23, .T. ) ;
#266 = CYLINDRICAL_SURFACE ( 'NONE', #237, 4.250000000000000000 ) ;
#267 = DIRECTION ( 'NONE',  ( -0.000000000000000000, -0.000000000000000000, -1.000000000000000000 ) ) ;
#268 = FACE_BOUND ( 'NONE', #367, .T. ) ;
#269 = CARTESIAN_POINT ( 'NONE',  ( 0.000000000000000000, 0.000000000000000000, 7.700000000000040146 ) ) ;
#270 = AXIS2_PLACEMENT_3D ( 'NONE', #277, #65, #121 ) ;
#271 = CARTESIAN_POINT ( 'NONE',  ( 0.000000000000000000, 0.000000000000000000, 0.000000000000000000 ) ) ;
#272 = ADVANCED_FACE ( 'NONE', ( #275 ), #311, .F. ) ;
#273 = CARTESIAN_POINT ( 'NONE',  ( -6.700000000000001066, 8.205133554287267548E-16, 7.700000000000040146 ) ) ;
#274 = ORIENTED_EDGE ( 'NONE', *, *, #251, .T. ) ;
#275 = FACE_OUTER_BOUND ( 'NONE', #16, .T. ) ;
#276 = DIRECTION ( 'NONE',  ( -1.000000000000000000, 0.000000000000000000, 0.000000000000000000 ) ) ;
#277 = CARTESIAN_POINT ( 'NONE',  ( 0.000000000000000000, 0.000000000000000000, 607.0000000000000000 ) ) ;
#278 = AXIS2_PLACEMENT_3D ( 'NONE', #297, #41, #226 ) ;
#279 = EDGE_LOOP ( 'NONE', ( #162, #171 ) ) ;
#280 = DIRECTION ( 'NONE',  ( 0.000000000000000000, 0.000000000000000000, 1.000000000000000000 ) ) ;
#281 = PERSON_AND_ORGANIZATION_ROLE ( 'design_owner' ) ;
#282 = VECTOR ( 'NONE', #25, 1000.000000000000000 ) ;
#283 = DIRECTION ( 'NONE',  ( 0.000000000000000000, 0.000000000000000000, 1.000000000000000000 ) ) ;
#284 = LOCAL_TIME ( 16, 29, 26.00000000000000000, #177 ) ;
#285 = EDGE_LOOP ( 'NONE', ( #381, #350 ) ) ;
#286 = VERTEX_POINT ( 'NONE', #2 ) ;
#287 = ORIENTED_EDGE ( 'NONE', *, *, #259, .T. ) ;
#288 = APPROVAL ( #68, 'NEURÈENÝ' ) ;
#289 = ORIENTED_EDGE ( 'NONE', *, *, #55, .T. ) ;
#290 = DIRECTION ( 'NONE',  ( 0.000000000000000000, 0.000000000000000000, 1.000000000000000000 ) ) ;
#291 = APPROVAL ( #379, 'NEURÈENÝ' ) ;
#292 = VERTEX_POINT ( 'NONE', #150 ) ;
#293 = DATE_TIME_ROLE ( 'classification_date' ) ;
#294 = PRODUCT_DEFINITION_FORMATION_WITH_SPECIFIED_SOURCE ( 'LIBOVOLNÝ', '', #85, .NOT_KNOWN. ) ;
#295 = DIRECTION ( 'NONE',  ( 1.000000000000000000, 0.000000000000000000, 0.000000000000000000 ) ) ;
#296 = DIRECTION ( 'NONE',  ( 1.000000000000000000, 0.000000000000000000, 0.000000000000000000 ) ) ;
#297 = CARTESIAN_POINT ( 'NONE',  ( 0.000000000000000000, 0.000000000000000000, 7.000000000000000000 ) ) ;
#298 = EDGE_CURVE ( 'NONE', #160, #138, #101, .T. ) ;
#299 = VERTEX_POINT ( 'NONE', #186 ) ;
#300 = DIRECTION ( 'NONE',  ( 1.000000000000000000, 0.000000000000000000, -0.000000000000000000 ) ) ;
#301 = DIRECTION ( 'NONE',  ( 0.000000000000000000, 0.000000000000000000, 1.000000000000000000 ) ) ;
#302 = CARTESIAN_POINT ( 'NONE',  ( 4.250000000000000000, 5.204748896376250699E-16, 0.000000000000000000 ) ) ;
#303 = EDGE_LOOP ( 'NONE', ( #28, #37, #80, #59 ) ) ;
#304 = CARTESIAN_POINT ( 'NONE',  ( 0.000000000000000000, 0.000000000000000000, 0.000000000000000000 ) ) ;
#305 = EDGE_CURVE ( 'NONE', #310, #201, #214, .T. ) ;
#306 = ORIENTED_EDGE ( 'NONE', *, *, #20, .F. ) ;
#307 = COORDINATED_UNIVERSAL_TIME_OFFSET ( 1, 0, .AHEAD. ) ;
#308 = CC_DESIGN_PERSON_AND_ORGANIZATION_ASSIGNMENT ( #371, #262, ( #88 ) ) ;
#309 = APPROVAL_DATE_TIME ( #195, #366 ) ;
#310 = VERTEX_POINT ( 'NONE', #117 ) ;
#311 = TOROIDAL_SURFACE ( 'NONE', #111, 6.700000000000001066, 0.6999999999999999556 ) ;
#312 =( NAMED_UNIT ( * ) PLANE_ANGLE_UNIT ( ) SI_UNIT ( $, .RADIAN. ) );
#313 = ORIENTED_EDGE ( 'NONE', *, *, #29, .F. ) ;
#314 = EDGE_CURVE ( 'NONE', #206, #126, #189, .T. ) ;
#315 = DIRECTION ( 'NONE',  ( -0.000000000000000000, -0.000000000000000000, -1.000000000000000000 ) ) ;
#316 = MANIFOLD_SOLID_BREP ( 'Odebrat vysunutím3', #140 ) ;
#317 = DIRECTION ( 'NONE',  ( -1.000000000000000000, 0.000000000000000000, 0.000000000000000000 ) ) ;
#318 = AXIS2_PLACEMENT_3D ( 'NONE', #304, #213, #351 ) ;
#319 = DIRECTION ( 'NONE',  ( 1.000000000000000000, 0.000000000000000000, 0.000000000000000000 ) ) ;
#320 = CALENDAR_DATE ( 2022, 8, 7 ) ;
#321 = EDGE_CURVE ( 'NONE', #362, #124, #18, .T. ) ;
#322 = AXIS2_PLACEMENT_3D ( 'NONE', #261, #290, #231 ) ;
#323 = DIRECTION ( 'NONE',  ( 0.000000000000000000, 0.000000000000000000, 1.000000000000000000 ) ) ;
#324 = DIRECTION ( 'NONE',  ( 1.000000000000000000, 0.000000000000000000, 0.000000000000000000 ) ) ;
#325 = LINE ( 'NONE', #148, #363 ) ;
#326 = DIRECTION ( 'NONE',  ( 1.000000000000000000, 0.000000000000000000, 0.000000000000000000 ) ) ;
#327 = CYLINDRICAL_SURFACE ( 'NONE', #82, 10.00000000000000000 ) ;
#328 = ADVANCED_FACE ( 'NONE', ( #245, #57 ), #217, .F. ) ;
#329 = ORIENTED_EDGE ( 'NONE', *, *, #79, .F. ) ;
#330 = FACE_OUTER_BOUND ( 'NONE', #218, .T. ) ;
#331 = CARTESIAN_POINT ( 'NONE',  ( 0.000000000000000000, 0.000000000000000000, 0.000000000000000000 ) ) ;
#332 = DIRECTION ( 'NONE',  ( -0.000000000000000000, -0.000000000000000000, -1.000000000000000000 ) ) ;
#333 = DIRECTION ( 'NONE',  ( 0.000000000000000000, 0.000000000000000000, 1.000000000000000000 ) ) ;
#334 = ORIENTED_EDGE ( 'NONE', *, *, #259, .F. ) ;
#335 = PERSON_AND_ORGANIZATION ( #161, #380 ) ;
#336 = PERSON_AND_ORGANIZATION ( #161, #380 ) ;
#337 = CIRCLE ( 'NONE', #5, 0.7000000000000000666 ) ;
#338 = CC_DESIGN_SECURITY_CLASSIFICATION ( #88, ( #294 ) ) ;
#339 = COORDINATED_UNIVERSAL_TIME_OFFSET ( 1, 0, .AHEAD. ) ;
#340 = VECTOR ( 'NONE', #19, 1000.000000000000000 ) ;
#341 = CARTESIAN_POINT ( 'NONE',  ( 0.000000000000000000, 0.000000000000000000, 607.0000000000000000 ) ) ;
#342 = LINE ( 'NONE', #200, #35 ) ;
#343 = CIRCLE ( 'NONE', #270, 6.000000000000000888 ) ;
#344 = CC_DESIGN_PERSON_AND_ORGANIZATION_ASSIGNMENT ( #336, #71, ( #239 ) ) ;
#345 = ORIENTED_EDGE ( 'NONE', *, *, #149, .F. ) ;
#346 = DIRECTION ( 'NONE',  ( 0.000000000000000000, 0.000000000000000000, -1.000000000000000000 ) ) ;
#347 = PLANE ( 'NONE',  #322 ) ;
#348 = ADVANCED_FACE ( 'NONE', ( #268, #219 ), #4, .T. ) ;
#349 = AXIS2_PLACEMENT_3D ( 'NONE', #243, #147, #300 ) ;
#350 = ORIENTED_EDGE ( 'NONE', *, *, #370, .T. ) ;
#351 = DIRECTION ( 'NONE',  ( 1.000000000000000000, 0.000000000000000000, 0.000000000000000000 ) ) ;
#352 = CARTESIAN_POINT ( 'NONE',  ( 0.000000000000000000, 0.000000000000000000, 7.700000000000040146 ) ) ;
#353 = CIRCLE ( 'NONE', #373, 6.000000000000000888 ) ;
#354 = ADVANCED_FACE ( 'NONE', ( #330 ), #266, .F. ) ;
#355 = LINE ( 'NONE', #156, #282 ) ;
#356 = DIRECTION ( 'NONE',  ( 0.000000000000000000, 0.000000000000000000, 1.000000000000000000 ) ) ;
#357 = CARTESIAN_POINT ( 'NONE',  ( 0.000000000000000000, 0.000000000000000000, 7.000000000000000000 ) ) ;
#358 = CARTESIAN_POINT ( 'NONE',  ( 10.00000000000000000, 1.224646799147353256E-15, 0.000000000000000000 ) ) ;
#359 = ADVANCED_FACE ( 'NONE', ( #30 ), #154, .T. ) ;
#360 = DIRECTION ( 'NONE',  ( 1.000000000000000000, 0.000000000000000000, 0.000000000000000000 ) ) ;
#361 = CC_DESIGN_APPROVAL ( #288, ( #239 ) ) ;
#362 = VERTEX_POINT ( 'NONE', #185 ) ;
#363 = VECTOR ( 'NONE', #267, 1000.000000000000000 ) ;
#364 = APPROVAL_ROLE ( '' ) ;
#365 = CALENDAR_DATE ( 2022, 8, 7 ) ;
#366 = APPROVAL ( #102, 'NEURÈENÝ' ) ;
#367 = EDGE_LOOP ( 'NONE', ( #253, #33 ) ) ;
#368 = CIRCLE ( 'NONE', #210, 10.00000000000000000 ) ;
#369 = ORIENTED_EDGE ( 'NONE', *, *, #92, .T. ) ;
#370 = EDGE_CURVE ( 'NONE', #286, #292, #38, .T. ) ;
#371 = PERSON_AND_ORGANIZATION ( #161, #380 ) ;
#372 = ORIENTED_EDGE ( 'NONE', *, *, #265, .F. ) ;
#373 = AXIS2_PLACEMENT_3D ( 'NONE', #352, #301, #326 ) ;
#374 = SECURITY_CLASSIFICATION_LEVEL ( 'unclassified' ) ;
#375 = CYLINDRICAL_SURFACE ( 'NONE', #66, 6.000000000000000888 ) ;
#376 = DATE_AND_TIME ( #202, #284 ) ;
#377 = DIRECTION ( 'NONE',  ( 1.000000000000000000, 0.000000000000000000, 0.000000000000000000 ) ) ;
#378 = CARTESIAN_POINT ( 'NONE',  ( 0.000000000000000000, 0.000000000000000000, 0.000000000000000000 ) ) ;
#379 = APPROVAL_STATUS ( 'not_yet_approved' ) ;
#380 = ORGANIZATION ( 'NEURÈENÝ', 'NEURÈENÝ', '' ) ;
#381 = ORIENTED_EDGE ( 'NONE', *, *, #248, .T. ) ;
ENDSEC;
END-ISO-10303-21;
