ISO-10303-21;
HEADER;
FILE_DESCRIPTION (( 'STEP AP203' ),
    '1' );
FILE_NAME ('960e.STEP',
    '2022-07-08T14:37:07',
    ( '' ),
    ( '' ),
    'SwSTEP 2.0',
    'SolidWorks 2019',
    '' );
FILE_SCHEMA (( 'CONFIG_CONTROL_DESIGN' ));
ENDSEC;

DATA;
#1 = DIRECTION ( 'NONE',  ( -1.000000000000000000, 0.000000000000000000, 0.000000000000000000 ) ) ;
#2 = PRODUCT_DEFINITION_SHAPE ( 'NONE', 'NONE',  #48 ) ;
#3 = LINE ( 'NONE', #225, #216 ) ;
#4 = DIRECTION ( 'NONE',  ( 0.000000000000000000, 0.000000000000000000, 1.000000000000000000 ) ) ;
#5 = VECTOR ( 'NONE', #46, 1000.000000000000000 ) ;
#6 = DATE_AND_TIME ( #257, #292 ) ;
#7 = ADVANCED_FACE ( 'NONE', ( #314 ), #342, .T. ) ;
#8 = CARTESIAN_POINT ( 'NONE',  ( 0.000000000000000000, 0.000000000000000000, 0.000000000000000000 ) ) ;
#9 = CARTESIAN_POINT ( 'NONE',  ( -6.000000000000000888, 0.000000000000000000, 657.0000000000000000 ) ) ;
#10 = EDGE_LOOP ( 'NONE', ( #134, #160, #192, #159 ) ) ;
#11 = PERSON_AND_ORGANIZATION_ROLE ( 'design_supplier' ) ;
#12 = DATE_AND_TIME ( #203, #222 ) ;
#13 = FACE_OUTER_BOUND ( 'NONE', #344, .T. ) ;
#14 = VERTEX_POINT ( 'NONE', #276 ) ;
#15 = AXIS2_PLACEMENT_3D ( 'NONE', #317, #228, #252 ) ;
#16 = DIRECTION ( 'NONE',  ( 0.000000000000000000, 0.000000000000000000, 1.000000000000000000 ) ) ;
#17 = PERSON ( 'NEURÈENÝ', 'NEURÈENÝ', 'NEURÈENÝ', ('NEURÈENÝ'), ('NEURÈENÝ'), ('NEURÈENÝ') ) ;
#18 = ORIENTED_EDGE ( 'NONE', *, *, #57, .T. ) ;
#19 = EDGE_CURVE ( 'NONE', #148, #236, #369, .T. ) ;
#20 = CARTESIAN_POINT ( 'NONE',  ( 0.000000000000000000, 0.000000000000000000, 657.0000000000000000 ) ) ;
#21 = AXIS2_PLACEMENT_3D ( 'NONE', #351, #4, #54 ) ;
#22 = ORIENTED_EDGE ( 'NONE', *, *, #81, .F. ) ;
#23 = CC_DESIGN_PERSON_AND_ORGANIZATION_ASSIGNMENT ( #125, #67, ( #171 ) ) ;
#24 = CARTESIAN_POINT ( 'NONE',  ( 0.000000000000000000, 0.000000000000000000, 657.0000000000000000 ) ) ;
#25 = AXIS2_PLACEMENT_3D ( 'NONE', #36, #154, #333 ) ;
#26 = CALENDAR_DATE ( 2022, 8, 7 ) ;
#27 = CARTESIAN_POINT ( 'NONE',  ( 0.000000000000000000, 0.000000000000000000, 7.700000000000040146 ) ) ;
#28 = CARTESIAN_POINT ( 'NONE',  ( 0.000000000000000000, 0.000000000000000000, 657.0000000000000000 ) ) ;
#29 =( NAMED_UNIT ( * ) PLANE_ANGLE_UNIT ( ) SI_UNIT ( $, .RADIAN. ) );
#30 = CARTESIAN_POINT ( 'NONE',  ( -4.000000000000000000, 0.000000000000000000, 0.000000000000000000 ) ) ;
#31 = AXIS2_PLACEMENT_3D ( 'NONE', #302, #123, #329 ) ;
#32 = COORDINATED_UNIVERSAL_TIME_OFFSET ( 1, 0, .AHEAD. ) ;
#33 = CARTESIAN_POINT ( 'NONE',  ( 0.000000000000000000, 0.000000000000000000, 657.0000000000000000 ) ) ;
#34 = EDGE_CURVE ( 'NONE', #236, #148, #85, .T. ) ;
#35 = CALENDAR_DATE ( 2022, 8, 7 ) ;
#36 = CARTESIAN_POINT ( 'NONE',  ( 0.000000000000000000, 0.000000000000000000, 7.000000000000000000 ) ) ;
#37 = ORIENTED_EDGE ( 'NONE', *, *, #147, .F. ) ;
#38 = CIRCLE ( 'NONE', #186, 10.00000000000000000 ) ;
#39 = AXIS2_PLACEMENT_3D ( 'NONE', #259, #152, #178 ) ;
#40 = DIRECTION ( 'NONE',  ( 1.000000000000000000, 0.000000000000000000, -0.000000000000000000 ) ) ;
#41 = PERSON_AND_ORGANIZATION ( #17, #166 ) ;
#42 = ORIENTED_EDGE ( 'NONE', *, *, #34, .F. ) ;
#43 = AXIS2_PLACEMENT_3D ( 'NONE', #273, #310, #277 ) ;
#44 = DIRECTION ( 'NONE',  ( 1.000000000000000000, 0.000000000000000000, 0.000000000000000000 ) ) ;
#45 = EDGE_LOOP ( 'NONE', ( #37, #215, #361, #214 ) ) ;
#46 = DIRECTION ( 'NONE',  ( -0.000000000000000000, -0.000000000000000000, -1.000000000000000000 ) ) ;
#47 = EDGE_LOOP ( 'NONE', ( #132, #265 ) ) ;
#48 = PRODUCT_DEFINITION ( 'NEZNÁMÝ', '', #137, #195 ) ;
#49 = VERTEX_POINT ( 'NONE', #79 ) ;
#50 = TOROIDAL_SURFACE ( 'NONE', #272, 6.700000000000001066, 0.6999999999999999556 ) ;
#51 = DIRECTION ( 'NONE',  ( 1.000000000000000000, 0.000000000000000000, 0.000000000000000000 ) ) ;
#52 = EDGE_CURVE ( 'NONE', #49, #338, #38, .T. ) ;
#53 = DIRECTION ( 'NONE',  ( 1.000000000000000000, 0.000000000000000000, 0.000000000000000000 ) ) ;
#54 = DIRECTION ( 'NONE',  ( 1.000000000000000000, 0.000000000000000000, 0.000000000000000000 ) ) ;
#55 = FACE_OUTER_BOUND ( 'NONE', #270, .T. ) ;
#56 = APPROVAL_ROLE ( '' ) ;
#57 = EDGE_CURVE ( 'NONE', #110, #238, #298, .T. ) ;
#58 = CIRCLE ( 'NONE', #25, 10.00000000000000000 ) ;
#59 = LINE ( 'NONE', #90, #210 ) ;
#60 = ADVANCED_FACE ( 'NONE', ( #169 ), #289, .T. ) ;
#61 = CARTESIAN_POINT ( 'NONE',  ( 0.000000000000000000, 0.000000000000000000, 0.000000000000000000 ) ) ;
#62 = ADVANCED_BREP_SHAPE_REPRESENTATION ( '960e', ( #70, #251 ), #179 ) ;
#63 = DIRECTION ( 'NONE',  ( 1.000000000000000000, 0.000000000000000000, 0.000000000000000000 ) ) ;
#64 = DIRECTION ( 'NONE',  ( -0.000000000000000000, -0.000000000000000000, -1.000000000000000000 ) ) ;
#65 = ADVANCED_FACE ( 'NONE', ( #197 ), #198, .T. ) ;
#66 = APPROVAL_PERSON_ORGANIZATION ( #208, #260, #294 ) ;
#67 = PERSON_AND_ORGANIZATION_ROLE ( 'classification_officer' ) ;
#68 = CARTESIAN_POINT ( 'NONE',  ( 0.000000000000000000, 0.000000000000000000, 7.000000000000000000 ) ) ;
#69 = ORIENTED_EDGE ( 'NONE', *, *, #359, .F. ) ;
#70 = MANIFOLD_SOLID_BREP ( 'Odebrat vysunutím3', #96 ) ;
#71 = PLANE ( 'NONE',  #157 ) ;
#72 = ORIENTED_EDGE ( 'NONE', *, *, #147, .T. ) ;
#73 = VECTOR ( 'NONE', #322, 1000.000000000000000 ) ;
#74 = DATE_TIME_ROLE ( 'creation_date' ) ;
#75 = CC_DESIGN_PERSON_AND_ORGANIZATION_ASSIGNMENT ( #41, #121, ( #137 ) ) ;
#76 = EDGE_LOOP ( 'NONE', ( #211, #183, #218, #18 ) ) ;
#77 = FACE_OUTER_BOUND ( 'NONE', #189, .T. ) ;
#78 = CARTESIAN_POINT ( 'NONE',  ( 4.000000000000000000, 4.898587196589412829E-16, 657.0000000000000000 ) ) ;
#79 = CARTESIAN_POINT ( 'NONE',  ( -10.00000000000000000, 0.000000000000000000, 0.000000000000000000 ) ) ;
#80 = CIRCLE ( 'NONE', #306, 0.7000000000000000666 ) ;
#81 = EDGE_CURVE ( 'NONE', #238, #110, #227, .T. ) ;
#82 = CARTESIAN_POINT ( 'NONE',  ( 0.000000000000000000, 0.000000000000000000, 7.700000000000040146 ) ) ;
#83 = ORIENTED_EDGE ( 'NONE', *, *, #113, .F. ) ;
#84 = VERTEX_POINT ( 'NONE', #286 ) ;
#85 = CIRCLE ( 'NONE', #291, 6.000000000000000888 ) ;
#86 = AXIS2_PLACEMENT_3D ( 'NONE', #61, #254, #140 ) ;
#87 = APPLICATION_PROTOCOL_DEFINITION ( 'international standard', 'config_control_design', 1994, #217 ) ;
#88 = ORIENTED_EDGE ( 'NONE', *, *, #102, .F. ) ;
#89 = APPROVAL_STATUS ( 'not_yet_approved' ) ;
#90 = CARTESIAN_POINT ( 'NONE',  ( 10.00000000000000000, 1.224646799147353256E-15, 7.000000000000000000 ) ) ;
#91 = APPLICATION_PROTOCOL_DEFINITION ( 'international standard', 'config_control_design', 1994, #239 ) ;
#92 = AXIS2_PLACEMENT_3D ( 'NONE', #122, #231, #295 ) ;
#93 = FACE_OUTER_BOUND ( 'NONE', #381, .T. ) ;
#94 = DIRECTION ( 'NONE',  ( 0.000000000000000000, 0.000000000000000000, -1.000000000000000000 ) ) ;
#95 = APPROVAL_STATUS ( 'not_yet_approved' ) ;
#96 = CLOSED_SHELL ( 'NONE', ( #290, #167, #258, #65, #7, #205, #249, #60, #163, #150, #253 ) ) ;
#97 = AXIS2_PLACEMENT_3D ( 'NONE', #337, #185, #108 ) ;
#98 = ORIENTED_EDGE ( 'NONE', *, *, #350, .F. ) ;
#99 = FACE_OUTER_BOUND ( 'NONE', #10, .T. ) ;
#100 = EDGE_LOOP ( 'NONE', ( #153, #22 ) ) ;
#101 = DIRECTION ( 'NONE',  ( 1.000000000000000000, 0.000000000000000000, 0.000000000000000000 ) ) ;
#102 = EDGE_CURVE ( 'NONE', #267, #375, #111, .T. ) ;
#103 = DIRECTION ( 'NONE',  ( 0.000000000000000000, -1.000000000000000000, 0.000000000000000000 ) ) ;
#104 = EDGE_LOOP ( 'NONE', ( #309, #232, #250, #348 ) ) ;
#105 = ORIENTED_EDGE ( 'NONE', *, *, #362, .F. ) ;
#106 = AXIS2_PLACEMENT_3D ( 'NONE', #82, #16, #275 ) ;
#107 = ORIENTED_EDGE ( 'NONE', *, *, #240, .F. ) ;
#108 = DIRECTION ( 'NONE',  ( 1.000000000000000000, 0.000000000000000000, 0.000000000000000000 ) ) ;
#109 = DIRECTION ( 'NONE',  ( -0.000000000000000000, -0.000000000000000000, -1.000000000000000000 ) ) ;
#110 = VERTEX_POINT ( 'NONE', #30 ) ;
#111 = CIRCLE ( 'NONE', #263, 10.00000000000000000 ) ;
#112 = CARTESIAN_POINT ( 'NONE',  ( 6.000000000000000888, 7.347880794884120722E-16, 657.0000000000000000 ) ) ;
#113 = EDGE_CURVE ( 'NONE', #375, #49, #229, .T. ) ;
#114 = PRODUCT ( '960e', '960e', '', ( #165 ) ) ;
#115 = PERSON_AND_ORGANIZATION ( #17, #166 ) ;
#116 = EDGE_CURVE ( 'NONE', #148, #274, #3, .T. ) ;
#117 = DIRECTION ( 'NONE',  ( 1.000000000000000000, 0.000000000000000000, 0.000000000000000000 ) ) ;
#118 = DIRECTION ( 'NONE',  ( 0.000000000000000000, 0.000000000000000000, 1.000000000000000000 ) ) ;
#119 = DIRECTION ( 'NONE',  ( 1.000000000000000000, 0.000000000000000000, 0.000000000000000000 ) ) ;
#120 = DIRECTION ( 'NONE',  ( 0.000000000000000000, 0.000000000000000000, 1.000000000000000000 ) ) ;
#121 = PERSON_AND_ORGANIZATION_ROLE ( 'creator' ) ;
#122 = CARTESIAN_POINT ( 'NONE',  ( 0.000000000000000000, 0.000000000000000000, 657.0000000000000000 ) ) ;
#123 = DIRECTION ( 'NONE',  ( -0.000000000000000000, -0.000000000000000000, -1.000000000000000000 ) ) ;
#124 = CIRCLE ( 'NONE', #97, 10.00000000000000000 ) ;
#125 = PERSON_AND_ORGANIZATION ( #17, #166 ) ;
#126 = APPROVAL_STATUS ( 'not_yet_approved' ) ;
#127 = DIRECTION ( 'NONE',  ( 1.000000000000000000, 0.000000000000000000, -0.000000000000000000 ) ) ;
#128 = EDGE_LOOP ( 'NONE', ( #374, #42, #164, #190 ) ) ;
#129 = CARTESIAN_POINT ( 'NONE',  ( -6.700000000000001066, 8.205133554287267548E-16, 7.000000000000020428 ) ) ;
#130 = VECTOR ( 'NONE', #94, 1000.000000000000000 ) ;
#131 = EDGE_CURVE ( 'NONE', #14, #110, #315, .T. ) ;
#132 = ORIENTED_EDGE ( 'NONE', *, *, #184, .T. ) ;
#133 = CARTESIAN_POINT ( 'NONE',  ( -10.00000000000000000, 0.000000000000000000, 7.000000000000000000 ) ) ;
#134 = ORIENTED_EDGE ( 'NONE', *, *, #356, .F. ) ;
#135 = CARTESIAN_POINT ( 'NONE',  ( 0.000000000000000000, 0.000000000000000000, 657.0000000000000000 ) ) ;
#136 = DIRECTION ( 'NONE',  ( 0.000000000000000000, 0.000000000000000000, 1.000000000000000000 ) ) ;
#137 = PRODUCT_DEFINITION_FORMATION_WITH_SPECIFIED_SOURCE ( 'LIBOVOLNÝ', '', #114, .NOT_KNOWN. ) ;
#138 = ORIENTED_EDGE ( 'NONE', *, *, #359, .T. ) ;
#139 = APPROVAL_PERSON_ORGANIZATION ( #224, #373, #56 ) ;
#140 = DIRECTION ( 'NONE',  ( 1.000000000000000000, 0.000000000000000000, 0.000000000000000000 ) ) ;
#141 = DIRECTION ( 'NONE',  ( 0.000000000000000000, 0.000000000000000000, 1.000000000000000000 ) ) ;
#142 =( NAMED_UNIT ( * ) SI_UNIT ( $, .STERADIAN. ) SOLID_ANGLE_UNIT ( ) );
#143 = CIRCLE ( 'NONE', #235, 6.700000000000001066 ) ;
#144 = CC_DESIGN_PERSON_AND_ORGANIZATION_ASSIGNMENT ( #115, #355, ( #114 ) ) ;
#145 = SHAPE_DEFINITION_REPRESENTATION ( #2, #62 ) ;
#146 = PERSON_AND_ORGANIZATION ( #17, #166 ) ;
#147 = EDGE_CURVE ( 'NONE', #267, #338, #59, .T. ) ;
#148 = VERTEX_POINT ( 'NONE', #112 ) ;
#149 = DATE_AND_TIME ( #299, #151 ) ;
#150 = ADVANCED_FACE ( 'NONE', ( #55 ), #187, .F. ) ;
#151 = LOCAL_TIME ( 16, 37, 7.000000000000000000, #328 ) ;
#152 = DIRECTION ( 'NONE',  ( 0.000000000000000000, 0.000000000000000000, 1.000000000000000000 ) ) ;
#153 = ORIENTED_EDGE ( 'NONE', *, *, #57, .F. ) ;
#154 = DIRECTION ( 'NONE',  ( 0.000000000000000000, 0.000000000000000000, 1.000000000000000000 ) ) ;
#155 = ORIENTED_EDGE ( 'NONE', *, *, #331, .F. ) ;
#156 = DIRECTION ( 'NONE',  ( -1.000000000000000000, 1.224646799147353454E-16, 0.000000000000000000 ) ) ;
#157 = AXIS2_PLACEMENT_3D ( 'NONE', #8, #301, #40 ) ;
#158 = DIRECTION ( 'NONE',  ( 0.000000000000000000, 0.000000000000000000, -1.000000000000000000 ) ) ;
#159 = ORIENTED_EDGE ( 'NONE', *, *, #283, .F. ) ;
#160 = ORIENTED_EDGE ( 'NONE', *, *, #350, .T. ) ;
#161 = CIRCLE ( 'NONE', #354, 4.000000000000000000 ) ;
#162 = CARTESIAN_POINT ( 'NONE',  ( 0.000000000000000000, 0.000000000000000000, 7.000000000000000000 ) ) ;
#163 = ADVANCED_FACE ( 'NONE', ( #226, #93 ), #201, .T. ) ;
#164 = ORIENTED_EDGE ( 'NONE', *, *, #362, .T. ) ;
#165 = MECHANICAL_CONTEXT ( 'NONE', #217, 'mechanical' ) ;
#166 = ORGANIZATION ( 'NEURÈENÝ', 'NEURÈENÝ', '' ) ;
#167 = ADVANCED_FACE ( 'NONE', ( #99 ), #50, .F. ) ;
#168 = DIRECTION ( 'NONE',  ( -0.000000000000000000, -0.000000000000000000, -1.000000000000000000 ) ) ;
#169 = FACE_OUTER_BOUND ( 'NONE', #128, .T. ) ;
#170 = APPROVAL_DATE_TIME ( #321, #260 ) ;
#171 = SECURITY_CLASSIFICATION ( '', '', #234 ) ;
#172 = CC_DESIGN_APPROVAL ( #260, ( #171 ) ) ;
#173 = DIRECTION ( 'NONE',  ( 0.000000000000000000, 0.000000000000000000, 1.000000000000000000 ) ) ;
#174 = FACE_OUTER_BOUND ( 'NONE', #76, .T. ) ;
#175 = VERTEX_POINT ( 'NONE', #129 ) ;
#176 = CARTESIAN_POINT ( 'NONE',  ( 10.00000000000000000, 1.224646799147353256E-15, 7.000000000000000000 ) ) ;
#177 = ORIENTED_EDGE ( 'NONE', *, *, #116, .T. ) ;
#178 = DIRECTION ( 'NONE',  ( 1.000000000000000000, 0.000000000000000000, -0.000000000000000000 ) ) ;
#179 =( GEOMETRIC_REPRESENTATION_CONTEXT ( 3 ) GLOBAL_UNCERTAINTY_ASSIGNED_CONTEXT ( ( #312 ) ) GLOBAL_UNIT_ASSIGNED_CONTEXT ( ( #282, #29, #142 ) ) REPRESENTATION_CONTEXT ( 'NONE', 'WORKASPACE' ) );
#180 = ORIENTED_EDGE ( 'NONE', *, *, #244, .T. ) ;
#181 = PERSON_AND_ORGANIZATION ( #17, #166 ) ;
#182 = CARTESIAN_POINT ( 'NONE',  ( 6.000000000000000888, 7.347880794884120722E-16, 7.700000000000040146 ) ) ;
#183 = ORIENTED_EDGE ( 'NONE', *, *, #240, .T. ) ;
#184 = EDGE_CURVE ( 'NONE', #375, #267, #58, .T. ) ;
#185 = DIRECTION ( 'NONE',  ( 0.000000000000000000, 0.000000000000000000, 1.000000000000000000 ) ) ;
#186 = AXIS2_PLACEMENT_3D ( 'NONE', #320, #120, #63 ) ;
#187 = TOROIDAL_SURFACE ( 'NONE', #324, 6.700000000000001066, 0.6999999999999999556 ) ;
#188 = DIRECTION ( 'NONE',  ( -1.000000000000000000, 0.000000000000000000, 0.000000000000000000 ) ) ;
#189 = EDGE_LOOP ( 'NONE', ( #196, #155 ) ) ;
#190 = ORIENTED_EDGE ( 'NONE', *, *, #356, .T. ) ;
#191 = CARTESIAN_POINT ( 'NONE',  ( 0.000000000000000000, 0.000000000000000000, 7.000000000000000000 ) ) ;
#192 = ORIENTED_EDGE ( 'NONE', *, *, #339, .F. ) ;
#193 = CIRCLE ( 'NONE', #106, 6.000000000000000888 ) ;
#194 = CC_DESIGN_APPROVAL ( #373, ( #48 ) ) ;
#195 = DESIGN_CONTEXT ( 'detailed design', #239, 'design' ) ;
#196 = ORIENTED_EDGE ( 'NONE', *, *, #52, .F. ) ;
#197 = FACE_OUTER_BOUND ( 'NONE', #281, .T. ) ;
#198 = CYLINDRICAL_SURFACE ( 'NONE', #15, 10.00000000000000000 ) ;
#199 = AXIS2_PLACEMENT_3D ( 'NONE', #24, #64, #1 ) ;
#200 = DATE_AND_TIME ( #26, #300 ) ;
#201 = PLANE ( 'NONE',  #370 ) ;
#202 = DIRECTION ( 'NONE',  ( -0.000000000000000000, -0.000000000000000000, -1.000000000000000000 ) ) ;
#203 = CALENDAR_DATE ( 2022, 8, 7 ) ;
#204 = CIRCLE ( 'NONE', #341, 6.700000000000001066 ) ;
#205 = ADVANCED_FACE ( 'NONE', ( #334, #325 ), #241, .T. ) ;
#206 = ORIENTED_EDGE ( 'NONE', *, *, #376, .F. ) ;
#207 = VERTEX_POINT ( 'NONE', #360 ) ;
#208 = PERSON_AND_ORGANIZATION ( #17, #166 ) ;
#209 = FACE_BOUND ( 'NONE', #100, .T. ) ;
#210 = VECTOR ( 'NONE', #168, 1000.000000000000000 ) ;
#211 = ORIENTED_EDGE ( 'NONE', *, *, #304, .F. ) ;
#212 = CARTESIAN_POINT ( 'NONE',  ( 4.000000000000000000, 4.898587196589412829E-16, 0.000000000000000000 ) ) ;
#213 = FACE_OUTER_BOUND ( 'NONE', #104, .T. ) ;
#214 = ORIENTED_EDGE ( 'NONE', *, *, #52, .T. ) ;
#215 = ORIENTED_EDGE ( 'NONE', *, *, #184, .F. ) ;
#216 = VECTOR ( 'NONE', #319, 1000.000000000000000 ) ;
#217 = APPLICATION_CONTEXT ( 'configuration controlled 3d designs of mechanical parts and assemblies' ) ;
#218 = ORIENTED_EDGE ( 'NONE', *, *, #131, .T. ) ;
#219 = CC_DESIGN_PERSON_AND_ORGANIZATION_ASSIGNMENT ( #146, #230, ( #48 ) ) ;
#220 = DIRECTION ( 'NONE',  ( 0.000000000000000000, 0.000000000000000000, -1.000000000000000000 ) ) ;
#221 = VERTEX_POINT ( 'NONE', #243 ) ;
#222 = LOCAL_TIME ( 16, 37, 7.000000000000000000, #237 ) ;
#223 = CC_DESIGN_DATE_AND_TIME_ASSIGNMENT ( #12, #366, ( #171 ) ) ;
#224 = PERSON_AND_ORGANIZATION ( #17, #166 ) ;
#225 = CARTESIAN_POINT ( 'NONE',  ( 6.000000000000000888, 7.347880794884120722E-16, 657.0000000000000000 ) ) ;
#226 = FACE_BOUND ( 'NONE', #335, .T. ) ;
#227 = CIRCLE ( 'NONE', #86, 4.000000000000000000 ) ;
#228 = DIRECTION ( 'NONE',  ( -0.000000000000000000, -0.000000000000000000, -1.000000000000000000 ) ) ;
#229 = LINE ( 'NONE', #352, #73 ) ;
#230 = PERSON_AND_ORGANIZATION_ROLE ( 'creator' ) ;
#231 = DIRECTION ( 'NONE',  ( 0.000000000000000000, 0.000000000000000000, -1.000000000000000000 ) ) ;
#232 = ORIENTED_EDGE ( 'NONE', *, *, #304, .T. ) ;
#233 = AXIS2_PLACEMENT_3D ( 'NONE', #256, #202, #117 ) ;
#234 = SECURITY_CLASSIFICATION_LEVEL ( 'unclassified' ) ;
#235 = AXIS2_PLACEMENT_3D ( 'NONE', #68, #336, #101 ) ;
#236 = VERTEX_POINT ( 'NONE', #9 ) ;
#237 = COORDINATED_UNIVERSAL_TIME_OFFSET ( 1, 0, .AHEAD. ) ;
#238 = VERTEX_POINT ( 'NONE', #212 ) ;
#239 = APPLICATION_CONTEXT ( 'configuration controlled 3d designs of mechanical parts and assemblies' ) ;
#240 = EDGE_CURVE ( 'NONE', #207, #14, #161, .T. ) ;
#241 = PLANE ( 'NONE',  #39 ) ;
#242 = AXIS2_PLACEMENT_3D ( 'NONE', #162, #109, #378 ) ;
#243 = CARTESIAN_POINT ( 'NONE',  ( -6.000000000000000888, 0.000000000000000000, 7.700000000000040146 ) ) ;
#244 = EDGE_CURVE ( 'NONE', #175, #84, #143, .T. ) ;
#245 = ORIENTED_EDGE ( 'NONE', *, *, #283, .T. ) ;
#246 = AXIS2_PLACEMENT_3D ( 'NONE', #343, #303, #156 ) ;
#247 = LINE ( 'NONE', #345, #5 ) ;
#248 = ORIENTED_EDGE ( 'NONE', *, *, #244, .F. ) ;
#249 = ADVANCED_FACE ( 'NONE', ( #209, #77 ), #71, .F. ) ;
#250 = ORIENTED_EDGE ( 'NONE', *, *, #81, .T. ) ;
#251 = AXIS2_PLACEMENT_3D ( 'NONE', #316, #118, #318 ) ;
#252 = DIRECTION ( 'NONE',  ( -1.000000000000000000, 0.000000000000000000, 0.000000000000000000 ) ) ;
#253 = ADVANCED_FACE ( 'NONE', ( #174 ), #266, .F. ) ;
#254 = DIRECTION ( 'NONE',  ( -0.000000000000000000, -0.000000000000000000, -1.000000000000000000 ) ) ;
#255 = CIRCLE ( 'NONE', #21, 4.000000000000000000 ) ;
#256 = CARTESIAN_POINT ( 'NONE',  ( 0.000000000000000000, 0.000000000000000000, 0.000000000000000000 ) ) ;
#257 = CALENDAR_DATE ( 2022, 8, 7 ) ;
#258 = ADVANCED_FACE ( 'NONE', ( #13 ), #261, .T. ) ;
#259 = CARTESIAN_POINT ( 'NONE',  ( 0.000000000000000000, 0.000000000000000000, 7.000000000000000000 ) ) ;
#260 = APPROVAL ( #126, 'NEURÈENÝ' ) ;
#261 = CYLINDRICAL_SURFACE ( 'NONE', #31, 6.000000000000000888 ) ;
#262 = APPROVAL_ROLE ( '' ) ;
#263 = AXIS2_PLACEMENT_3D ( 'NONE', #357, #173, #119 ) ;
#264 = CARTESIAN_POINT ( 'NONE',  ( 6.700000000000001066, 0.000000000000000000, 7.700000000000040146 ) ) ;
#265 = ORIENTED_EDGE ( 'NONE', *, *, #102, .T. ) ;
#266 = CYLINDRICAL_SURFACE ( 'NONE', #92, 4.000000000000000000 ) ;
#267 = VERTEX_POINT ( 'NONE', #176 ) ;
#268 = APPROVAL_DATE_TIME ( #6, #288 ) ;
#269 = CARTESIAN_POINT ( 'NONE',  ( 0.000000000000000000, 0.000000000000000000, 7.700000000000040146 ) ) ;
#270 = EDGE_LOOP ( 'NONE', ( #98, #69, #245, #248 ) ) ;
#271 = AXIS2_PLACEMENT_3D ( 'NONE', #20, #136, #53 ) ;
#272 = AXIS2_PLACEMENT_3D ( 'NONE', #269, #372, #367 ) ;
#273 = CARTESIAN_POINT ( 'NONE',  ( 0.000000000000000000, 0.000000000000000000, 7.700000000000040146 ) ) ;
#274 = VERTEX_POINT ( 'NONE', #182 ) ;
#275 = DIRECTION ( 'NONE',  ( 1.000000000000000000, 0.000000000000000000, 0.000000000000000000 ) ) ;
#276 = CARTESIAN_POINT ( 'NONE',  ( -4.000000000000000000, 0.000000000000000000, 657.0000000000000000 ) ) ;
#277 = DIRECTION ( 'NONE',  ( 1.000000000000000000, 0.000000000000000000, 0.000000000000000000 ) ) ;
#278 = ORIENTED_EDGE ( 'NONE', *, *, #331, .T. ) ;
#279 = APPROVAL_PERSON_ORGANIZATION ( #296, #288, #262 ) ;
#280 = DIRECTION ( 'NONE',  ( 0.000000000000000000, 0.000000000000000000, -1.000000000000000000 ) ) ;
#281 = EDGE_LOOP ( 'NONE', ( #88, #72, #278, #83 ) ) ;
#282 =( LENGTH_UNIT ( ) NAMED_UNIT ( * ) SI_UNIT ( .MILLI., .METRE. ) );
#283 = EDGE_CURVE ( 'NONE', #274, #84, #80, .T. ) ;
#284 = VECTOR ( 'NONE', #220, 1000.000000000000000 ) ;
#285 = COORDINATED_UNIVERSAL_TIME_OFFSET ( 1, 0, .AHEAD. ) ;
#286 = CARTESIAN_POINT ( 'NONE',  ( 6.700000000000001066, 0.000000000000000000, 7.000000000000020428 ) ) ;
#287 = DIRECTION ( 'NONE',  ( 1.000000000000000000, 0.000000000000000000, 0.000000000000000000 ) ) ;
#288 = APPROVAL ( #95, 'NEURÈENÝ' ) ;
#289 = CYLINDRICAL_SURFACE ( 'NONE', #199, 6.000000000000000888 ) ;
#290 = ADVANCED_FACE ( 'NONE', ( #213 ), #340, .F. ) ;
#291 = AXIS2_PLACEMENT_3D ( 'NONE', #311, #313, #51 ) ;
#292 = LOCAL_TIME ( 16, 37, 7.000000000000000000, #364 ) ;
#293 = CC_DESIGN_PERSON_AND_ORGANIZATION_ASSIGNMENT ( #181, #11, ( #137 ) ) ;
#294 = APPROVAL_ROLE ( '' ) ;
#295 = DIRECTION ( 'NONE',  ( -1.000000000000000000, 0.000000000000000000, 0.000000000000000000 ) ) ;
#296 = PERSON_AND_ORGANIZATION ( #17, #166 ) ;
#297 = DIRECTION ( 'NONE',  ( 1.000000000000000000, 0.000000000000000000, 0.000000000000000000 ) ) ;
#298 = CIRCLE ( 'NONE', #233, 4.000000000000000000 ) ;
#299 = CALENDAR_DATE ( 2022, 8, 7 ) ;
#300 = LOCAL_TIME ( 16, 37, 7.000000000000000000, #285 ) ;
#301 = DIRECTION ( 'NONE',  ( 0.000000000000000000, 0.000000000000000000, 1.000000000000000000 ) ) ;
#302 = CARTESIAN_POINT ( 'NONE',  ( 0.000000000000000000, 0.000000000000000000, 657.0000000000000000 ) ) ;
#303 = DIRECTION ( 'NONE',  ( 1.224646799147353207E-16, 1.000000000000000000, -0.000000000000000000 ) ) ;
#304 = EDGE_CURVE ( 'NONE', #207, #238, #380, .T. ) ;
#305 = DIRECTION ( 'NONE',  ( -0.000000000000000000, -0.000000000000000000, -1.000000000000000000 ) ) ;
#306 = AXIS2_PLACEMENT_3D ( 'NONE', #264, #103, #158 ) ;
#307 = LOCAL_TIME ( 16, 37, 7.000000000000000000, #32 ) ;
#308 = CARTESIAN_POINT ( 'NONE',  ( 10.00000000000000000, 1.224646799147353256E-15, 0.000000000000000000 ) ) ;
#309 = ORIENTED_EDGE ( 'NONE', *, *, #376, .T. ) ;
#310 = DIRECTION ( 'NONE',  ( 0.000000000000000000, 0.000000000000000000, 1.000000000000000000 ) ) ;
#311 = CARTESIAN_POINT ( 'NONE',  ( 0.000000000000000000, 0.000000000000000000, 657.0000000000000000 ) ) ;
#312 = UNCERTAINTY_MEASURE_WITH_UNIT (LENGTH_MEASURE( 1.000000000000000082E-05 ), #282, 'distance_accuracy_value', 'NONE');
#313 = DIRECTION ( 'NONE',  ( 0.000000000000000000, 0.000000000000000000, 1.000000000000000000 ) ) ;
#314 = FACE_OUTER_BOUND ( 'NONE', #45, .T. ) ;
#315 = LINE ( 'NONE', #358, #130 ) ;
#316 = CARTESIAN_POINT ( 'NONE',  ( 0.000000000000000000, 0.000000000000000000, 0.000000000000000000 ) ) ;
#317 = CARTESIAN_POINT ( 'NONE',  ( 0.000000000000000000, 0.000000000000000000, 7.000000000000000000 ) ) ;
#318 = DIRECTION ( 'NONE',  ( 1.000000000000000000, 0.000000000000000000, 0.000000000000000000 ) ) ;
#319 = DIRECTION ( 'NONE',  ( -0.000000000000000000, -0.000000000000000000, -1.000000000000000000 ) ) ;
#320 = CARTESIAN_POINT ( 'NONE',  ( 0.000000000000000000, 0.000000000000000000, 0.000000000000000000 ) ) ;
#321 = DATE_AND_TIME ( #35, #307 ) ;
#322 = DIRECTION ( 'NONE',  ( -0.000000000000000000, -0.000000000000000000, -1.000000000000000000 ) ) ;
#323 = CC_DESIGN_DATE_AND_TIME_ASSIGNMENT ( #149, #74, ( #48 ) ) ;
#324 = AXIS2_PLACEMENT_3D ( 'NONE', #27, #353, #287 ) ;
#325 = FACE_OUTER_BOUND ( 'NONE', #47, .T. ) ;
#326 = ORIENTED_EDGE ( 'NONE', *, *, #34, .T. ) ;
#327 = PRODUCT_RELATED_PRODUCT_CATEGORY ( 'detail', '', ( #114 ) ) ;
#328 = COORDINATED_UNIVERSAL_TIME_OFFSET ( 1, 0, .AHEAD. ) ;
#329 = DIRECTION ( 'NONE',  ( -1.000000000000000000, 0.000000000000000000, 0.000000000000000000 ) ) ;
#330 = ORIENTED_EDGE ( 'NONE', *, *, #339, .T. ) ;
#331 = EDGE_CURVE ( 'NONE', #338, #49, #124, .T. ) ;
#332 = APPROVAL_DATE_TIME ( #200, #373 ) ;
#333 = DIRECTION ( 'NONE',  ( 1.000000000000000000, 0.000000000000000000, 0.000000000000000000 ) ) ;
#334 = FACE_BOUND ( 'NONE', #346, .T. ) ;
#335 = EDGE_LOOP ( 'NONE', ( #206, #107 ) ) ;
#336 = DIRECTION ( 'NONE',  ( -0.000000000000000000, -0.000000000000000000, -1.000000000000000000 ) ) ;
#337 = CARTESIAN_POINT ( 'NONE',  ( 0.000000000000000000, 0.000000000000000000, 0.000000000000000000 ) ) ;
#338 = VERTEX_POINT ( 'NONE', #308 ) ;
#339 = EDGE_CURVE ( 'NONE', #84, #175, #204, .T. ) ;
#340 = CYLINDRICAL_SURFACE ( 'NONE', #377, 4.000000000000000000 ) ;
#341 = AXIS2_PLACEMENT_3D ( 'NONE', #191, #305, #44 ) ;
#342 = CYLINDRICAL_SURFACE ( 'NONE', #242, 10.00000000000000000 ) ;
#343 = CARTESIAN_POINT ( 'NONE',  ( -6.700000000000001066, 8.205133554287267548E-16, 7.700000000000040146 ) ) ;
#344 = EDGE_LOOP ( 'NONE', ( #365, #177, #138, #105 ) ) ;
#345 = CARTESIAN_POINT ( 'NONE',  ( -6.000000000000000888, 0.000000000000000000, 657.0000000000000000 ) ) ;
#346 = EDGE_LOOP ( 'NONE', ( #330, #180 ) ) ;
#347 = CC_DESIGN_APPROVAL ( #288, ( #137 ) ) ;
#348 = ORIENTED_EDGE ( 'NONE', *, *, #131, .F. ) ;
#349 = CC_DESIGN_SECURITY_CLASSIFICATION ( #171, ( #137 ) ) ;
#350 = EDGE_CURVE ( 'NONE', #221, #175, #363, .T. ) ;
#351 = CARTESIAN_POINT ( 'NONE',  ( 0.000000000000000000, 0.000000000000000000, 657.0000000000000000 ) ) ;
#352 = CARTESIAN_POINT ( 'NONE',  ( -10.00000000000000000, 0.000000000000000000, 7.000000000000000000 ) ) ;
#353 = DIRECTION ( 'NONE',  ( 0.000000000000000000, 0.000000000000000000, 1.000000000000000000 ) ) ;
#354 = AXIS2_PLACEMENT_3D ( 'NONE', #33, #368, #297 ) ;
#355 = PERSON_AND_ORGANIZATION_ROLE ( 'design_owner' ) ;
#356 = EDGE_CURVE ( 'NONE', #221, #274, #193, .T. ) ;
#357 = CARTESIAN_POINT ( 'NONE',  ( 0.000000000000000000, 0.000000000000000000, 7.000000000000000000 ) ) ;
#358 = CARTESIAN_POINT ( 'NONE',  ( -4.000000000000000000, 0.000000000000000000, 657.0000000000000000 ) ) ;
#359 = EDGE_CURVE ( 'NONE', #274, #221, #371, .T. ) ;
#360 = CARTESIAN_POINT ( 'NONE',  ( 4.000000000000000000, 4.898587196589412829E-16, 657.0000000000000000 ) ) ;
#361 = ORIENTED_EDGE ( 'NONE', *, *, #113, .T. ) ;
#362 = EDGE_CURVE ( 'NONE', #236, #221, #247, .T. ) ;
#363 = CIRCLE ( 'NONE', #246, 0.7000000000000000666 ) ;
#364 = COORDINATED_UNIVERSAL_TIME_OFFSET ( 1, 0, .AHEAD. ) ;
#365 = ORIENTED_EDGE ( 'NONE', *, *, #19, .F. ) ;
#366 = DATE_TIME_ROLE ( 'classification_date' ) ;
#367 = DIRECTION ( 'NONE',  ( 1.000000000000000000, 0.000000000000000000, 0.000000000000000000 ) ) ;
#368 = DIRECTION ( 'NONE',  ( 0.000000000000000000, 0.000000000000000000, 1.000000000000000000 ) ) ;
#369 = CIRCLE ( 'NONE', #271, 6.000000000000000888 ) ;
#370 = AXIS2_PLACEMENT_3D ( 'NONE', #28, #141, #127 ) ;
#371 = CIRCLE ( 'NONE', #43, 6.000000000000000888 ) ;
#372 = DIRECTION ( 'NONE',  ( 0.000000000000000000, 0.000000000000000000, 1.000000000000000000 ) ) ;
#373 = APPROVAL ( #89, 'NEURÈENÝ' ) ;
#374 = ORIENTED_EDGE ( 'NONE', *, *, #116, .F. ) ;
#375 = VERTEX_POINT ( 'NONE', #133 ) ;
#376 = EDGE_CURVE ( 'NONE', #14, #207, #255, .T. ) ;
#377 = AXIS2_PLACEMENT_3D ( 'NONE', #135, #280, #188 ) ;
#378 = DIRECTION ( 'NONE',  ( -1.000000000000000000, 0.000000000000000000, 0.000000000000000000 ) ) ;
#379 = ORIENTED_EDGE ( 'NONE', *, *, #19, .T. ) ;
#380 = LINE ( 'NONE', #78, #284 ) ;
#381 = EDGE_LOOP ( 'NONE', ( #326, #379 ) ) ;
ENDSEC;
END-ISO-10303-21;
