ISO-10303-21;
HEADER;
FILE_DESCRIPTION (( 'STEP AP203' ),
    '1' );
FILE_NAME ('e3b8.STEP',
    '2022-07-08T14:46:11',
    ( '' ),
    ( '' ),
    'SwSTEP 2.0',
    'SolidWorks 2019',
    '' );
FILE_SCHEMA (( 'CONFIG_CONTROL_DESIGN' ));
ENDSEC;

DATA;
#1 = ADVANCED_FACE ( 'NONE', ( #310 ), #39, .T. ) ;
#2 = CIRCLE ( 'NONE', #316, 5.500000000000000000 ) ;
#3 = CARTESIAN_POINT ( 'NONE',  ( 5.000000000000000000, 6.123233995736766282E-16, 255.0000000000000000 ) ) ;
#4 = APPROVAL ( #135, 'NEURÈENÝ' ) ;
#5 = AXIS2_PLACEMENT_3D ( 'NONE', #55, #27, #258 ) ;
#6 = DIRECTION ( 'NONE',  ( 0.000000000000000000, 0.000000000000000000, 1.000000000000000000 ) ) ;
#7 = ORIENTED_EDGE ( 'NONE', *, *, #84, .T. ) ;
#8 = ORIENTED_EDGE ( 'NONE', *, *, #198, .T. ) ;
#9 = ORIENTED_EDGE ( 'NONE', *, *, #290, .T. ) ;
#10 = CIRCLE ( 'NONE', #189, 8.000000000000000000 ) ;
#11 = ORIENTED_EDGE ( 'NONE', *, *, #33, .F. ) ;
#12 = ORIENTED_EDGE ( 'NONE', *, *, #110, .F. ) ;
#13 = EDGE_CURVE ( 'NONE', #149, #371, #274, .T. ) ;
#14 = APPROVAL_STATUS ( 'not_yet_approved' ) ;
#15 = ORIENTED_EDGE ( 'NONE', *, *, #225, .F. ) ;
#16 = PERSON_AND_ORGANIZATION ( #368, #34 ) ;
#17 = DIRECTION ( 'NONE',  ( 0.000000000000000000, 0.000000000000000000, 1.000000000000000000 ) ) ;
#18 = VECTOR ( 'NONE', #82, 1000.000000000000000 ) ;
#19 = CARTESIAN_POINT ( 'NONE',  ( 0.000000000000000000, 0.000000000000000000, 0.000000000000000000 ) ) ;
#20 = ADVANCED_FACE ( 'NONE', ( #169, #67 ), #287, .F. ) ;
#21 = DIRECTION ( 'NONE',  ( 0.000000000000000000, 0.000000000000000000, 1.000000000000000000 ) ) ;
#22 = DIRECTION ( 'NONE',  ( 1.000000000000000000, 0.000000000000000000, 0.000000000000000000 ) ) ;
#23 = CIRCLE ( 'NONE', #71, 8.000000000000000000 ) ;
#24 = CC_DESIGN_APPROVAL ( #370, ( #102 ) ) ;
#25 = CARTESIAN_POINT ( 'NONE',  ( 8.000000000000000000, 9.797174393178825657E-16, 0.000000000000000000 ) ) ;
#26 = DIRECTION ( 'NONE',  ( -0.000000000000000000, -0.000000000000000000, -1.000000000000000000 ) ) ;
#27 = DIRECTION ( 'NONE',  ( 0.000000000000000000, 0.000000000000000000, 1.000000000000000000 ) ) ;
#28 = DIRECTION ( 'NONE',  ( 0.000000000000000000, 0.000000000000000000, 1.000000000000000000 ) ) ;
#29 = EDGE_CURVE ( 'NONE', #167, #213, #114, .T. ) ;
#30 = CARTESIAN_POINT ( 'NONE',  ( -5.500000000000000000, 6.735557395310442023E-16, 5.000000000000002665 ) ) ;
#31 = AXIS2_PLACEMENT_3D ( 'NONE', #107, #188, #280 ) ;
#32 = DIRECTION ( 'NONE',  ( 0.000000000000000000, 0.000000000000000000, -1.000000000000000000 ) ) ;
#33 = EDGE_CURVE ( 'NONE', #90, #125, #333, .T. ) ;
#34 = ORGANIZATION ( 'NEURÈENÝ', 'NEURÈENÝ', '' ) ;
#35 = CYLINDRICAL_SURFACE ( 'NONE', #147, 5.000000000000000000 ) ;
#36 = EDGE_LOOP ( 'NONE', ( #7, #8, #164, #15 ) ) ;
#37 = CARTESIAN_POINT ( 'NONE',  ( 0.000000000000000000, 0.000000000000000000, 5.000000000000000000 ) ) ;
#38 = DATE_AND_TIME ( #75, #64 ) ;
#39 = CYLINDRICAL_SURFACE ( 'NONE', #195, 8.000000000000000000 ) ;
#40 = APPROVAL_PERSON_ORGANIZATION ( #66, #370, #185 ) ;
#41 = ORIENTED_EDGE ( 'NONE', *, *, #87, .T. ) ;
#42 = DIRECTION ( 'NONE',  ( 0.000000000000000000, 0.000000000000000000, 1.000000000000000000 ) ) ;
#43 = EDGE_LOOP ( 'NONE', ( #331, #41, #366, #215 ) ) ;
#44 = EDGE_LOOP ( 'NONE', ( #162, #184 ) ) ;
#45 = APPLICATION_CONTEXT ( 'configuration controlled 3d designs of mechanical parts and assemblies' ) ;
#46 = ADVANCED_FACE ( 'NONE', ( #111 ), #255, .T. ) ;
#47 = PERSON_AND_ORGANIZATION_ROLE ( 'creator' ) ;
#48 = DIRECTION ( 'NONE',  ( 1.000000000000000000, 0.000000000000000000, 0.000000000000000000 ) ) ;
#49 = CC_DESIGN_APPROVAL ( #4, ( #106 ) ) ;
#50 = DIRECTION ( 'NONE',  ( 1.000000000000000000, 0.000000000000000000, 0.000000000000000000 ) ) ;
#51 = CYLINDRICAL_SURFACE ( 'NONE', #285, 3.250000000000000444 ) ;
#52 = FACE_BOUND ( 'NONE', #282, .T. ) ;
#53 = VECTOR ( 'NONE', #262, 1000.000000000000000 ) ;
#54 = DIRECTION ( 'NONE',  ( -0.000000000000000000, -0.000000000000000000, -1.000000000000000000 ) ) ;
#55 = CARTESIAN_POINT ( 'NONE',  ( 0.000000000000000000, 0.000000000000000000, 255.0000000000000000 ) ) ;
#56 = ADVANCED_FACE ( 'NONE', ( #109, #85 ), #291, .T. ) ;
#57 = DIRECTION ( 'NONE',  ( 1.000000000000000000, 0.000000000000000000, 0.000000000000000000 ) ) ;
#58 = VECTOR ( 'NONE', #32, 1000.000000000000000 ) ;
#59 =( GEOMETRIC_REPRESENTATION_CONTEXT ( 3 ) GLOBAL_UNCERTAINTY_ASSIGNED_CONTEXT ( ( #78 ) ) GLOBAL_UNIT_ASSIGNED_CONTEXT ( ( #212, #191, #275 ) ) REPRESENTATION_CONTEXT ( 'NONE', 'WORKASPACE' ) );
#60 = DIRECTION ( 'NONE',  ( 0.000000000000000000, 0.000000000000000000, 1.000000000000000000 ) ) ;
#61 = CC_DESIGN_DATE_AND_TIME_ASSIGNMENT ( #340, #97, ( #102 ) ) ;
#62 = EDGE_LOOP ( 'NONE', ( #312, #363 ) ) ;
#63 = CYLINDRICAL_SURFACE ( 'NONE', #329, 3.250000000000000444 ) ;
#64 = LOCAL_TIME ( 16, 46, 11.00000000000000000, #223 ) ;
#65 = LINE ( 'NONE', #381, #304 ) ;
#66 = PERSON_AND_ORGANIZATION ( #368, #34 ) ;
#67 = FACE_OUTER_BOUND ( 'NONE', #121, .T. ) ;
#68 = PERSON_AND_ORGANIZATION_ROLE ( 'creator' ) ;
#69 = EDGE_CURVE ( 'NONE', #248, #194, #2, .T. ) ;
#70 = DIRECTION ( 'NONE',  ( 1.000000000000000000, 0.000000000000000000, -0.000000000000000000 ) ) ;
#71 = AXIS2_PLACEMENT_3D ( 'NONE', #259, #21, #139 ) ;
#72 = PERSON_AND_ORGANIZATION ( #368, #34 ) ;
#73 = VECTOR ( 'NONE', #266, 1000.000000000000000 ) ;
#74 = EDGE_LOOP ( 'NONE', ( #157, #192, #209, #159 ) ) ;
#75 = CALENDAR_DATE ( 2022, 8, 7 ) ;
#76 = ORIENTED_EDGE ( 'NONE', *, *, #257, .T. ) ;
#77 = PERSON_AND_ORGANIZATION_ROLE ( 'design_owner' ) ;
#78 = UNCERTAINTY_MEASURE_WITH_UNIT (LENGTH_MEASURE( 1.000000000000000082E-05 ), #212, 'distance_accuracy_value', 'NONE');
#79 = ORIENTED_EDGE ( 'NONE', *, *, #29, .F. ) ;
#80 = DIRECTION ( 'NONE',  ( 0.000000000000000000, 0.000000000000000000, 1.000000000000000000 ) ) ;
#81 = AXIS2_PLACEMENT_3D ( 'NONE', #208, #178, #151 ) ;
#82 = DIRECTION ( 'NONE',  ( 0.000000000000000000, 0.000000000000000000, -1.000000000000000000 ) ) ;
#83 = CYLINDRICAL_SURFACE ( 'NONE', #295, 8.000000000000000000 ) ;
#84 = EDGE_CURVE ( 'NONE', #339, #298, #249, .T. ) ;
#85 = FACE_OUTER_BOUND ( 'NONE', #44, .T. ) ;
#86 = DIRECTION ( 'NONE',  ( 1.000000000000000000, 0.000000000000000000, 0.000000000000000000 ) ) ;
#87 = EDGE_CURVE ( 'NONE', #334, #371, #350, .T. ) ;
#88 = DIRECTION ( 'NONE',  ( 1.000000000000000000, 0.000000000000000000, 0.000000000000000000 ) ) ;
#89 = LINE ( 'NONE', #299, #58 ) ;
#90 = VERTEX_POINT ( 'NONE', #232 ) ;
#91 = CARTESIAN_POINT ( 'NONE',  ( 8.000000000000000000, 9.797174393178825657E-16, 5.000000000000000000 ) ) ;
#92 = EDGE_LOOP ( 'NONE', ( #103, #137, #12, #308 ) ) ;
#93 = CARTESIAN_POINT ( 'NONE',  ( 8.000000000000000000, 9.797174393178825657E-16, 5.000000000000000000 ) ) ;
#94 = TOROIDAL_SURFACE ( 'NONE', #233, 5.500000000000000000, 0.5000000000000000000 ) ;
#95 = LOCAL_TIME ( 16, 46, 11.00000000000000000, #307 ) ;
#96 = ADVANCED_FACE ( 'NONE', ( #207 ), #83, .T. ) ;
#97 = DATE_TIME_ROLE ( 'classification_date' ) ;
#98 = CARTESIAN_POINT ( 'NONE',  ( 0.000000000000000000, 0.000000000000000000, 5.500000000000005329 ) ) ;
#99 = AXIS2_PLACEMENT_3D ( 'NONE', #19, #254, #70 ) ;
#100 = DATE_AND_TIME ( #317, #153 ) ;
#101 = EDGE_LOOP ( 'NONE', ( #79, #276 ) ) ;
#102 = SECURITY_CLASSIFICATION ( '', '', #218 ) ;
#103 = ORIENTED_EDGE ( 'NONE', *, *, #13, .F. ) ;
#104 = COORDINATED_UNIVERSAL_TIME_OFFSET ( 1, 0, .AHEAD. ) ;
#105 = ORIENTED_EDGE ( 'NONE', *, *, #175, .T. ) ;
#106 = PRODUCT_DEFINITION ( 'NEZNÁMÝ', '', #190, #325 ) ;
#107 = CARTESIAN_POINT ( 'NONE',  ( 0.000000000000000000, 0.000000000000000000, 0.000000000000000000 ) ) ;
#108 = CIRCLE ( 'NONE', #319, 3.250000000000000444 ) ;
#109 = FACE_BOUND ( 'NONE', #62, .T. ) ;
#110 = EDGE_CURVE ( 'NONE', #194, #248, #301, .T. ) ;
#111 = FACE_OUTER_BOUND ( 'NONE', #138, .T. ) ;
#112 = ADVANCED_BREP_SHAPE_REPRESENTATION ( 'e3b8', ( #205, #267 ), #59 ) ;
#113 = CARTESIAN_POINT ( 'NONE',  ( 0.000000000000000000, 0.000000000000000000, 0.000000000000000000 ) ) ;
#114 = CIRCLE ( 'NONE', #31, 3.250000000000000444 ) ;
#115 = DIRECTION ( 'NONE',  ( 0.000000000000000000, 0.000000000000000000, 1.000000000000000000 ) ) ;
#116 = ADVANCED_FACE ( 'NONE', ( #52, #173 ), #292, .T. ) ;
#117 = LOCAL_TIME ( 16, 46, 11.00000000000000000, #104 ) ;
#118 = LINE ( 'NONE', #93, #73 ) ;
#119 = ORIENTED_EDGE ( 'NONE', *, *, #257, .F. ) ;
#120 = DIRECTION ( 'NONE',  ( 0.000000000000000000, 0.000000000000000000, 1.000000000000000000 ) ) ;
#121 = EDGE_LOOP ( 'NONE', ( #11, #251 ) ) ;
#122 = CIRCLE ( 'NONE', #342, 3.250000000000000444 ) ;
#123 = EDGE_CURVE ( 'NONE', #125, #90, #10, .T. ) ;
#124 = DIRECTION ( 'NONE',  ( 1.000000000000000000, 0.000000000000000000, 0.000000000000000000 ) ) ;
#125 = VERTEX_POINT ( 'NONE', #25 ) ;
#126 = CLOSED_SHELL ( 'NONE', ( #347, #219, #335, #1, #96, #56, #20, #46, #116, #302, #206 ) ) ;
#127 = APPLICATION_PROTOCOL_DEFINITION ( 'international standard', 'config_control_design', 1994, #45 ) ;
#128 = APPROVAL_PERSON_ORGANIZATION ( #243, #4, #166 ) ;
#129 = DIRECTION ( 'NONE',  ( 1.000000000000000000, 0.000000000000000000, 0.000000000000000000 ) ) ;
#130 = EDGE_LOOP ( 'NONE', ( #134, #241, #238, #224 ) ) ;
#131 = PERSON_AND_ORGANIZATION_ROLE ( 'classification_officer' ) ;
#132 = EDGE_LOOP ( 'NONE', ( #271, #306, #318, #337 ) ) ;
#133 = PERSON_AND_ORGANIZATION ( #368, #34 ) ;
#134 = ORIENTED_EDGE ( 'NONE', *, *, #165, .F. ) ;
#135 = APPROVAL_STATUS ( 'not_yet_approved' ) ;
#136 = CC_DESIGN_PERSON_AND_ORGANIZATION_ASSIGNMENT ( #281, #131, ( #102 ) ) ;
#137 = ORIENTED_EDGE ( 'NONE', *, *, #165, .T. ) ;
#138 = EDGE_LOOP ( 'NONE', ( #186, #119, #217, #268 ) ) ;
#139 = DIRECTION ( 'NONE',  ( 1.000000000000000000, 0.000000000000000000, 0.000000000000000000 ) ) ;
#140 = AXIS2_PLACEMENT_3D ( 'NONE', #289, #170, #146 ) ;
#141 = DIRECTION ( 'NONE',  ( -0.000000000000000000, -0.000000000000000000, -1.000000000000000000 ) ) ;
#142 = CIRCLE ( 'NONE', #81, 0.5000000000000004441 ) ;
#143 = CARTESIAN_POINT ( 'NONE',  ( -5.500000000000000000, 6.735557395310442023E-16, 5.500000000000005329 ) ) ;
#144 = CARTESIAN_POINT ( 'NONE',  ( 0.000000000000000000, 0.000000000000000000, 5.000000000000000000 ) ) ;
#145 = AXIS2_PLACEMENT_3D ( 'NONE', #113, #115, #201 ) ;
#146 = DIRECTION ( 'NONE',  ( 1.000000000000000000, 0.000000000000000000, -0.000000000000000000 ) ) ;
#147 = AXIS2_PLACEMENT_3D ( 'NONE', #150, #236, #358 ) ;
#148 = CARTESIAN_POINT ( 'NONE',  ( -5.000000000000000000, 0.000000000000000000, 255.0000000000000000 ) ) ;
#149 = VERTEX_POINT ( 'NONE', #345 ) ;
#150 = CARTESIAN_POINT ( 'NONE',  ( 0.000000000000000000, 0.000000000000000000, 255.0000000000000000 ) ) ;
#151 = DIRECTION ( 'NONE',  ( 0.000000000000000000, 0.000000000000000000, -1.000000000000000000 ) ) ;
#152 = APPLICATION_CONTEXT ( 'configuration controlled 3d designs of mechanical parts and assemblies' ) ;
#153 = LOCAL_TIME ( 16, 46, 11.00000000000000000, #252 ) ;
#154 = DIRECTION ( 'NONE',  ( -1.000000000000000000, 0.000000000000000000, 0.000000000000000000 ) ) ;
#155 = FACE_OUTER_BOUND ( 'NONE', #130, .T. ) ;
#156 = EDGE_CURVE ( 'NONE', #343, #364, #23, .T. ) ;
#157 = ORIENTED_EDGE ( 'NONE', *, *, #156, .F. ) ;
#158 = CALENDAR_DATE ( 2022, 8, 7 ) ;
#159 = ORIENTED_EDGE ( 'NONE', *, *, #290, .F. ) ;
#160 = CIRCLE ( 'NONE', #346, 0.5000000000000004441 ) ;
#161 = DATE_AND_TIME ( #369, #117 ) ;
#162 = ORIENTED_EDGE ( 'NONE', *, *, #356, .T. ) ;
#163 = APPROVAL_DATE_TIME ( #161, #4 ) ;
#164 = ORIENTED_EDGE ( 'NONE', *, *, #171, .T. ) ;
#165 = EDGE_CURVE ( 'NONE', #149, #248, #160, .T. ) ;
#166 = APPROVAL_ROLE ( '' ) ;
#167 = VERTEX_POINT ( 'NONE', #231 ) ;
#168 = PERSON_AND_ORGANIZATION_ROLE ( 'design_supplier' ) ;
#169 = FACE_BOUND ( 'NONE', #101, .T. ) ;
#170 = DIRECTION ( 'NONE',  ( 0.000000000000000000, 0.000000000000000000, 1.000000000000000000 ) ) ;
#171 = EDGE_CURVE ( 'NONE', #213, #167, #122, .T. ) ;
#172 = DIRECTION ( 'NONE',  ( -0.000000000000000000, -0.000000000000000000, -1.000000000000000000 ) ) ;
#173 = FACE_OUTER_BOUND ( 'NONE', #211, .T. ) ;
#174 = PRODUCT_DEFINITION_SHAPE ( 'NONE', 'NONE',  #106 ) ;
#175 = EDGE_CURVE ( 'NONE', #334, #222, #229, .T. ) ;
#176 = CARTESIAN_POINT ( 'NONE',  ( 0.000000000000000000, 0.000000000000000000, 255.0000000000000000 ) ) ;
#177 = DIRECTION ( 'NONE',  ( 1.000000000000000000, 0.000000000000000000, 0.000000000000000000 ) ) ;
#178 = DIRECTION ( 'NONE',  ( 0.000000000000000000, -1.000000000000000000, 0.000000000000000000 ) ) ;
#179 = FACE_OUTER_BOUND ( 'NONE', #92, .T. ) ;
#180 = CARTESIAN_POINT ( 'NONE',  ( 0.000000000000000000, 0.000000000000000000, 255.0000000000000000 ) ) ;
#181 = LINE ( 'NONE', #148, #53 ) ;
#182 = AXIS2_PLACEMENT_3D ( 'NONE', #235, #28, #360 ) ;
#183 = CARTESIAN_POINT ( 'NONE',  ( 0.000000000000000000, 0.000000000000000000, 5.500000000000005329 ) ) ;
#184 = ORIENTED_EDGE ( 'NONE', *, *, #156, .T. ) ;
#185 = APPROVAL_ROLE ( '' ) ;
#186 = ORIENTED_EDGE ( 'NONE', *, *, #87, .F. ) ;
#187 = MECHANICAL_CONTEXT ( 'NONE', #152, 'mechanical' ) ;
#188 = DIRECTION ( 'NONE',  ( -0.000000000000000000, -0.000000000000000000, -1.000000000000000000 ) ) ;
#189 = AXIS2_PLACEMENT_3D ( 'NONE', #376, #80, #22 ) ;
#190 = PRODUCT_DEFINITION_FORMATION_WITH_SPECIFIED_SOURCE ( 'LIBOVOLNÝ', '', #272, .NOT_KNOWN. ) ;
#191 =( NAMED_UNIT ( * ) PLANE_ANGLE_UNIT ( ) SI_UNIT ( $, .RADIAN. ) );
#192 = ORIENTED_EDGE ( 'NONE', *, *, #323, .T. ) ;
#193 = CC_DESIGN_PERSON_AND_ORGANIZATION_ASSIGNMENT ( #72, #77, ( #272 ) ) ;
#194 = VERTEX_POINT ( 'NONE', #260 ) ;
#195 = AXIS2_PLACEMENT_3D ( 'NONE', #284, #220, #246 ) ;
#196 = APPROVAL_STATUS ( 'not_yet_approved' ) ;
#197 = ORIENTED_EDGE ( 'NONE', *, *, #356, .F. ) ;
#198 = EDGE_CURVE ( 'NONE', #298, #213, #230, .T. ) ;
#199 = CARTESIAN_POINT ( 'NONE',  ( 0.000000000000000000, 0.000000000000000000, 255.0000000000000000 ) ) ;
#200 = CC_DESIGN_PERSON_AND_ORGANIZATION_ASSIGNMENT ( #16, #168, ( #190 ) ) ;
#201 = DIRECTION ( 'NONE',  ( 1.000000000000000000, 0.000000000000000000, 0.000000000000000000 ) ) ;
#202 = CARTESIAN_POINT ( 'NONE',  ( 0.000000000000000000, 0.000000000000000000, 5.000000000000000000 ) ) ;
#203 = CARTESIAN_POINT ( 'NONE',  ( 0.000000000000000000, 0.000000000000000000, 5.000000000000000000 ) ) ;
#204 = CC_DESIGN_APPROVAL ( #338, ( #190 ) ) ;
#205 = MANIFOLD_SOLID_BREP ( 'Odebrat vysunutím3', #126 ) ;
#206 = ADVANCED_FACE ( 'NONE', ( #322 ), #51, .F. ) ;
#207 = FACE_OUTER_BOUND ( 'NONE', #344, .T. ) ;
#208 = CARTESIAN_POINT ( 'NONE',  ( 5.500000000000000000, 0.000000000000000000, 5.500000000000005329 ) ) ;
#209 = ORIENTED_EDGE ( 'NONE', *, *, #123, .T. ) ;
#210 = CARTESIAN_POINT ( 'NONE',  ( -5.000000000000000000, 0.000000000000000000, 255.0000000000000000 ) ) ;
#211 = EDGE_LOOP ( 'NONE', ( #76, #105 ) ) ;
#212 =( LENGTH_UNIT ( ) NAMED_UNIT ( * ) SI_UNIT ( .MILLI., .METRE. ) );
#213 = VERTEX_POINT ( 'NONE', #273 ) ;
#214 = DIRECTION ( 'NONE',  ( 1.000000000000000000, 0.000000000000000000, 0.000000000000000000 ) ) ;
#215 = ORIENTED_EDGE ( 'NONE', *, *, #278, .F. ) ;
#216 = APPROVAL_DATE_TIME ( #247, #370 ) ;
#217 = ORIENTED_EDGE ( 'NONE', *, *, #278, .T. ) ;
#218 = SECURITY_CLASSIFICATION_LEVEL ( 'unclassified' ) ;
#219 = ADVANCED_FACE ( 'NONE', ( #179 ), #94, .F. ) ;
#220 = DIRECTION ( 'NONE',  ( -0.000000000000000000, -0.000000000000000000, -1.000000000000000000 ) ) ;
#221 = SHAPE_DEFINITION_REPRESENTATION ( #174, #112 ) ;
#222 = VERTEX_POINT ( 'NONE', #210 ) ;
#223 = COORDINATED_UNIVERSAL_TIME_OFFSET ( 1, 0, .AHEAD. ) ;
#224 = ORIENTED_EDGE ( 'NONE', *, *, #69, .F. ) ;
#225 = EDGE_CURVE ( 'NONE', #339, #167, #89, .T. ) ;
#226 = VECTOR ( 'NONE', #321, 1000.000000000000000 ) ;
#227 = DIRECTION ( 'NONE',  ( -1.000000000000000000, 0.000000000000000000, 0.000000000000000000 ) ) ;
#228 = CC_DESIGN_DATE_AND_TIME_ASSIGNMENT ( #100, #361, ( #106 ) ) ;
#229 = CIRCLE ( 'NONE', #5, 5.000000000000000000 ) ;
#230 = LINE ( 'NONE', #380, #18 ) ;
#231 = CARTESIAN_POINT ( 'NONE',  ( -3.250000000000000444, 0.000000000000000000, 0.000000000000000000 ) ) ;
#232 = CARTESIAN_POINT ( 'NONE',  ( -8.000000000000000000, 0.000000000000000000, 0.000000000000000000 ) ) ;
#233 = AXIS2_PLACEMENT_3D ( 'NONE', #330, #300, #57 ) ;
#234 = DIRECTION ( 'NONE',  ( -1.000000000000000000, 1.224646799147351482E-16, 0.000000000000000000 ) ) ;
#235 = CARTESIAN_POINT ( 'NONE',  ( 0.000000000000000000, 0.000000000000000000, 5.500000000000005329 ) ) ;
#236 = DIRECTION ( 'NONE',  ( -0.000000000000000000, -0.000000000000000000, -1.000000000000000000 ) ) ;
#237 = CARTESIAN_POINT ( 'NONE',  ( 3.250000000000000444, 3.980102097228898231E-16, 255.0000000000000000 ) ) ;
#238 = ORIENTED_EDGE ( 'NONE', *, *, #283, .T. ) ;
#239 = CARTESIAN_POINT ( 'NONE',  ( -8.000000000000000000, 0.000000000000000000, 5.000000000000000000 ) ) ;
#240 = CARTESIAN_POINT ( 'NONE',  ( 0.000000000000000000, 0.000000000000000000, 255.0000000000000000 ) ) ;
#241 = ORIENTED_EDGE ( 'NONE', *, *, #313, .F. ) ;
#242 = AXIS2_PLACEMENT_3D ( 'NONE', #203, #348, #256 ) ;
#243 = PERSON_AND_ORGANIZATION ( #368, #34 ) ;
#244 = APPROVAL_PERSON_ORGANIZATION ( #250, #338, #362 ) ;
#245 = APPLICATION_PROTOCOL_DEFINITION ( 'international standard', 'config_control_design', 1994, #152 ) ;
#246 = DIRECTION ( 'NONE',  ( -1.000000000000000000, 0.000000000000000000, 0.000000000000000000 ) ) ;
#247 = DATE_AND_TIME ( #158, #95 ) ;
#248 = VERTEX_POINT ( 'NONE', #30 ) ;
#249 = CIRCLE ( 'NONE', #354, 3.250000000000000444 ) ;
#250 = PERSON_AND_ORGANIZATION ( #368, #34 ) ;
#251 = ORIENTED_EDGE ( 'NONE', *, *, #123, .F. ) ;
#252 = COORDINATED_UNIVERSAL_TIME_OFFSET ( 1, 0, .AHEAD. ) ;
#253 = ORIENTED_EDGE ( 'NONE', *, *, #269, .F. ) ;
#254 = DIRECTION ( 'NONE',  ( 0.000000000000000000, 0.000000000000000000, 1.000000000000000000 ) ) ;
#255 = CYLINDRICAL_SURFACE ( 'NONE', #293, 5.000000000000000000 ) ;
#256 = DIRECTION ( 'NONE',  ( 1.000000000000000000, 0.000000000000000000, -0.000000000000000000 ) ) ;
#257 = EDGE_CURVE ( 'NONE', #222, #334, #378, .T. ) ;
#258 = DIRECTION ( 'NONE',  ( 1.000000000000000000, 0.000000000000000000, 0.000000000000000000 ) ) ;
#259 = CARTESIAN_POINT ( 'NONE',  ( 0.000000000000000000, 0.000000000000000000, 5.000000000000000000 ) ) ;
#260 = CARTESIAN_POINT ( 'NONE',  ( 5.500000000000000000, 0.000000000000000000, 5.000000000000002665 ) ) ;
#261 = LOCAL_TIME ( 16, 46, 11.00000000000000000, #336 ) ;
#262 = DIRECTION ( 'NONE',  ( -0.000000000000000000, -0.000000000000000000, -1.000000000000000000 ) ) ;
#263 = CC_DESIGN_PERSON_AND_ORGANIZATION_ASSIGNMENT ( #365, #47, ( #190 ) ) ;
#264 = CARTESIAN_POINT ( 'NONE',  ( -3.250000000000000444, 0.000000000000000000, 255.0000000000000000 ) ) ;
#265 = AXIS2_PLACEMENT_3D ( 'NONE', #98, #17, #48 ) ;
#266 = DIRECTION ( 'NONE',  ( -0.000000000000000000, -0.000000000000000000, -1.000000000000000000 ) ) ;
#267 = AXIS2_PLACEMENT_3D ( 'NONE', #314, #42, #129 ) ;
#268 = ORIENTED_EDGE ( 'NONE', *, *, #13, .T. ) ;
#269 = EDGE_CURVE ( 'NONE', #298, #339, #108, .T. ) ;
#270 = DIRECTION ( 'NONE',  ( 0.000000000000000000, 0.000000000000000000, 1.000000000000000000 ) ) ;
#271 = ORIENTED_EDGE ( 'NONE', *, *, #198, .F. ) ;
#272 = PRODUCT ( 'e3b8', 'e3b8', '', ( #187 ) ) ;
#273 = CARTESIAN_POINT ( 'NONE',  ( 3.250000000000000444, 3.980102097228898231E-16, 0.000000000000000000 ) ) ;
#274 = CIRCLE ( 'NONE', #265, 5.000000000000000000 ) ;
#275 =( NAMED_UNIT ( * ) SI_UNIT ( $, .STERADIAN. ) SOLID_ANGLE_UNIT ( ) );
#276 = ORIENTED_EDGE ( 'NONE', *, *, #171, .F. ) ;
#277 = AXIS2_PLACEMENT_3D ( 'NONE', #180, #120, #88 ) ;
#278 = EDGE_CURVE ( 'NONE', #222, #149, #181, .T. ) ;
#279 = APPROVAL_DATE_TIME ( #38, #338 ) ;
#280 = DIRECTION ( 'NONE',  ( 1.000000000000000000, 0.000000000000000000, 0.000000000000000000 ) ) ;
#281 = PERSON_AND_ORGANIZATION ( #368, #34 ) ;
#282 = EDGE_LOOP ( 'NONE', ( #315, #253 ) ) ;
#283 = EDGE_CURVE ( 'NONE', #371, #194, #142, .T. ) ;
#284 = CARTESIAN_POINT ( 'NONE',  ( 0.000000000000000000, 0.000000000000000000, 5.000000000000000000 ) ) ;
#285 = AXIS2_PLACEMENT_3D ( 'NONE', #375, #349, #328 ) ;
#286 = AXIS2_PLACEMENT_3D ( 'NONE', #37, #6, #124 ) ;
#287 = PLANE ( 'NONE',  #99 ) ;
#288 = DIRECTION ( 'NONE',  ( -0.000000000000000000, -0.000000000000000000, -1.000000000000000000 ) ) ;
#289 = CARTESIAN_POINT ( 'NONE',  ( 0.000000000000000000, 0.000000000000000000, 255.0000000000000000 ) ) ;
#290 = EDGE_CURVE ( 'NONE', #364, #90, #65, .T. ) ;
#291 = PLANE ( 'NONE',  #242 ) ;
#292 = PLANE ( 'NONE',  #140 ) ;
#293 = AXIS2_PLACEMENT_3D ( 'NONE', #176, #26, #324 ) ;
#294 = CARTESIAN_POINT ( 'NONE',  ( 5.000000000000000000, 6.123233995736766282E-16, 255.0000000000000000 ) ) ;
#295 = AXIS2_PLACEMENT_3D ( 'NONE', #327, #54, #227 ) ;
#296 = DIRECTION ( 'NONE',  ( -0.000000000000000000, -0.000000000000000000, -1.000000000000000000 ) ) ;
#297 = CC_DESIGN_PERSON_AND_ORGANIZATION_ASSIGNMENT ( #133, #68, ( #106 ) ) ;
#298 = VERTEX_POINT ( 'NONE', #237 ) ;
#299 = CARTESIAN_POINT ( 'NONE',  ( -3.250000000000000444, 0.000000000000000000, 255.0000000000000000 ) ) ;
#300 = DIRECTION ( 'NONE',  ( 0.000000000000000000, 0.000000000000000000, 1.000000000000000000 ) ) ;
#301 = CIRCLE ( 'NONE', #351, 5.500000000000000000 ) ;
#302 = ADVANCED_FACE ( 'NONE', ( #155 ), #357, .F. ) ;
#303 = FACE_OUTER_BOUND ( 'NONE', #43, .T. ) ;
#304 = VECTOR ( 'NONE', #296, 1000.000000000000000 ) ;
#305 = DIRECTION ( 'NONE',  ( 1.000000000000000000, 0.000000000000000000, 0.000000000000000000 ) ) ;
#306 = ORIENTED_EDGE ( 'NONE', *, *, #269, .T. ) ;
#307 = COORDINATED_UNIVERSAL_TIME_OFFSET ( 1, 0, .AHEAD. ) ;
#308 = ORIENTED_EDGE ( 'NONE', *, *, #283, .F. ) ;
#309 = CALENDAR_DATE ( 2022, 8, 7 ) ;
#310 = FACE_OUTER_BOUND ( 'NONE', #74, .T. ) ;
#311 = CIRCLE ( 'NONE', #367, 5.000000000000000000 ) ;
#312 = ORIENTED_EDGE ( 'NONE', *, *, #110, .T. ) ;
#313 = EDGE_CURVE ( 'NONE', #371, #149, #311, .T. ) ;
#314 = CARTESIAN_POINT ( 'NONE',  ( 0.000000000000000000, 0.000000000000000000, 0.000000000000000000 ) ) ;
#315 = ORIENTED_EDGE ( 'NONE', *, *, #84, .F. ) ;
#316 = AXIS2_PLACEMENT_3D ( 'NONE', #202, #288, #177 ) ;
#317 = CALENDAR_DATE ( 2022, 8, 7 ) ;
#318 = ORIENTED_EDGE ( 'NONE', *, *, #225, .T. ) ;
#319 = AXIS2_PLACEMENT_3D ( 'NONE', #240, #270, #214 ) ;
#320 = CC_DESIGN_SECURITY_CLASSIFICATION ( #102, ( #190 ) ) ;
#321 = DIRECTION ( 'NONE',  ( -0.000000000000000000, -0.000000000000000000, -1.000000000000000000 ) ) ;
#322 = FACE_OUTER_BOUND ( 'NONE', #132, .T. ) ;
#323 = EDGE_CURVE ( 'NONE', #343, #125, #118, .T. ) ;
#324 = DIRECTION ( 'NONE',  ( -1.000000000000000000, 0.000000000000000000, 0.000000000000000000 ) ) ;
#325 = DESIGN_CONTEXT ( 'detailed design', #45, 'design' ) ;
#326 = DIRECTION ( 'NONE',  ( 0.000000000000000000, 0.000000000000000000, 1.000000000000000000 ) ) ;
#327 = CARTESIAN_POINT ( 'NONE',  ( 0.000000000000000000, 0.000000000000000000, 5.000000000000000000 ) ) ;
#328 = DIRECTION ( 'NONE',  ( -1.000000000000000000, 0.000000000000000000, 0.000000000000000000 ) ) ;
#329 = AXIS2_PLACEMENT_3D ( 'NONE', #332, #353, #154 ) ;
#330 = CARTESIAN_POINT ( 'NONE',  ( 0.000000000000000000, 0.000000000000000000, 5.500000000000005329 ) ) ;
#331 = ORIENTED_EDGE ( 'NONE', *, *, #175, .F. ) ;
#332 = CARTESIAN_POINT ( 'NONE',  ( 0.000000000000000000, 0.000000000000000000, 255.0000000000000000 ) ) ;
#333 = CIRCLE ( 'NONE', #145, 8.000000000000000000 ) ;
#334 = VERTEX_POINT ( 'NONE', #3 ) ;
#335 = ADVANCED_FACE ( 'NONE', ( #303 ), #35, .T. ) ;
#336 = COORDINATED_UNIVERSAL_TIME_OFFSET ( 1, 0, .AHEAD. ) ;
#337 = ORIENTED_EDGE ( 'NONE', *, *, #29, .T. ) ;
#338 = APPROVAL ( #196, 'NEURÈENÝ' ) ;
#339 = VERTEX_POINT ( 'NONE', #264 ) ;
#340 = DATE_AND_TIME ( #309, #261 ) ;
#341 = ORIENTED_EDGE ( 'NONE', *, *, #33, .T. ) ;
#342 = AXIS2_PLACEMENT_3D ( 'NONE', #352, #141, #373 ) ;
#343 = VERTEX_POINT ( 'NONE', #91 ) ;
#344 = EDGE_LOOP ( 'NONE', ( #372, #197, #9, #341 ) ) ;
#345 = CARTESIAN_POINT ( 'NONE',  ( -5.000000000000000000, 0.000000000000000000, 5.500000000000005329 ) ) ;
#346 = AXIS2_PLACEMENT_3D ( 'NONE', #143, #377, #234 ) ;
#347 = ADVANCED_FACE ( 'NONE', ( #355 ), #63, .F. ) ;
#348 = DIRECTION ( 'NONE',  ( 0.000000000000000000, 0.000000000000000000, 1.000000000000000000 ) ) ;
#349 = DIRECTION ( 'NONE',  ( 0.000000000000000000, 0.000000000000000000, -1.000000000000000000 ) ) ;
#350 = LINE ( 'NONE', #294, #226 ) ;
#351 = AXIS2_PLACEMENT_3D ( 'NONE', #144, #172, #50 ) ;
#352 = CARTESIAN_POINT ( 'NONE',  ( 0.000000000000000000, 0.000000000000000000, 0.000000000000000000 ) ) ;
#353 = DIRECTION ( 'NONE',  ( 0.000000000000000000, 0.000000000000000000, -1.000000000000000000 ) ) ;
#354 = AXIS2_PLACEMENT_3D ( 'NONE', #199, #326, #86 ) ;
#355 = FACE_OUTER_BOUND ( 'NONE', #36, .T. ) ;
#356 = EDGE_CURVE ( 'NONE', #364, #343, #379, .T. ) ;
#357 = TOROIDAL_SURFACE ( 'NONE', #182, 5.500000000000000000, 0.5000000000000000000 ) ;
#358 = DIRECTION ( 'NONE',  ( -1.000000000000000000, 0.000000000000000000, 0.000000000000000000 ) ) ;
#359 = CARTESIAN_POINT ( 'NONE',  ( 5.000000000000000000, 6.123233995736766282E-16, 5.500000000000005329 ) ) ;
#360 = DIRECTION ( 'NONE',  ( 1.000000000000000000, 0.000000000000000000, 0.000000000000000000 ) ) ;
#361 = DATE_TIME_ROLE ( 'creation_date' ) ;
#362 = APPROVAL_ROLE ( '' ) ;
#363 = ORIENTED_EDGE ( 'NONE', *, *, #69, .T. ) ;
#364 = VERTEX_POINT ( 'NONE', #239 ) ;
#365 = PERSON_AND_ORGANIZATION ( #368, #34 ) ;
#366 = ORIENTED_EDGE ( 'NONE', *, *, #313, .T. ) ;
#367 = AXIS2_PLACEMENT_3D ( 'NONE', #183, #60, #305 ) ;
#368 = PERSON ( 'NEURÈENÝ', 'NEURÈENÝ', 'NEURÈENÝ', ('NEURÈENÝ'), ('NEURÈENÝ'), ('NEURÈENÝ') ) ;
#369 = CALENDAR_DATE ( 2022, 8, 7 ) ;
#370 = APPROVAL ( #14, 'NEURÈENÝ' ) ;
#371 = VERTEX_POINT ( 'NONE', #359 ) ;
#372 = ORIENTED_EDGE ( 'NONE', *, *, #323, .F. ) ;
#373 = DIRECTION ( 'NONE',  ( 1.000000000000000000, 0.000000000000000000, 0.000000000000000000 ) ) ;
#374 = PRODUCT_RELATED_PRODUCT_CATEGORY ( 'detail', '', ( #272 ) ) ;
#375 = CARTESIAN_POINT ( 'NONE',  ( 0.000000000000000000, 0.000000000000000000, 255.0000000000000000 ) ) ;
#376 = CARTESIAN_POINT ( 'NONE',  ( 0.000000000000000000, 0.000000000000000000, 0.000000000000000000 ) ) ;
#377 = DIRECTION ( 'NONE',  ( 1.224646799147353207E-16, 1.000000000000000000, -0.000000000000000000 ) ) ;
#378 = CIRCLE ( 'NONE', #277, 5.000000000000000000 ) ;
#379 = CIRCLE ( 'NONE', #286, 8.000000000000000000 ) ;
#380 = CARTESIAN_POINT ( 'NONE',  ( 3.250000000000000444, 3.980102097228898231E-16, 255.0000000000000000 ) ) ;
#381 = CARTESIAN_POINT ( 'NONE',  ( -8.000000000000000000, 0.000000000000000000, 5.000000000000000000 ) ) ;
ENDSEC;
END-ISO-10303-21;
